  0
SECTION
  2
HEADER
  9
$EXTMAX
 10
210.0
 20
297.0
 30
0.0
  9
$EXTMIN
 10
0.0
 20
0.0
 30
0.0
  9
$LIMMIN
 10
0.0
 20
0.0
  9
$LIMMAX
 10
210.0
 20
297.0
  9
$VIEWCTR
 10
105.0
 20
148.5
  9
$VIEWSIZE
 40
297.0
  9
$CLAYER
  8
0
  9
$LTSCALE
 40
19.36
  9
$CELTYPE
  6
BYLAYER
  9
$DIMSCALE
 40
1.0
  9
$DIMASZ
 40
3.5
  9
$DIMEXO
 40
2.2
  9
$DIMDLI
 40
13.376
  9
$DIMEXE
 40
6.336
  9
$DIMCEN
 40
3.168
  9
$DIMLFAC
 40
1.0
  9
$DIMBLK
  1
_FILLED
  9
$DIMTXT
 40
3.5
  9
$PDMODE
 70
3
  9
$PDSIZE
 40
0.3125
  9
$TILEMODE
 70
1
  0
ENDSEC
  0
SECTION
  2
TABLES
  0
TABLE
  2
LTYPE
 70
6
  0
LTYPE
  2
BYBLOCK
 70
0
  3

 72
65
 73
0
 40
0.0
  0
LTYPE
  2
BYLAYER
 70
0
  3

 72
65
 73
0
 40
0.0
  0
LTYPE
  2
CONTINUOUS
 70
64
  3
Solid line
 72
65
 73
0
 40
0.0
  0
LTYPE
  2
CENTER
 70
64
  3
____ _ ____ _ ____ _ ____ _ ____ _ ____ _ ____
 72
65
 73
4
 40
0.6
 49
0.375
 49
-0.075
 49
0.075
 49
-0.075
  0
LTYPE
  2
HIDDEN
 70
64
  3
- - - - - - - - - - - - - - - - - - - -
 72
65
 73
2
 40
0.2
 49
0.1
 49
-0.1
  0
LTYPE
  2
PHANTOM
 70
64
  3
_____ _ _ _____ _ _ _____ _ _ _____
 72
65
 73
6
 40
0.8
 49
0.45
 49
-0.05
 49
0.1
 49
-0.05
 49
0.1
 49
-0.05
  0
LTYPE
  2
DOT
 70
64
  3
. . . . . . . . . . . . . . . . . . . .
 72
65
 73
2
 40
0.2
 49
0.1
 49
-0.1
  0
LTYPE
  2
DASHED
 70
64
  3
- - - - - - - - - - - - - - - - - - - -
 72
65
 73
2
 40
0.2
 49
0.1
 49
-0.1
  0
ENDTAB
  0
TABLE
  2
LAYER
 70
36
  0
LAYER
  2
0
 70
0
 62
7
  6
CONTINUOUS
  0
LAYER
  2
DEFAULT_1
 70
0
 62
7
  6
CENTER
  0
LAYER
  2
DEFAULT_2
 70
0
 62
8
  6
HIDDEN
  0
LAYER
  2
DEFAULT_3
 70
0
 62
7
  6
PHANTOM
  0
LAYER
  2
1_AXIS
 70
0
 62
7
  6
CONTINUOUS
  0
LAYER
  2
1_CSYS
 70
0
 62
7
  6
CONTINUOUS
  0
LAYER
  2
1_DATUMPLANE
 70
0
 62
7
  6
CONTINUOUS
  0
LAYER
  2
1_DATUM_PLANE
 70
0
 62
7
  6
CONTINUOUS
  0
LAYER
  2
4_QUILT
 70
0
 62
7
  6
CONTINUOUS
  0
LAYER
  2
4_SURFACE
 70
0
 62
7
  6
CONTINUOUS
  0
LAYER
  2
6_DIM
 70
0
 62
7
  6
CONTINUOUS
  0
LAYER
  2
6_NOTE
 70
0
 62
7
  6
CONTINUOUS
  0
LAYER
  2
AXES
 70
0
 62
7
  6
CONTINUOUS
  0
LAYER
  2
NOTES
 70
0
 62
7
  6
CONTINUOUS
  0
LAYER
  2
PLANES
 70
0
 62
7
  6
CONTINUOUS
  0
LAYER
  2
SUF
 70
0
 62
7
  6
CONTINUOUS
  0
ENDTAB
  0
TABLE
  2
STYLE
 70
1
  0
STYLE
  2
STANDARD
 70
0
 40
0.0
 41
0.8
 50
0.0
 71
0
 42
0.2
  3
txt
  4

  0
STYLE
  2
TEXTSTYLE_1
 70
0
 40
0.0
 41
0.8
 50
0.0
 71
0
 42
0.2
  3
gdt
  4

  0
STYLE
  2
TEXTSTYLE_2
 70
0
 40
0.0
 41
0.6
 50
0.0
 71
0
 42
0.2
  3
txt
  4

  0
STYLE
  2
TEXTSTYLE_3
 70
0
 40
0.0
 41
1.0
 50
0.0
 71
0
 42
0.2
  3
ftb_____.ttf
  4

  0
STYLE
  2
TEXTSTYLE_4
 70
0
 40
0.0
 41
1.0
 50
0.0
 71
0
 42
0.2
  3
fti_____.ttf
  4

  0
STYLE
  2
TEXTSTYLE_5
 70
0
 40
0.0
 41
1.0
 50
0.0
 71
0
 42
0.2
  3
frutiger light.ttf
  4

  0
STYLE
  2
TEXTSTYLE_6
 70
0
 40
0.0
 41
0.7
 50
0.0
 71
0
 42
0.2
  3
txt
  4

  0
STYLE
  2
TEXTSTYLE_7
 70
0
 40
0.0
 41
0.65
 50
0.0
 71
0
 42
0.2
  3
txt
  4

  0
ENDTAB
  0
ENDSEC
  0
SECTION
  2
BLOCKS
  0
BLOCK
  8
0
 62
2
  6
CONTINUOUS
  2
SYMBOL_8_BL1
 70
64
 10
173.5956734183
 20
35.5937998301
  0
TEXT
  8
0
 62
7
  6
CONTINUOUS
 10
164.6539584268
 20
30.6865562072
  7
TEXTSTYLE_4
 40
1.0655737705
  1
The brand for plastic modular belts and chains
 41
1.0
 72
0
  0
LINE
  8
0
 62
7
  6
CONTINUOUS
 10
149.5737418074
 20
36.1675703219
 11
149.5737418074
 21
34.0364227809
  0
LINE
  8
0
 62
7
  6
CONTINUOUS
 10
149.8628043005
 20
31.0454914852
 11
149.8628043005
 21
31.1422825445
  0
LINE
  8
0
 62
7
  6
CONTINUOUS
 10
149.5737418074
 20
31.1100188581
 11
149.6315543091
 21
30.9164367395
  0
LINE
  8
0
 62
7
  6
CONTINUOUS
 10
150.9671844304
 20
33.9544555678
 11
150.9671844304
 21
36.1675703219
  0
LINE
  8
0
 62
7
  6
CONTINUOUS
 10
151.8862417523
 20
32.1101932727
 11
151.8862417523
 21
30.5937998301
  0
LINE
  8
0
 62
7
  6
CONTINUOUS
 10
152.1753043074
 20
30.5937998301
 11
152.1753043074
 21
31.3358647082
  0
LINE
  8
0
 62
7
  6
CONTINUOUS
 10
152.1753043074
 20
31.4649194539
 11
152.1753043074
 21
32.1101932727
  0
LINE
  8
0
 62
7
  6
CONTINUOUS
 10
149.6315543091
 20
31.3036010218
 11
149.5737418074
 21
31.1100188581
  0
LINE
  8
0
 62
7
  6
CONTINUOUS
 10
149.9784292936
 20
30.8841730531
 11
149.8628043005
 21
31.0454914852
  0
LINE
  8
0
 62
7
  6
CONTINUOUS
 10
151.0768668626
 20
31.400392081
 11
151.1346793074
 21
31.3036010218
  0
LINE
  8
0
 62
7
  6
CONTINUOUS
 10
151.4237418626
 20
31.3036010218
 11
151.3659292523
 21
31.4326557675
  0
LINE
  8
0
 62
7
  6
CONTINUOUS
 10
152.852430332
 20
36.1675703219
 11
152.852430332
 21
34.3642916334
  0
LINE
  8
0
 62
7
  6
CONTINUOUS
 10
152.852430332
 20
33.0528162235
 11
152.852430332
 21
32.3970785186
  0
LINE
  8
0
 62
7
  6
CONTINUOUS
 10
153.2159293074
 20
31.2390736489
 11
153.2159293074
 21
30.5937998301
  0
LINE
  8
0
 62
7
  6
CONTINUOUS
 10
153.5049916972
 20
30.5937998301
 11
153.5049916972
 21
31.2390736489
  0
LINE
  8
0
 62
7
  6
CONTINUOUS
 10
149.8628043005
 20
31.1422825445
 11
149.9206168074
 21
31.2713373354
  0
LINE
  8
0
 62
7
  6
CONTINUOUS
 10
149.6315543091
 20
30.9164367395
 11
149.7471793074
 21
30.7873819712
  0
LINE
  8
0
 62
7
  6
CONTINUOUS
 10
153.1581166972
 20
31.3681283946
 11
153.2159293074
 21
31.2390736489
  0
LINE
  8
0
 62
7
  6
CONTINUOUS
 10
153.9674919177
 20
30.8841730531
 11
154.0253041972
 21
30.7551182848
  0
LINE
  8
0
 62
7
  6
CONTINUOUS
 10
153.5049916972
 20
31.2390736489
 11
153.4471794177
 21
31.400392081
  0
LINE
  8
0
 62
7
  6
CONTINUOUS
 10
153.9674919177
 20
31.4326557675
 11
153.9674919177
 21
31.3681283946
  0
LINE
  8
0
 62
7
  6
CONTINUOUS
 10
153.9674919177
 20
30.9809641124
 11
153.9674919177
 21
30.8841730531
  0
LINE
  8
0
 62
7
  6
CONTINUOUS
 10
154.245872955
 20
32.3970785186
 11
154.245872955
 21
36.1675703219
  0
LINE
  8
0
 62
7
  6
CONTINUOUS
 10
154.2565543074
 20
30.8519093441
 11
154.2565543074
 21
30.9164367395
  0
LINE
  8
0
 62
7
  6
CONTINUOUS
 10
154.5737418074
 20
36.1675703219
 11
154.5737418074
 21
32.3970785186
  0
LINE
  8
0
 62
7
  6
CONTINUOUS
 10
151.3659292523
 20
30.7873819712
 11
151.4237418626
 21
30.9164367395
  0
LINE
  8
0
 62
7
  6
CONTINUOUS
 10
155.759679528
 20
30.6905909007
 11
155.7018665869
 21
30.8519093441
  0
LINE
  8
0
 62
7
  6
CONTINUOUS
 10
155.412804528
 20
31.3681283946
 11
155.412804528
 21
31.2713373354
  0
LINE
  8
0
 62
7
  6
CONTINUOUS
 10
155.412804528
 20
31.1422825445
 11
155.412804528
 21
30.9487004259
  0
LINE
  8
0
 62
7
  6
CONTINUOUS
 10
155.7018665869
 20
30.8519093441
 11
155.7018665869
 21
31.3681283946
  0
LINE
  8
0
 62
7
  6
CONTINUOUS
 10
155.9671844304
 20
32.3970785186
 11
155.9671844304
 21
34.2003572071
  0
LINE
  8
0
 62
7
  6
CONTINUOUS
 10
155.9671844304
 20
35.511832617
 11
155.9671844304
 21
36.1675703219
  0
LINE
  8
0
 62
7
  6
CONTINUOUS
 10
156.279992028
 20
32.1101932727
 11
156.279992028
 21
31.9488748406
  0
LINE
  8
0
 62
7
  6
CONTINUOUS
 10
156.279992028
 20
31.626237886
 11
156.279992028
 21
30.5937998301
  0
LINE
  8
0
 62
7
  6
CONTINUOUS
 10
156.5690540869
 20
30.5937998301
 11
156.5690540869
 21
31.626237886
  0
LINE
  8
0
 62
7
  6
CONTINUOUS
 10
156.5690540869
 20
31.9488748406
 11
156.5690540869
 21
32.1101932727
  0
LINE
  8
0
 62
7
  6
CONTINUOUS
 10
151.1346793074
 20
30.9164367395
 11
151.0768668626
 21
30.8196456577
  0
LINE
  8
0
 62
7
  6
CONTINUOUS
 10
153.4471794177
 20
31.400392081
 11
153.3893668074
 21
31.4649194539
  0
LINE
  8
0
 62
7
  6
CONTINUOUS
 10
154.3143669177
 20
30.7873819712
 11
154.2565543074
 21
30.8519093441
  0
LINE
  8
0
 62
7
  6
CONTINUOUS
 10
155.4706168074
 20
30.6583272086
 11
155.5284290869
 21
30.5937998301
  0
LINE
  8
0
 62
7
  6
CONTINUOUS
 10
155.412804528
 20
30.7551182848
 11
155.4706168074
 21
30.6583272086
  0
LINE
  8
0
 62
7
  6
CONTINUOUS
 10
155.8174918074
 20
30.5937998301
 11
155.759679528
 21
30.6905909007
  0
LINE
  8
0
 62
7
  6
CONTINUOUS
 10
155.7018665869
 20
31.3681283946
 11
155.6440543074
 21
31.4649194539
  0
LINE
  8
0
 62
7
  6
CONTINUOUS
 10
157.0315543074
 20
31.626237886
 11
157.0315543074
 21
30.5937998301
  0
LINE
  8
0
 62
7
  6
CONTINUOUS
 10
157.320617028
 20
30.5937998301
 11
157.320617028
 21
31.3358647082
  0
LINE
  8
0
 62
7
  6
CONTINUOUS
 10
157.320617028
 20
31.4649194539
 11
157.320617028
 21
31.626237886
  0
LINE
  8
0
 62
7
  6
CONTINUOUS
 10
157.852430332
 20
34.6101932727
 11
157.852430332
 21
32.3970785186
  0
LINE
  8
0
 62
7
  6
CONTINUOUS
 10
149.7471793074
 20
31.4326557675
 11
149.6315543091
 21
31.3036010218
  0
LINE
  8
0
 62
7
  6
CONTINUOUS
 10
149.9206168074
 20
31.2713373354
 11
149.9784292936
 21
31.3358647082
  0
LINE
  8
0
 62
7
  6
CONTINUOUS
 10
149.7471793074
 20
30.7873819712
 11
149.8628043005
 21
30.7228545871
  0
LINE
  8
0
 62
7
  6
CONTINUOUS
 10
150.1518667936
 20
30.7873819712
 11
149.9784292936
 21
30.8841730531
  0
LINE
  8
0
 62
7
  6
CONTINUOUS
 10
155.3549915869
 20
31.4326557675
 11
155.412804528
 21
31.3681283946
  0
LINE
  8
0
 62
7
  6
CONTINUOUS
 10
158.3034290869
 20
31.3681283946
 11
158.361242028
 21
31.2068099625
  0
LINE
  8
0
 62
7
  6
CONTINUOUS
 10
158.6503040869
 20
31.2068099625
 11
158.5924918074
 21
31.3681283946
  0
LINE
  8
0
 62
7
  6
CONTINUOUS
 10
158.361242028
 20
31.2068099625
 11
158.361242028
 21
30.5937998301
  0
LINE
  8
0
 62
7
  6
CONTINUOUS
 10
158.6503040869
 20
30.5937998301
 11
158.6503040869
 21
31.2068099625
  0
LINE
  8
0
 62
7
  6
CONTINUOUS
 10
159.1128043074
 20
31.4326557675
 11
159.1128043074
 21
31.3681283946
  0
LINE
  8
0
 62
7
  6
CONTINUOUS
 10
159.245872955
 20
32.3970785186
 11
159.245872955
 21
34.5282260596
  0
LINE
  8
0
 62
7
  6
CONTINUOUS
 10
159.5737418074
 20
36.1675703219
 11
159.5737418074
 21
32.3970785186
  0
LINE
  8
0
 62
7
  6
CONTINUOUS
 10
154.2565543074
 20
30.9164367395
 11
154.3143669177
 21
31.0132277988
  0
LINE
  8
0
 62
7
  6
CONTINUOUS
 10
149.8628043005
 20
30.7228545871
 11
150.0362418212
 21
30.6583272086
  0
LINE
  8
0
 62
7
  6
CONTINUOUS
 10
151.3659292523
 20
31.4326557675
 11
151.1924917523
 21
31.5294468267
  0
LINE
  8
0
 62
7
  6
CONTINUOUS
 10
154.0253041972
 20
30.7551182848
 11
154.1987416972
 21
30.6583272086
  0
LINE
  8
0
 62
7
  6
CONTINUOUS
 10
153.0424918074
 20
31.4326557675
 11
153.1581166972
 21
31.3681283946
  0
LINE
  8
0
 62
7
  6
CONTINUOUS
 10
153.3893668074
 20
31.4649194539
 11
153.2737419177
 21
31.5294468267
  0
LINE
  8
0
 62
7
  6
CONTINUOUS
 10
159.1128043074
 20
30.8519093441
 11
159.228429528
 21
30.7228545871
  0
LINE
  8
0
 62
7
  6
CONTINUOUS
 10
159.4596793074
 20
30.7873819712
 11
159.401867028
 21
30.8519093441
  0
LINE
  8
0
 62
7
  6
CONTINUOUS
 10
159.1128043074
 20
31.3681283946
 11
159.228429528
 21
31.2390736489
  0
LINE
  8
0
 62
7
  6
CONTINUOUS
 10
158.5924918074
 20
31.3681283946
 11
158.534679528
 21
31.4649194539
  0
LINE
  8
0
 62
7
  6
CONTINUOUS
 10
160.9628038663
 20
30.7873819712
 11
160.9628038663
 21
30.8519093441
  0
LINE
  8
0
 62
7
  6
CONTINUOUS
 10
160.9671844304
 20
32.3970785186
 11
160.9671844304
 21
36.1675703219
  0
LINE
  8
0
 62
7
  6
CONTINUOUS
 10
154.0253041972
 20
31.4971831403
 11
153.9674919177
 21
31.4326557675
  0
LINE
  8
0
 62
7
  6
CONTINUOUS
 10
150.9034292799
 20
31.4649194539
 11
151.0768668626
 21
31.400392081
  0
LINE
  8
0
 62
7
  6
CONTINUOUS
 10
155.6440543074
 20
31.4649194539
 11
155.5284290869
 21
31.5294468267
  0
LINE
  8
0
 62
7
  6
CONTINUOUS
 10
159.4596793074
 20
31.3036010218
 11
159.401867028
 21
31.3681283946
  0
LINE
  8
0
 62
7
  6
CONTINUOUS
 10
160.615929528
 20
30.9164367395
 11
160.6737418074
 21
30.8519093441
  0
LINE
  8
0
 62
7
  6
CONTINUOUS
 10
160.9628038663
 20
30.8519093441
 11
160.8471793074
 21
30.9809641124
  0
LINE
  8
0
 62
7
  6
CONTINUOUS
 10
160.615929528
 20
31.4326557675
 11
160.6737418074
 21
31.3681283946
  0
LINE
  8
0
 62
7
  6
CONTINUOUS
 10
160.9628038663
 20
31.3681283946
 11
160.8471793074
 21
31.4971831403
  0
LINE
  8
0
 62
7
  6
CONTINUOUS
 10
154.2565543074
 20
31.3681283946
 11
154.3143669177
 21
31.4326557675
  0
LINE
  8
0
 62
7
  6
CONTINUOUS
 10
154.0831168074
 20
31.1100188581
 11
153.9674919177
 21
30.9809641124
  0
LINE
  8
0
 62
7
  6
CONTINUOUS
 10
155.412804528
 20
30.9487004259
 11
155.3549915869
 21
30.8841730531
  0
LINE
  8
0
 62
7
  6
CONTINUOUS
 10
155.3549915869
 20
30.6905909007
 11
155.412804528
 21
30.7551182848
  0
LINE
  8
0
 62
7
  6
CONTINUOUS
 10
154.1987416972
 20
30.6583272086
 11
154.3143669177
 21
30.6260635193
  0
LINE
  8
0
 62
7
  6
CONTINUOUS
 10
151.1924917523
 20
31.5294468267
 11
150.9612418074
 21
31.5939741996
  0
LINE
  8
0
 62
7
  6
CONTINUOUS
 10
154.5456166972
 20
30.7228545871
 11
154.3143669177
 21
30.7873819712
  0
LINE
  8
0
 62
7
  6
CONTINUOUS
 10
153.2737419177
 20
31.5294468267
 11
153.1003044177
 21
31.5939741996
  0
LINE
  8
0
 62
7
  6
CONTINUOUS
 10
155.5284290869
 20
31.5294468267
 11
155.3549915869
 21
31.5939741996
  0
LINE
  8
0
 62
7
  6
CONTINUOUS
 10
158.187804528
 20
31.4326557675
 11
158.3034290869
 21
31.3681283946
  0
LINE
  8
0
 62
7
  6
CONTINUOUS
 10
158.534679528
 20
31.4649194539
 11
158.4190543074
 21
31.5294468267
  0
LINE
  8
0
 62
7
  6
CONTINUOUS
 10
150.0362418212
 20
30.6583272086
 11
150.2096793212
 21
30.6260635193
  0
LINE
  8
0
 62
7
  6
CONTINUOUS
 10
150.498741835
 20
30.7228545871
 11
150.1518667936
 21
30.7873819712
  0
LINE
  8
0
 62
7
  6
CONTINUOUS
 10
152.9268669177
 20
31.4649194539
 11
153.0424918074
 21
31.4326557675
  0
LINE
  8
0
 62
7
  6
CONTINUOUS
 10
155.239367028
 20
31.4649194539
 11
155.3549915869
 21
31.4326557675
  0
LINE
  8
0
 62
7
  6
CONTINUOUS
 10
159.575304528
 20
30.7551182848
 11
159.4596793074
 21
30.7873819712
  0
LINE
  8
0
 62
7
  6
CONTINUOUS
 10
158.0721793074
 20
31.4649194539
 11
158.187804528
 21
31.4326557675
  0
LINE
  8
0
 62
7
  6
CONTINUOUS
 10
159.228429528
 20
30.7228545871
 11
159.401867028
 21
30.6583272086
  0
LINE
  8
0
 62
7
  6
CONTINUOUS
 10
158.4190543074
 20
31.5294468267
 11
158.2456168074
 21
31.5939741996
  0
LINE
  8
0
 62
7
  6
CONTINUOUS
 10
159.6331168074
 20
31.2390736489
 11
159.4596793074
 21
31.3036010218
  0
LINE
  8
0
 62
7
  6
CONTINUOUS
 10
160.442492028
 20
30.9809641124
 11
160.615929528
 21
30.9164367395
  0
LINE
  8
0
 62
7
  6
CONTINUOUS
 10
160.8471793074
 20
31.4971831403
 11
160.6737418074
 21
31.5617105132
  0
LINE
  8
0
 62
7
  6
CONTINUOUS
 10
159.228429528
 20
31.2390736489
 11
159.4596793074
 21
31.1422825445
  0
LINE
  8
0
 62
7
  6
CONTINUOUS
 10
160.8471793074
 20
30.9809641124
 11
160.615929528
 21
31.0777551716
  0
LINE
  8
0
 62
7
  6
CONTINUOUS
 10
159.401867028
 20
31.3681283946
 11
159.4596793074
 21
31.4326557675
  0
LINE
  8
0
 62
7
  6
CONTINUOUS
 10
149.8628043005
 20
31.4971831403
 11
149.7471793074
 21
31.4326557675
  0
LINE
  8
0
 62
7
  6
CONTINUOUS
 10
149.9784292936
 20
31.3358647082
 11
150.1518667936
 21
31.4326557675
  0
LINE
  8
0
 62
7
  6
CONTINUOUS
 10
152.2909293626
 20
31.5294468267
 11
152.1753043074
 21
31.4649194539
  0
LINE
  8
0
 62
7
  6
CONTINUOUS
 10
152.1753043074
 20
31.3358647082
 11
152.2909293626
 21
31.400392081
  0
LINE
  8
0
 62
7
  6
CONTINUOUS
 10
151.1924917523
 20
30.6905909007
 11
151.3659292523
 21
30.7873819712
  0
LINE
  8
0
 62
7
  6
CONTINUOUS
 10
150.2096793212
 20
30.6260635193
 11
150.5565542799
 21
30.5937998301
  0
LINE
  8
0
 62
7
  6
CONTINUOUS
 10
154.3143669177
 20
30.6260635193
 11
154.5456166972
 21
30.5937998301
  0
LINE
  8
0
 62
7
  6
CONTINUOUS
 10
152.6956168074
 20
31.4971831403
 11
152.9268669177
 21
31.4649194539
  0
LINE
  8
0
 62
7
  6
CONTINUOUS
 10
155.0081169177
 20
31.4971831403
 11
155.239367028
 21
31.4649194539
  0
LINE
  8
0
 62
7
  6
CONTINUOUS
 10
159.4596793074
 20
31.1422825445
 11
160.442492028
 21
30.9809641124
  0
LINE
  8
0
 62
7
  6
CONTINUOUS
 10
160.615929528
 20
31.0777551716
 11
159.6331168074
 21
31.2390736489
  0
LINE
  8
0
 62
7
  6
CONTINUOUS
 10
153.1003044177
 20
31.5939741996
 11
152.9268669177
 21
31.626237886
  0
LINE
  8
0
 62
7
  6
CONTINUOUS
 10
159.401867028
 20
30.6583272086
 11
159.575304528
 21
30.6260635193
  0
LINE
  8
0
 62
7
  6
CONTINUOUS
 10
158.2456168074
 20
31.5939741996
 11
158.0721793074
 21
31.626237886
  0
LINE
  8
0
 62
7
  6
CONTINUOUS
 10
160.5003043074
 20
31.4649194539
 11
160.615929528
 21
31.4326557675
  0
LINE
  8
0
 62
7
  6
CONTINUOUS
 10
160.6737418074
 20
30.8519093441
 11
160.615929528
 21
30.7873819712
  0
LINE
  8
0
 62
7
  6
CONTINUOUS
 10
159.228429528
 20
31.5294468267
 11
159.1128043074
 21
31.4326557675
  0
LINE
  8
0
 62
7
  6
CONTINUOUS
 10
154.1409294177
 20
31.5617105132
 11
154.0253041972
 21
31.4971831403
  0
LINE
  8
0
 62
7
  6
CONTINUOUS
 10
154.1987416972
 20
31.1745462761
 11
154.0831168074
 21
31.1100188581
  0
LINE
  8
0
 62
7
  6
CONTINUOUS
 10
154.3143669177
 20
31.0132277988
 11
154.4299918074
 21
31.0777551716
  0
LINE
  8
0
 62
7
  6
CONTINUOUS
 10
151.8862417523
 20
30.5937998301
 11
152.1753043074
 21
30.5937998301
  0
LINE
  8
0
 62
7
  6
CONTINUOUS
 10
153.2159293074
 20
30.5937998301
 11
153.5049916972
 21
30.5937998301
  0
LINE
  8
0
 62
7
  6
CONTINUOUS
 10
154.5456166972
 20
30.5937998301
 11
154.8924916972
 21
30.5937998301
  0
LINE
  8
0
 62
7
  6
CONTINUOUS
 10
155.5284290869
 20
30.5937998301
 11
155.8174918074
 21
30.5937998301
  0
LINE
  8
0
 62
7
  6
CONTINUOUS
 10
156.279992028
 20
30.5937998301
 11
156.5690540869
 21
30.5937998301
  0
LINE
  8
0
 62
7
  6
CONTINUOUS
 10
157.0315543074
 20
30.5937998301
 11
157.320617028
 21
30.5937998301
  0
LINE
  8
0
 62
7
  6
CONTINUOUS
 10
158.361242028
 20
30.5937998301
 11
158.6503040869
 21
30.5937998301
  0
LINE
  8
0
 62
7
  6
CONTINUOUS
 10
159.922179528
 20
30.5937998301
 11
160.269054528
 21
30.5937998301
  0
LINE
  8
0
 62
7
  6
CONTINUOUS
 10
160.269054528
 20
30.7228545871
 11
159.922179528
 21
30.7228545871
  0
LINE
  8
0
 62
7
  6
CONTINUOUS
 10
154.8924916972
 20
30.7228545871
 11
154.5456166972
 21
30.7228545871
  0
LINE
  8
0
 62
7
  6
CONTINUOUS
 10
159.401867028
 20
30.8519093441
 11
159.1128043074
 21
30.8519093441
  0
LINE
  8
0
 62
7
  6
CONTINUOUS
 10
151.4237418626
 20
30.9164367395
 11
151.1346793074
 21
30.9164367395
  0
LINE
  8
0
 62
7
  6
CONTINUOUS
 10
150.498741835
 20
31.4971831403
 11
150.9034292799
 21
31.4649194539
  0
LINE
  8
0
 62
7
  6
CONTINUOUS
 10
150.9612418074
 20
31.5939741996
 11
150.5565542799
 21
31.626237886
  0
LINE
  8
0
 62
7
  6
CONTINUOUS
 10
159.575304528
 20
30.6260635193
 11
159.922179528
 21
30.5937998301
  0
LINE
  8
0
 62
7
  6
CONTINUOUS
 10
159.922179528
 20
30.7228545871
 11
159.575304528
 21
30.7551182848
  0
LINE
  8
0
 62
7
  6
CONTINUOUS
 10
155.3549915869
 20
31.5939741996
 11
155.0081169177
 21
31.626237886
  0
LINE
  8
0
 62
7
  6
CONTINUOUS
 10
160.1534293074
 20
31.4971831403
 11
160.5003043074
 21
31.4649194539
  0
LINE
  8
0
 62
7
  6
CONTINUOUS
 10
160.5003043074
 20
31.5939741996
 11
160.1534293074
 21
31.626237886
  0
LINE
  8
0
 62
7
  6
CONTINUOUS
 10
157.840929528
 20
31.4971831403
 11
158.0721793074
 21
31.4649194539
  0
LINE
  8
0
 62
7
  6
CONTINUOUS
 10
160.6737418074
 20
31.5617105132
 11
160.5003043074
 21
31.5939741996
  0
LINE
  8
0
 62
7
  6
CONTINUOUS
 10
160.8471793074
 20
30.6905909007
 11
160.9628038663
 21
30.7873819712
  0
LINE
  8
0
 62
7
  6
CONTINUOUS
 10
155.3549915869
 20
30.8841730531
 11
155.1815540869
 21
30.7873819712
  0
LINE
  8
0
 62
7
  6
CONTINUOUS
 10
157.4362415869
 20
31.5294468267
 11
157.320617028
 21
31.4649194539
  0
LINE
  8
0
 62
7
  6
CONTINUOUS
 10
157.320617028
 20
31.3358647082
 11
157.4362415869
 21
31.400392081
  0
LINE
  8
0
 62
7
  6
CONTINUOUS
 10
150.0362418212
 20
31.5617105132
 11
149.8628043005
 21
31.4971831403
  0
LINE
  8
0
 62
7
  6
CONTINUOUS
 10
152.4643666972
 20
31.5939741996
 11
152.2909293626
 21
31.5294468267
  0
LINE
  8
0
 62
7
  6
CONTINUOUS
 10
152.2909293626
 20
31.400392081
 11
152.4643666972
 21
31.4649194539
  0
LINE
  8
0
 62
7
  6
CONTINUOUS
 10
151.0768668626
 20
30.8196456577
 11
150.9034292799
 21
30.7551182848
  0
LINE
  8
0
 62
7
  6
CONTINUOUS
 10
160.5003043074
 20
30.7551182848
 11
160.269054528
 21
30.7228545871
  0
LINE
  8
0
 62
7
  6
CONTINUOUS
 10
154.8924916972
 20
30.5937998301
 11
155.1815540869
 21
30.6260635193
  0
LINE
  8
0
 62
7
  6
CONTINUOUS
 10
160.269054528
 20
30.5937998301
 11
160.615929528
 21
30.6260635193
  0
LINE
  8
0
 62
7
  6
CONTINUOUS
 10
150.5565542799
 20
30.5937998301
 11
150.9612418074
 21
30.6260635193
  0
LINE
  8
0
 62
7
  6
CONTINUOUS
 10
150.9034292799
 20
30.7551182848
 11
150.498741835
 21
30.7228545871
  0
LINE
  8
0
 62
7
  6
CONTINUOUS
 10
154.7768668074
 20
31.1422825445
 11
155.412804528
 21
31.1422825445
  0
LINE
  8
0
 62
7
  6
CONTINUOUS
 10
155.412804528
 20
31.2713373354
 11
154.7768668074
 21
31.2713373354
  0
LINE
  8
0
 62
7
  6
CONTINUOUS
 10
151.1346793074
 20
31.3036010218
 11
151.4237418626
 21
31.3036010218
  0
LINE
  8
0
 62
7
  6
CONTINUOUS
 10
153.9674919177
 20
31.3681283946
 11
154.2565543074
 21
31.3681283946
  0
LINE
  8
0
 62
7
  6
CONTINUOUS
 10
160.6737418074
 20
31.3681283946
 11
160.9628038663
 21
31.3681283946
  0
LINE
  8
0
 62
7
  6
CONTINUOUS
 10
154.6612419177
 20
31.4971831403
 11
155.0081169177
 21
31.4971831403
  0
LINE
  8
0
 62
7
  6
CONTINUOUS
 10
159.8065543074
 20
31.4971831403
 11
160.1534293074
 21
31.4971831403
  0
LINE
  8
0
 62
7
  6
CONTINUOUS
 10
160.1534293074
 20
31.626237886
 11
159.8065543074
 21
31.626237886
  0
LINE
  8
0
 62
7
  6
CONTINUOUS
 10
158.0721793074
 20
31.626237886
 11
157.840929528
 21
31.626237886
  0
LINE
  8
0
 62
7
  6
CONTINUOUS
 10
157.320617028
 20
31.626237886
 11
157.0315543074
 21
31.626237886
  0
LINE
  8
0
 62
7
  6
CONTINUOUS
 10
156.5690540869
 20
31.626237886
 11
156.279992028
 21
31.626237886
  0
LINE
  8
0
 62
7
  6
CONTINUOUS
 10
155.0081169177
 20
31.626237886
 11
154.6612419177
 21
31.626237886
  0
LINE
  8
0
 62
7
  6
CONTINUOUS
 10
152.9268669177
 20
31.626237886
 11
152.6956168074
 21
31.626237886
  0
LINE
  8
0
 62
7
  6
CONTINUOUS
 10
156.279992028
 20
31.9488748406
 11
156.5690540869
 21
31.9488748406
  0
LINE
  8
0
 62
7
  6
CONTINUOUS
 10
156.5690540869
 20
32.1101932727
 11
156.279992028
 21
32.1101932727
  0
LINE
  8
0
 62
7
  6
CONTINUOUS
 10
152.1753043074
 20
32.1101932727
 11
151.8862417523
 21
32.1101932727
  0
LINE
  8
0
 62
7
  6
CONTINUOUS
 10
151.2130860697
 20
32.3970785186
 11
151.6256574183
 21
32.3970785186
  0
LINE
  8
0
 62
7
  6
CONTINUOUS
 10
152.852430332
 20
32.3970785186
 11
154.245872955
 21
32.3970785186
  0
LINE
  8
0
 62
7
  6
CONTINUOUS
 10
154.5737418074
 20
32.3970785186
 11
155.9671844304
 21
32.3970785186
  0
LINE
  8
0
 62
7
  6
CONTINUOUS
 10
157.852430332
 20
32.3970785186
 11
159.245872955
 21
32.3970785186
  0
LINE
  8
0
 62
7
  6
CONTINUOUS
 10
159.5737418074
 20
32.3970785186
 11
160.9671844304
 21
32.3970785186
  0
LINE
  8
0
 62
7
  6
CONTINUOUS
 10
157.6096790869
 20
31.5939741996
 11
157.4362415869
 21
31.5294468267
  0
LINE
  8
0
 62
7
  6
CONTINUOUS
 10
155.1815540869
 20
30.6260635193
 11
155.3549915869
 21
30.6905909007
  0
LINE
  8
0
 62
7
  6
CONTINUOUS
 10
160.615929528
 20
30.6260635193
 11
160.8471793074
 21
30.6905909007
  0
LINE
  8
0
 62
7
  6
CONTINUOUS
 10
160.615929528
 20
30.7873819712
 11
160.5003043074
 21
30.7551182848
  0
LINE
  8
0
 62
7
  6
CONTINUOUS
 10
159.575304528
 20
31.4649194539
 11
159.8065543074
 21
31.4971831403
  0
LINE
  8
0
 62
7
  6
CONTINUOUS
 10
157.6096790869
 20
31.4649194539
 11
157.840929528
 21
31.4971831403
  0
LINE
  8
0
 62
7
  6
CONTINUOUS
 10
154.5456166972
 20
31.1100188581
 11
154.7768668074
 21
31.1422825445
  0
LINE
  8
0
 62
7
  6
CONTINUOUS
 10
157.840929528
 20
31.626237886
 11
157.6096790869
 21
31.5939741996
  0
LINE
  8
0
 62
7
  6
CONTINUOUS
 10
154.4299918074
 20
31.4649194539
 11
154.6612419177
 21
31.4971831403
  0
LINE
  8
0
 62
7
  6
CONTINUOUS
 10
159.8065543074
 20
31.626237886
 11
159.4596793074
 21
31.5939741996
  0
LINE
  8
0
 62
7
  6
CONTINUOUS
 10
154.7768668074
 20
31.2713373354
 11
154.4299918074
 21
31.2390736489
  0
LINE
  8
0
 62
7
  6
CONTINUOUS
 10
150.5565542799
 20
31.626237886
 11
150.2096793212
 21
31.5939741996
  0
LINE
  8
0
 62
7
  6
CONTINUOUS
 10
154.6612419177
 20
31.626237886
 11
154.2565543074
 21
31.5939741996
  0
LINE
  8
0
 62
7
  6
CONTINUOUS
 10
152.0327582009
 20
33.5446195022
 11
151.3770204959
 21
33.5446195022
  0
LINE
  8
0
 62
7
  6
CONTINUOUS
 10
157.4362415869
 20
31.400392081
 11
157.6096790869
 21
31.4649194539
  0
LINE
  8
0
 62
7
  6
CONTINUOUS
 10
159.4596793074
 20
31.4326557675
 11
159.575304528
 21
31.4649194539
  0
LINE
  8
0
 62
7
  6
CONTINUOUS
 10
159.4596793074
 20
31.5939741996
 11
159.228429528
 21
31.5294468267
  0
LINE
  8
0
 62
7
  6
CONTINUOUS
 10
155.1815540869
 20
30.7873819712
 11
154.8924916972
 21
30.7228545871
  0
LINE
  8
0
 62
7
  6
CONTINUOUS
 10
152.4643666972
 20
31.4649194539
 11
152.6956168074
 21
31.4971831403
  0
LINE
  8
0
 62
7
  6
CONTINUOUS
 10
152.6956168074
 20
31.626237886
 11
152.4643666972
 21
31.5939741996
  0
LINE
  8
0
 62
7
  6
CONTINUOUS
 10
150.2674918074
 20
31.4649194539
 11
150.498741835
 21
31.4971831403
  0
LINE
  8
0
 62
7
  6
CONTINUOUS
 10
156.7868565615
 20
35.0200293383
 11
157.4425942664
 21
35.0200293383
  0
LINE
  8
0
 62
7
  6
CONTINUOUS
 10
154.4299918074
 20
31.0777551716
 11
154.5456166972
 21
31.1100188581
  0
LINE
  8
0
 62
7
  6
CONTINUOUS
 10
154.4299918074
 20
31.2390736489
 11
154.1987416972
 21
31.1745462761
  0
LINE
  8
0
 62
7
  6
CONTINUOUS
 10
154.3143669177
 20
31.4326557675
 11
154.4299918074
 21
31.4649194539
  0
LINE
  8
0
 62
7
  6
CONTINUOUS
 10
150.9612418074
 20
30.6260635193
 11
151.1924917523
 21
30.6905909007
  0
LINE
  8
0
 62
7
  6
CONTINUOUS
 10
154.2565543074
 20
31.5939741996
 11
154.1409294177
 21
31.5617105132
  0
LINE
  8
0
 62
7
  6
CONTINUOUS
 10
150.2096793212
 20
31.5939741996
 11
150.0362418212
 21
31.5617105132
  0
LINE
  8
0
 62
7
  6
CONTINUOUS
 10
160.9671844304
 20
36.1675703219
 11
159.5737418074
 21
36.1675703219
  0
LINE
  8
0
 62
7
  6
CONTINUOUS
 10
157.6065286927
 20
36.1675703219
 11
157.1939573441
 21
36.1675703219
  0
LINE
  8
0
 62
7
  6
CONTINUOUS
 10
155.9671844304
 20
36.1675703219
 11
154.5737418074
 21
36.1675703219
  0
LINE
  8
0
 62
7
  6
CONTINUOUS
 10
154.245872955
 20
36.1675703219
 11
152.852430332
 21
36.1675703219
  0
LINE
  8
0
 62
7
  6
CONTINUOUS
 10
150.9671844304
 20
36.1675703219
 11
149.5737418074
 21
36.1675703219
  0
LINE
  8
0
 62
7
  6
CONTINUOUS
 10
150.1518667936
 20
31.4326557675
 11
150.2674918074
 21
31.4649194539
  0
CIRCLE
  8
0
 62
7
  6
CONTINUOUS
 10
160.2704631189
 20
38.5036358957
 40
2.0901639344
  0
ARC
  8
0
 62
7
  6
CONTINUOUS
 10
151.2130860697
 20
34.0364227809
 40
1.6393442623
 50
180.0
 51
270.0
  0
ARC
  8
0
 62
7
  6
CONTINUOUS
 10
157.6065286927
 20
34.5282260596
 40
1.6393442623
 50
0.0
 51
90.0
  0
ARC
  8
0
 62
7
  6
CONTINUOUS
 10
151.6256574183
 20
33.8724883547
 40
1.4754098361
 50
270.0
 51
326.2510114041
  0
ARC
  8
0
 62
7
  6
CONTINUOUS
 10
157.1939573441
 20
34.6921604858
 40
1.4754098361
 50
90.0
 51
146.2510114041
  0
ARC
  8
0
 62
7
  6
CONTINUOUS
 10
152.0327582009
 20
34.3642916334
 40
0.8196721311
 50
270.0
 51
360.0
  0
ARC
  8
0
 62
7
  6
CONTINUOUS
 10
156.7868565615
 20
34.2003572071
 40
0.8196721311
 50
90.0
 51
180.0
  0
ARC
  8
0
 62
7
  6
CONTINUOUS
 10
151.3770204959
 20
33.9544555678
 40
0.4098360656
 50
180.0
 51
270.0
  0
ARC
  8
0
 62
7
  6
CONTINUOUS
 10
157.4425942664
 20
34.6101932727
 40
0.4098360656
 50
0.0
 51
90.0
  0
SOLID
  8
0
 62
7
  6
CONTINUOUS
 10
156.279992028
 20
31.9488752009
 11
156.279992028
 21
32.1101936845
 12
156.5690540869
 22
31.9488752009
 13
156.5690540869
 23
32.1101936845
  0
SOLID
  8
0
 62
7
  6
CONTINUOUS
 10
150.5565542799
 20
31.6262382337
 11
150.9612418074
 21
31.5939740028
 12
150.2096793212
 22
31.5939740028
 13
150.2096793212
 23
31.5939740028
  0
SOLID
  8
0
 62
7
  6
CONTINUOUS
 10
150.0362418212
 20
31.5617111435
 11
150.2096793212
 21
31.5939740028
 12
150.9612418074
 22
31.5939740028
 13
150.9612418074
 23
31.5939740028
  0
SOLID
  8
0
 62
7
  6
CONTINUOUS
 10
150.9612418074
 20
31.5939740028
 11
151.1924917523
 21
31.5294468402
 12
150.0362418212
 22
31.5617111435
 13
150.0362418212
 23
31.5617111435
  0
SOLID
  8
0
 62
7
  6
CONTINUOUS
 10
149.8628043005
 20
31.49718259
 11
150.0362418212
 21
31.5617111435
 12
151.1924917523
 22
31.5294468402
 13
151.1924917523
 23
31.5294468402
  0
SOLID
  8
0
 62
7
  6
CONTINUOUS
 10
149.8628043005
 20
31.49718259
 11
151.1924917523
 21
31.5294468402
 12
150.498741835
 22
31.49718259
 13
150.498741835
 23
31.49718259
  0
SOLID
  8
0
 62
7
  6
CONTINUOUS
 10
150.498741835
 20
31.49718259
 11
151.1924917523
 21
31.5294468402
 12
150.9034292799
 22
31.4649197501
 13
150.9034292799
 23
31.4649197501
  0
SOLID
  8
0
 62
7
  6
CONTINUOUS
 10
151.1924917523
 20
31.5294468402
 11
151.3659292523
 21
31.4326554468
 12
150.9034292799
 22
31.4649197501
 13
150.9034292799
 23
31.4649197501
  0
SOLID
  8
0
 62
7
  6
CONTINUOUS
 10
151.0768668626
 20
31.4003926599
 11
150.9034292799
 21
31.4649197501
 12
151.3659292523
 22
31.4326554468
 13
151.3659292523
 23
31.4326554468
  0
SOLID
  8
0
 62
7
  6
CONTINUOUS
 10
151.0768668626
 20
31.4003926599
 11
151.3659292523
 21
31.4326554468
 12
151.1346793074
 22
31.3036013776
 13
151.1346793074
 23
31.3036013776
  0
SOLID
  8
0
 62
7
  6
CONTINUOUS
 10
151.3659292523
 20
31.4326554468
 11
151.4237418626
 21
31.3036013776
 12
151.1346793074
 22
31.3036013776
 13
151.1346793074
 23
31.3036013776
  0
SOLID
  8
0
 62
7
  6
CONTINUOUS
 10
152.4643666972
 20
31.5939739754
 11
152.6956168074
 21
31.6262382787
 12
152.9268669177
 22
31.6262382787
 13
152.9268669177
 23
31.6262382787
  0
SOLID
  8
0
 62
7
  6
CONTINUOUS
 10
152.9268669177
 20
31.6262382787
 11
153.1003044177
 21
31.5939739754
 12
152.4643666972
 22
31.5939739754
 13
152.4643666972
 23
31.5939739754
  0
SOLID
  8
0
 62
7
  6
CONTINUOUS
 10
152.2909293626
 20
31.5294468852
 11
152.4643666972
 21
31.5939739754
 12
153.1003044177
 22
31.5939739754
 13
153.1003044177
 23
31.5939739754
  0
SOLID
  8
0
 62
7
  6
CONTINUOUS
 10
153.1003044177
 20
31.5939739754
 11
153.2737419177
 21
31.5294468852
 12
152.2909293626
 22
31.5294468852
 13
152.2909293626
 23
31.5294468852
  0
SOLID
  8
0
 62
7
  6
CONTINUOUS
 10
153.2737419177
 20
31.5294468852
 11
152.6956168074
 21
31.4971825369
 12
152.2909293626
 22
31.5294468852
 13
152.2909293626
 23
31.5294468852
  0
SOLID
  8
0
 62
7
  6
CONTINUOUS
 10
152.1753043074
 20
31.4649197951
 11
152.2909293626
 21
31.5294468852
 12
152.6956168074
 22
31.4971825369
 13
152.6956168074
 23
31.4971825369
  0
SOLID
  8
0
 62
7
  6
CONTINUOUS
 10
152.6956168074
 20
31.4971825369
 11
152.4643666972
 21
31.4649197951
 12
152.1753043074
 22
31.4649197951
 13
152.1753043074
 23
31.4649197951
  0
SOLID
  8
0
 62
7
  6
CONTINUOUS
 10
152.6956168074
 20
31.4971825369
 11
153.2737419177
 21
31.5294468852
 12
152.9268669177
 22
31.4649197951
 13
152.9268669177
 23
31.4649197951
  0
SOLID
  8
0
 62
7
  6
CONTINUOUS
 10
153.2737419177
 20
31.5294468852
 11
153.3893668074
 21
31.4649197951
 12
152.9268669177
 22
31.4649197951
 13
152.9268669177
 23
31.4649197951
  0
SOLID
  8
0
 62
7
  6
CONTINUOUS
 10
153.0424918074
 20
31.4326554468
 11
152.9268669177
 21
31.4649197951
 12
153.3893668074
 22
31.4649197951
 13
153.3893668074
 23
31.4649197951
  0
SOLID
  8
0
 62
7
  6
CONTINUOUS
 10
153.3893668074
 20
31.4649197951
 11
153.4471794177
 21
31.4003927049
 12
153.0424918074
 22
31.4326554468
 13
153.0424918074
 23
31.4326554468
  0
SOLID
  8
0
 62
7
  6
CONTINUOUS
 10
153.1581166972
 20
31.3681283566
 11
153.0424918074
 21
31.4326554468
 12
153.4471794177
 22
31.4003927049
 13
153.4471794177
 23
31.4003927049
  0
SOLID
  8
0
 62
7
  6
CONTINUOUS
 10
153.1581166972
 20
31.3681283566
 11
153.4471794177
 21
31.4003927049
 12
153.2159293074
 22
31.2390742213
 13
153.2159293074
 23
31.2390742213
  0
SOLID
  8
0
 62
7
  6
CONTINUOUS
 10
153.4471794177
 20
31.4003927049
 11
153.5049916972
 21
31.2390742213
 12
153.2159293074
 22
31.2390742213
 13
153.2159293074
 23
31.2390742213
  0
SOLID
  8
0
 62
7
  6
CONTINUOUS
 10
152.4643666972
 20
31.4649197951
 11
152.2909293626
 21
31.4003927049
 12
152.1753043074
 22
31.4649197951
 13
152.1753043074
 23
31.4649197951
  0
SOLID
  8
0
 62
7
  6
CONTINUOUS
 10
152.2909293626
 20
31.4003927049
 11
152.1753043074
 21
31.3358640533
 12
152.1753043074
 22
31.4649197951
 13
152.1753043074
 23
31.4649197951
  0
SOLID
  8
0
 62
7
  6
CONTINUOUS
 10
152.1753043074
 20
31.3358640533
 11
151.8862417523
 21
30.5938002869
 12
152.1753043074
 22
31.4649197951
 13
152.1753043074
 23
31.4649197951
  0
SOLID
  8
0
 62
7
  6
CONTINUOUS
 10
152.1753043074
 20
31.4649197951
 11
151.8862417523
 21
30.5938002869
 12
152.1753043074
 22
32.1101937295
 13
152.1753043074
 23
32.1101937295
  0
SOLID
  8
0
 62
7
  6
CONTINUOUS
 10
151.8862417523
 20
30.5938002869
 11
151.8862417523
 21
32.1101937295
 12
152.1753043074
 22
32.1101937295
 13
152.1753043074
 23
32.1101937295
  0
SOLID
  8
0
 62
7
  6
CONTINUOUS
 10
152.1753043074
 20
31.3358640533
 11
152.1753043074
 21
30.5938002869
 12
151.8862417523
 22
30.5938002869
 13
151.8862417523
 23
30.5938002869
  0
SOLID
  8
0
 62
7
  6
CONTINUOUS
 10
153.2159293074
 20
30.5938002869
 11
153.2159293074
 21
31.2390742213
 12
153.5049916972
 22
31.2390742213
 13
153.5049916972
 23
31.2390742213
  0
SOLID
  8
0
 62
7
  6
CONTINUOUS
 10
153.5049916972
 20
31.2390742213
 11
153.5049916972
 21
30.5938002869
 12
153.2159293074
 22
30.5938002869
 13
153.2159293074
 23
30.5938002869
  0
SOLID
  8
0
 62
7
  6
CONTINUOUS
 10
154.2565543074
 20
31.5939738288
 11
154.6612419177
 21
31.6262385959
 12
155.0081169177
 22
31.6262385959
 13
155.0081169177
 23
31.6262385959
  0
SOLID
  8
0
 62
7
  6
CONTINUOUS
 10
155.0081169177
 20
31.6262385959
 11
155.3549915869
 21
31.5939738288
 12
154.2565543074
 22
31.5939738288
 13
154.2565543074
 23
31.5939738288
  0
SOLID
  8
0
 62
7
  6
CONTINUOUS
 10
154.1409294177
 20
31.5617111435
 11
154.2565543074
 21
31.5939738288
 12
155.3549915869
 22
31.5939738288
 13
155.3549915869
 23
31.5939738288
  0
SOLID
  8
0
 62
7
  6
CONTINUOUS
 10
155.3549915869
 20
31.5939738288
 11
155.5284290869
 21
31.5294468402
 12
154.1409294177
 22
31.5617111435
 13
154.1409294177
 23
31.5617111435
  0
SOLID
  8
0
 62
7
  6
CONTINUOUS
 10
154.0253041972
 20
31.4971826249
 11
154.1409294177
 21
31.5617111435
 12
155.5284290869
 22
31.5294468402
 13
155.5284290869
 23
31.5294468402
  0
SOLID
  8
0
 62
7
  6
CONTINUOUS
 10
154.0253041972
 20
31.4971826249
 11
155.5284290869
 21
31.5294468402
 12
154.6612419177
 22
31.4971826249
 13
154.6612419177
 23
31.4971826249
  0
SOLID
  8
0
 62
7
  6
CONTINUOUS
 10
154.6612419177
 20
31.4971826249
 11
155.5284290869
 21
31.5294468402
 12
155.0081169177
 22
31.4971826249
 13
155.0081169177
 23
31.4971826249
  0
SOLID
  8
0
 62
7
  6
CONTINUOUS
 10
155.0081169177
 20
31.4971826249
 11
155.5284290869
 21
31.5294468402
 12
155.239367028
 22
31.4649194065
 13
155.239367028
 23
31.4649194065
  0
SOLID
  8
0
 62
7
  6
CONTINUOUS
 10
155.5284290869
 20
31.5294468402
 11
155.6440543074
 21
31.4649194065
 12
155.239367028
 22
31.4649194065
 13
155.239367028
 23
31.4649194065
  0
SOLID
  8
0
 62
7
  6
CONTINUOUS
 10
153.9674919177
 20
31.4326554138
 11
154.0253041972
 21
31.4971826249
 12
154.6612419177
 22
31.4971826249
 13
154.6612419177
 23
31.4971826249
  0
SOLID
  8
0
 62
7
  6
CONTINUOUS
 10
155.3549915869
 20
31.4326554138
 11
155.239367028
 21
31.4649194065
 12
155.6440543074
 22
31.4649194065
 13
155.6440543074
 23
31.4649194065
  0
SOLID
  8
0
 62
7
  6
CONTINUOUS
 10
155.3549915869
 20
31.4326554138
 11
155.6440543074
 21
31.4649194065
 12
155.412804528
 22
31.3681282026
 13
155.412804528
 23
31.3681282026
  0
SOLID
  8
0
 62
7
  6
CONTINUOUS
 10
155.6440543074
 20
31.4649194065
 11
155.7018665869
 21
31.3681282026
 12
155.412804528
 22
31.3681282026
 13
155.412804528
 23
31.3681282026
  0
SOLID
  8
0
 62
7
  6
CONTINUOUS
 10
155.412804528
 20
31.2713369632
 11
155.412804528
 21
31.3681282026
 12
155.7018665869
 22
31.3681282026
 13
155.7018665869
 23
31.3681282026
  0
SOLID
  8
0
 62
7
  6
CONTINUOUS
 10
155.412804528
 20
31.2713369632
 11
155.7018665869
 21
31.3681282026
 12
155.412804528
 22
31.1422827828
 13
155.412804528
 23
31.1422827828
  0
SOLID
  8
0
 62
7
  6
CONTINUOUS
 10
155.412804528
 20
31.1422827828
 11
155.7018665869
 21
31.3681282026
 12
155.412804528
 22
30.9487004259
 13
155.412804528
 23
30.9487004259
  0
SOLID
  8
0
 62
7
  6
CONTINUOUS
 10
155.7018665869
 20
31.3681282026
 11
155.7018665869
 21
30.8519086025
 12
155.412804528
 22
30.9487004259
 13
155.412804528
 23
30.9487004259
  0
SOLID
  8
0
 62
7
  6
CONTINUOUS
 10
157.6096790869
 20
31.5939736268
 11
157.840929528
 21
31.6262383465
 12
158.0721793074
 22
31.6262383465
 13
158.0721793074
 23
31.6262383465
  0
SOLID
  8
0
 62
7
  6
CONTINUOUS
 10
158.0721793074
 20
31.6262383465
 11
158.2456168074
 21
31.5939736268
 12
157.6096790869
 22
31.5939736268
 13
157.6096790869
 23
31.5939736268
  0
SOLID
  8
0
 62
7
  6
CONTINUOUS
 10
157.4362415869
 20
31.5294472848
 11
157.6096790869
 21
31.5939736268
 12
158.2456168074
 22
31.5939736268
 13
158.2456168074
 23
31.5939736268
  0
SOLID
  8
0
 62
7
  6
CONTINUOUS
 10
158.2456168074
 20
31.5939736268
 11
158.4190543074
 21
31.5294472848
 12
157.4362415869
 22
31.5294472848
 13
157.4362415869
 23
31.5294472848
  0
SOLID
  8
0
 62
7
  6
CONTINUOUS
 10
158.4190543074
 20
31.5294472848
 11
157.840929528
 21
31.4971825369
 12
157.4362415869
 22
31.5294472848
 13
157.4362415869
 23
31.5294472848
  0
SOLID
  8
0
 62
7
  6
CONTINUOUS
 10
157.320617028
 20
31.4649199103
 11
157.4362415869
 21
31.5294472848
 12
157.840929528
 22
31.4971825369
 13
157.840929528
 23
31.4971825369
  0
SOLID
  8
0
 62
7
  6
CONTINUOUS
 10
157.840929528
 20
31.4971825369
 11
157.6096790869
 21
31.4649199103
 12
157.320617028
 22
31.4649199103
 13
157.320617028
 23
31.4649199103
  0
SOLID
  8
0
 62
7
  6
CONTINUOUS
 10
157.840929528
 20
31.4971825369
 11
158.4190543074
 21
31.5294472848
 12
158.0721793074
 22
31.4649199103
 13
158.0721793074
 23
31.4649199103
  0
SOLID
  8
0
 62
7
  6
CONTINUOUS
 10
158.4190543074
 20
31.5294472848
 11
158.534679528
 21
31.4649199103
 12
158.0721793074
 22
31.4649199103
 13
158.0721793074
 23
31.4649199103
  0
SOLID
  8
0
 62
7
  6
CONTINUOUS
 10
158.187804528
 20
31.4326554468
 11
158.0721793074
 21
31.4649199103
 12
158.534679528
 22
31.4649199103
 13
158.534679528
 23
31.4649199103
  0
SOLID
  8
0
 62
7
  6
CONTINUOUS
 10
158.187804528
 20
31.4326554468
 11
158.534679528
 21
31.4649199103
 12
158.3034290869
 22
31.3681288486
 13
158.3034290869
 23
31.3681288486
  0
SOLID
  8
0
 62
7
  6
CONTINUOUS
 10
158.534679528
 20
31.4649199103
 11
158.5924918074
 21
31.3681288486
 12
158.3034290869
 22
31.3681288486
 13
158.3034290869
 23
31.3681288486
  0
SOLID
  8
0
 62
7
  6
CONTINUOUS
 10
158.361242028
 20
31.2068093799
 11
158.3034290869
 21
31.3681288486
 12
158.5924918074
 22
31.3681288486
 13
158.5924918074
 23
31.3681288486
  0
SOLID
  8
0
 62
7
  6
CONTINUOUS
 10
158.5924918074
 20
31.3681288486
 11
158.6503040869
 21
31.2068093799
 12
158.361242028
 22
31.2068093799
 13
158.361242028
 23
31.2068093799
  0
SOLID
  8
0
 62
7
  6
CONTINUOUS
 10
157.6096790869
 20
31.4649199103
 11
157.4362415869
 21
31.4003926599
 12
157.320617028
 22
31.4649199103
 13
157.320617028
 23
31.4649199103
  0
SOLID
  8
0
 62
7
  6
CONTINUOUS
 10
157.4362415869
 20
31.4003926599
 11
157.320617028
 21
31.3358640533
 12
157.320617028
 22
31.4649199103
 13
157.320617028
 23
31.4649199103
  0
SOLID
  8
0
 62
7
  6
CONTINUOUS
 10
157.320617028
 20
31.3358640533
 11
157.0315543074
 21
30.5938003547
 12
157.320617028
 22
31.4649199103
 13
157.320617028
 23
31.4649199103
  0
SOLID
  8
0
 62
7
  6
CONTINUOUS
 10
157.320617028
 20
31.4649199103
 11
157.0315543074
 21
30.5938003547
 12
157.320617028
 22
31.6262383465
 13
157.320617028
 23
31.6262383465
  0
SOLID
  8
0
 62
7
  6
CONTINUOUS
 10
157.0315543074
 20
30.5938003547
 11
157.0315543074
 21
31.6262383465
 12
157.320617028
 22
31.6262383465
 13
157.320617028
 23
31.6262383465
  0
SOLID
  8
0
 62
7
  6
CONTINUOUS
 10
157.320617028
 20
31.3358640533
 11
157.320617028
 21
30.5938003547
 12
157.0315543074
 22
30.5938003547
 13
157.0315543074
 23
30.5938003547
  0
SOLID
  8
0
 62
7
  6
CONTINUOUS
 10
158.361242028
 20
30.5938003547
 11
158.361242028
 21
31.2068093799
 12
158.6503040869
 22
31.2068093799
 13
158.6503040869
 23
31.2068093799
  0
SOLID
  8
0
 62
7
  6
CONTINUOUS
 10
158.6503040869
 20
31.2068093799
 11
158.6503040869
 21
30.5938003547
 12
158.361242028
 22
30.5938003547
 13
158.361242028
 23
30.5938003547
  0
SOLID
  8
0
 62
7
  6
CONTINUOUS
 10
159.4596793074
 20
31.5939739474
 11
159.8065543074
 21
31.6262381969
 12
160.1534293074
 22
31.6262381969
 13
160.1534293074
 23
31.6262381969
  0
SOLID
  8
0
 62
7
  6
CONTINUOUS
 10
160.1534293074
 20
31.6262381969
 11
160.5003043074
 21
31.5939739474
 12
159.4596793074
 22
31.5939739474
 13
159.4596793074
 23
31.5939739474
  0
SOLID
  8
0
 62
7
  6
CONTINUOUS
 10
159.228429528
 20
31.5294468402
 11
159.4596793074
 21
31.5939739474
 12
160.5003043074
 22
31.5939739474
 13
160.5003043074
 23
31.5939739474
  0
SOLID
  8
0
 62
7
  6
CONTINUOUS
 10
159.228429528
 20
31.5294468402
 11
160.5003043074
 21
31.5939739304
 12
160.6737418074
 22
31.5617111435
 13
160.6737418074
 23
31.5617111435
  0
SOLID
  8
0
 62
7
  6
CONTINUOUS
 10
159.228429528
 20
31.5294468402
 11
160.6737418074
 21
31.5617111435
 12
159.8065543074
 22
31.4971825592
 13
159.8065543074
 23
31.4971825592
  0
SOLID
  8
0
 62
7
  6
CONTINUOUS
 10
159.8065543074
 20
31.4971825592
 11
160.6737418074
 21
31.5617111435
 12
160.1534293074
 22
31.4971825592
 13
160.1534293074
 23
31.4971825592
  0
SOLID
  8
0
 62
7
  6
CONTINUOUS
 10
160.6737418074
 20
31.5617111435
 11
160.8471793074
 21
31.4971825592
 12
160.1534293074
 22
31.4971825592
 13
160.1534293074
 23
31.4971825592
  0
SOLID
  8
0
 62
7
  6
CONTINUOUS
 10
160.5003043074
 20
31.4649197501
 11
160.1534293074
 21
31.4971825592
 12
160.8471793074
 22
31.4971825592
 13
160.8471793074
 23
31.4971825592
  0
SOLID
  8
0
 62
7
  6
CONTINUOUS
 10
159.1128043074
 20
31.4326555427
 11
159.228429528
 21
31.5294468402
 12
159.8065543074
 22
31.4971825592
 13
159.8065543074
 23
31.4971825592
  0
SOLID
  8
0
 62
7
  6
CONTINUOUS
 10
160.5003043074
 20
31.4649197501
 11
160.8471793074
 21
31.4971825592
 12
160.615929528
 22
31.4326555427
 13
160.615929528
 23
31.4326555427
  0
SOLID
  8
0
 62
7
  6
CONTINUOUS
 10
160.615929528
 20
31.4326555427
 11
160.8471793074
 21
31.4971825592
 12
160.6737418074
 22
31.3681283005
 13
160.6737418074
 23
31.3681283005
  0
SOLID
  8
0
 62
7
  6
CONTINUOUS
 10
160.8471793074
 20
31.4971825592
 11
160.9628038663
 21
31.3681283005
 12
160.6737418074
 22
31.3681283005
 13
160.6737418074
 23
31.3681283005
  0
SOLID
  8
0
 62
7
  6
CONTINUOUS
 10
150.2674918074
 20
31.4649197501
 11
149.7471793074
 21
31.4326554237
 12
150.498741835
 22
31.4971824493
 13
150.498741835
 23
31.4971824493
  0
SOLID
  8
0
 62
7
  6
CONTINUOUS
 10
149.7471793074
 20
31.4326554237
 11
149.8628043005
 21
31.4971824493
 12
150.498741835
 22
31.4971824493
 13
150.498741835
 23
31.4971824493
  0
SOLID
  8
0
 62
7
  6
CONTINUOUS
 10
150.2674918074
 20
31.4649197501
 11
150.1518667936
 21
31.4326554237
 12
149.7471793074
 22
31.4326554237
 13
149.7471793074
 23
31.4326554237
  0
SOLID
  8
0
 62
7
  6
CONTINUOUS
 10
149.6315543091
 20
31.3036012664
 11
149.7471793074
 21
31.4326554237
 12
150.1518667936
 22
31.4326554237
 13
150.1518667936
 23
31.4326554237
  0
SOLID
  8
0
 62
7
  6
CONTINUOUS
 10
153.9674919177
 20
31.4326554237
 11
154.6612419177
 21
31.4971825369
 12
154.4299918074
 22
31.4649197501
 13
154.4299918074
 23
31.4649197501
  0
SOLID
  8
0
 62
7
  6
CONTINUOUS
 10
154.4299918074
 20
31.4649197501
 11
154.3143669177
 21
31.4326554237
 12
153.9674919177
 22
31.4326554237
 13
153.9674919177
 23
31.4326554237
  0
SOLID
  8
0
 62
7
  6
CONTINUOUS
 10
153.9674919177
 20
31.3681283335
 11
153.9674919177
 21
31.4326554237
 12
154.3143669177
 22
31.4326554237
 13
154.3143669177
 23
31.4326554237
  0
SOLID
  8
0
 62
7
  6
CONTINUOUS
 10
154.3143669177
 20
31.4326554237
 11
154.2565543074
 21
31.3681283335
 12
153.9674919177
 22
31.3681283335
 13
153.9674919177
 23
31.3681283335
  0
SOLID
  8
0
 62
7
  6
CONTINUOUS
 10
159.1128043074
 20
31.4326555528
 11
159.8065543074
 21
31.4971825369
 12
159.575304528
 22
31.4649197501
 13
159.575304528
 23
31.4649197501
  0
SOLID
  8
0
 62
7
  6
CONTINUOUS
 10
159.575304528
 20
31.4649197501
 11
159.4596793074
 21
31.4326555528
 12
159.1128043074
 22
31.4326555528
 13
159.1128043074
 23
31.4326555528
  0
SOLID
  8
0
 62
7
  6
CONTINUOUS
 10
159.1128043074
 20
31.3681284626
 11
159.1128043074
 21
31.4326555528
 12
159.4596793074
 22
31.4326555528
 13
159.4596793074
 23
31.4326555528
  0
SOLID
  8
0
 62
7
  6
CONTINUOUS
 10
159.4596793074
 20
31.4326555528
 11
159.401867028
 21
31.3681284626
 12
159.1128043074
 22
31.3681284626
 13
159.1128043074
 23
31.3681284626
  0
SOLID
  8
0
 62
7
  6
CONTINUOUS
 10
159.228429528
 20
31.2390741763
 11
159.1128043074
 21
31.3681284626
 12
159.401867028
 22
31.3681284626
 13
159.401867028
 23
31.3681284626
  0
SOLID
  8
0
 62
7
  6
CONTINUOUS
 10
149.6315543091
 20
31.3036012664
 11
150.1518667936
 21
31.4326554468
 12
149.9784292936
 22
31.3358640533
 13
149.9784292936
 23
31.3358640533
  0
SOLID
  8
0
 62
7
  6
CONTINUOUS
 10
149.9784292936
 20
31.3358640533
 11
149.9206168074
 21
31.2713369632
 12
149.6315543091
 22
31.3036012664
 13
149.6315543091
 23
31.3036012664
  0
SOLID
  8
0
 62
7
  6
CONTINUOUS
 10
149.5737418074
 20
31.1100184796
 11
149.6315543091
 21
31.3036012664
 12
149.9206168074
 22
31.2713369632
 13
149.9206168074
 23
31.2713369632
  0
SOLID
  8
0
 62
7
  6
CONTINUOUS
 10
154.4299918074
 20
31.2390741763
 11
154.7768668074
 21
31.271336924
 12
155.412804528
 22
31.271336924
 13
155.412804528
 23
31.271336924
  0
SOLID
  8
0
 62
7
  6
CONTINUOUS
 10
154.4299918074
 20
31.2390741763
 11
155.412804528
 21
31.271336924
 12
154.1987416972
 22
31.1745462761
 13
154.1987416972
 23
31.1745462761
  0
SOLID
  8
0
 62
7
  6
CONTINUOUS
 10
154.1987416972
 20
31.1745462761
 11
155.412804528
 21
31.271336924
 12
154.7768668074
 22
31.1422827436
 13
154.7768668074
 23
31.1422827436
  0
SOLID
  8
0
 62
7
  6
CONTINUOUS
 10
155.412804528
 20
31.271336924
 11
155.412804528
 21
31.1422827436
 12
154.7768668074
 22
31.1422827436
 13
154.7768668074
 23
31.1422827436
  0
SOLID
  8
0
 62
7
  6
CONTINUOUS
 10
159.228429528
 20
31.2390745501
 11
159.401867028
 21
31.3681283566
 12
159.4596793074
 22
31.3036012664
 13
159.4596793074
 23
31.3036012664
  0
SOLID
  8
0
 62
7
  6
CONTINUOUS
 10
159.4596793074
 20
31.3036012664
 11
159.6331168074
 21
31.2390745501
 12
159.228429528
 22
31.2390745501
 13
159.228429528
 23
31.2390745501
  0
SOLID
  8
0
 62
7
  6
CONTINUOUS
 10
159.4596793074
 20
31.1422827828
 11
159.228429528
 21
31.2390745501
 12
159.6331168074
 22
31.2390745501
 13
159.6331168074
 23
31.2390745501
  0
SOLID
  8
0
 62
7
  6
CONTINUOUS
 10
159.6331168074
 20
31.2390745501
 11
160.615929528
 21
31.0777556927
 12
159.4596793074
 22
31.1422827828
 13
159.4596793074
 23
31.1422827828
  0
SOLID
  8
0
 62
7
  6
CONTINUOUS
 10
160.442492028
 20
30.9809646623
 11
159.4596793074
 21
31.1422827828
 12
160.615929528
 22
31.0777556927
 13
160.615929528
 23
31.0777556927
  0
SOLID
  8
0
 62
7
  6
CONTINUOUS
 10
160.615929528
 20
31.0777556927
 11
160.8471793074
 21
30.9809646623
 12
160.442492028
 22
30.9809646623
 13
160.442492028
 23
30.9809646623
  0
SOLID
  8
0
 62
7
  6
CONTINUOUS
 10
160.615929528
 20
30.9164372091
 11
160.442492028
 21
30.9809646623
 12
160.8471793074
 22
30.9809646623
 13
160.8471793074
 23
30.9809646623
  0
SOLID
  8
0
 62
7
  6
CONTINUOUS
 10
160.615929528
 20
30.9164372091
 11
160.8471793074
 21
30.9809646623
 12
160.6737418074
 22
30.8519089441
 13
160.6737418074
 23
30.8519089441
  0
SOLID
  8
0
 62
7
  6
CONTINUOUS
 10
160.8471793074
 20
30.9809646623
 11
160.9628038663
 21
30.8519089441
 12
160.6737418074
 22
30.8519089441
 13
160.6737418074
 23
30.8519089441
  0
SOLID
  8
0
 62
7
  6
CONTINUOUS
 10
160.615929528
 20
30.7873818593
 11
160.6737418074
 21
30.8519089441
 12
160.9628038663
 22
30.8519089441
 13
160.9628038663
 23
30.8519089441
  0
SOLID
  8
0
 62
7
  6
CONTINUOUS
 10
160.9628038663
 20
30.8519089441
 11
160.9628038663
 21
30.7873818593
 12
160.615929528
 22
30.7873818593
 13
160.615929528
 23
30.7873818593
  0
SOLID
  8
0
 62
7
  6
CONTINUOUS
 10
160.5003043074
 20
30.7551187255
 11
160.615929528
 21
30.7873818593
 12
160.9628038663
 22
30.7873818593
 13
160.9628038663
 23
30.7873818593
  0
SOLID
  8
0
 62
7
  6
CONTINUOUS
 10
160.5003043074
 20
30.7551187255
 11
160.9628038663
 21
30.7873818593
 12
160.269054528
 22
30.7228547745
 13
160.269054528
 23
30.7228547745
  0
SOLID
  8
0
 62
7
  6
CONTINUOUS
 10
160.9628038663
 20
30.7873818593
 11
160.8471793074
 21
30.6905916353
 12
160.269054528
 22
30.7228547745
 13
160.269054528
 23
30.7228547745
  0
SOLID
  8
0
 62
7
  6
CONTINUOUS
 10
160.8471793074
 20
30.6905916353
 11
159.401867028
 21
30.658327332
 12
160.269054528
 22
30.7228547745
 13
160.269054528
 23
30.7228547745
  0
SOLID
  8
0
 62
7
  6
CONTINUOUS
 10
160.269054528
 20
30.7228547745
 11
159.401867028
 21
30.658327332
 12
159.922179528
 22
30.7228547745
 13
159.922179528
 23
30.7228547745
  0
SOLID
  8
0
 62
7
  6
CONTINUOUS
 10
159.401867028
 20
30.658327332
 11
159.228429528
 21
30.7228547745
 12
159.922179528
 22
30.7228547745
 13
159.922179528
 23
30.7228547745
  0
SOLID
  8
0
 62
7
  6
CONTINUOUS
 10
159.401867028
 20
30.658327332
 11
160.8471793074
 21
30.6905916353
 12
159.575304528
 22
30.6260629858
 13
159.575304528
 23
30.6260629858
  0
SOLID
  8
0
 62
7
  6
CONTINUOUS
 10
160.8471793074
 20
30.6905916353
 11
160.615929528
 21
30.6260629858
 12
159.575304528
 22
30.6260629858
 13
159.575304528
 23
30.6260629858
  0
SOLID
  8
0
 62
7
  6
CONTINUOUS
 10
159.922179528
 20
30.5938006049
 11
159.575304528
 21
30.6260629858
 12
160.615929528
 22
30.6260629858
 13
160.615929528
 23
30.6260629858
  0
SOLID
  8
0
 62
7
  6
CONTINUOUS
 10
160.615929528
 20
30.6260629858
 11
160.269054528
 21
30.5938006049
 12
159.922179528
 22
30.5938006049
 13
159.922179528
 23
30.5938006049
  0
SOLID
  8
0
 62
7
  6
CONTINUOUS
 10
149.5737418074
 20
31.1100184796
 11
149.9206168074
 21
31.2713369632
 12
149.8628043005
 22
31.1422827828
 13
149.8628043005
 23
31.1422827828
  0
SOLID
  8
0
 62
7
  6
CONTINUOUS
 10
149.8628043005
 20
31.1422827828
 11
149.8628043005
 21
31.0454914852
 12
149.5737418074
 22
31.1100184796
 13
149.5737418074
 23
31.1100184796
  0
SOLID
  8
0
 62
7
  6
CONTINUOUS
 10
149.6315543091
 20
30.9164372091
 11
149.5737418074
 21
31.1100184796
 12
149.8628043005
 22
31.0454914852
 13
149.8628043005
 23
31.0454914852
  0
SOLID
  8
0
 62
7
  6
CONTINUOUS
 10
149.8628043005
 20
31.0454914852
 11
149.9784292936
 21
30.8841729058
 12
149.6315543091
 22
30.9164372091
 13
149.6315543091
 23
30.9164372091
  0
SOLID
  8
0
 62
7
  6
CONTINUOUS
 10
149.7471793074
 20
30.7873813202
 11
149.6315543091
 21
30.9164372091
 12
149.9784292936
 22
30.8841729058
 13
149.9784292936
 23
30.8841729058
  0
SOLID
  8
0
 62
7
  6
CONTINUOUS
 10
149.9784292936
 20
30.8841729058
 11
150.1518667936
 21
30.7873813202
 12
149.7471793074
 22
30.7873813202
 13
149.7471793074
 23
30.7873813202
  0
SOLID
  8
0
 62
7
  6
CONTINUOUS
 10
149.8628043005
 20
30.7228547004
 11
149.7471793074
 21
30.7873813202
 12
150.1518667936
 22
30.7873813202
 13
150.1518667936
 23
30.7873813202
  0
SOLID
  8
0
 62
7
  6
CONTINUOUS
 10
150.1518667936
 20
30.7873813202
 11
150.498741835
 21
30.7228547004
 12
149.8628043005
 22
30.7228547004
 13
149.8628043005
 23
30.7228547004
  0
SOLID
  8
0
 62
7
  6
CONTINUOUS
 10
150.0362418212
 20
30.658327332
 11
149.8628043005
 21
30.7228547004
 12
150.498741835
 22
30.7228547004
 13
150.498741835
 23
30.7228547004
  0
SOLID
  8
0
 62
7
  6
CONTINUOUS
 10
154.0831168074
 20
31.1100184386
 11
154.1987416972
 21
31.1745462761
 12
154.7768668074
 22
31.1422827828
 13
154.7768668074
 23
31.1422827828
  0
SOLID
  8
0
 62
7
  6
CONTINUOUS
 10
154.7768668074
 20
31.1422827828
 11
154.5456166972
 21
31.1100184386
 12
154.0831168074
 22
31.1100184386
 13
154.0831168074
 23
31.1100184386
  0
SOLID
  8
0
 62
7
  6
CONTINUOUS
 10
153.9674919177
 20
30.9809642992
 11
154.0831168074
 21
31.1100184386
 12
154.5456166972
 22
31.1100184386
 13
154.5456166972
 23
31.1100184386
  0
SOLID
  8
0
 62
7
  6
CONTINUOUS
 10
154.3143669177
 20
31.0132277988
 11
153.9674919177
 21
30.9809642992
 12
154.4299918074
 22
31.0777556927
 13
154.4299918074
 23
31.0777556927
  0
SOLID
  8
0
 62
7
  6
CONTINUOUS
 10
153.9674919177
 20
30.9809642992
 11
154.5456166972
 21
31.1100184796
 12
154.4299918074
 22
31.0777556927
 13
154.4299918074
 23
31.0777556927
  0
SOLID
  8
0
 62
7
  6
CONTINUOUS
 10
154.3143669177
 20
31.0132277988
 11
154.2565543074
 21
30.9164372091
 12
153.9674919177
 22
30.9809642992
 13
153.9674919177
 23
30.9809642992
  0
SOLID
  8
0
 62
7
  6
CONTINUOUS
 10
153.9674919177
 20
30.8841729058
 11
153.9674919177
 21
30.9809642992
 12
154.2565543074
 22
30.9164372091
 13
154.2565543074
 23
30.9164372091
  0
SOLID
  8
0
 62
7
  6
CONTINUOUS
 10
154.2565543074
 20
30.9164372091
 11
154.2565543074
 21
30.8519086025
 12
153.9674919177
 22
30.8841729058
 13
153.9674919177
 23
30.8841729058
  0
SOLID
  8
0
 62
7
  6
CONTINUOUS
 10
154.0253041972
 20
30.7551187255
 11
153.9674919177
 21
30.8841729058
 12
154.2565543074
 22
30.8519086025
 13
154.2565543074
 23
30.8519086025
  0
SOLID
  8
0
 62
7
  6
CONTINUOUS
 10
155.412804528
 20
30.9487004259
 11
155.7018665869
 21
30.8519086025
 12
155.3549915869
 22
30.8841729058
 13
155.3549915869
 23
30.8841729058
  0
SOLID
  8
0
 62
7
  6
CONTINUOUS
 10
155.1815540869
 20
30.7873815123
 11
155.3549915869
 21
30.8841729058
 12
155.7018665869
 22
30.8519086025
 13
155.7018665869
 23
30.8519086025
  0
SOLID
  8
0
 62
7
  6
CONTINUOUS
 10
155.1815540869
 20
30.7873815123
 11
155.7018665869
 21
30.8519086025
 12
155.412804528
 22
30.7551187255
 13
155.412804528
 23
30.7551187255
  0
SOLID
  8
0
 62
7
  6
CONTINUOUS
 10
155.7018665869
 20
30.8519086025
 11
155.759679528
 21
30.6905916353
 12
155.412804528
 22
30.7551187255
 13
155.412804528
 23
30.7551187255
  0
SOLID
  8
0
 62
7
  6
CONTINUOUS
 10
155.4706168074
 20
30.658327332
 11
155.412804528
 21
30.7551187255
 12
155.759679528
 22
30.6905916353
 13
155.759679528
 23
30.6905916353
  0
SOLID
  8
0
 62
7
  6
CONTINUOUS
 10
155.4706168074
 20
30.658327332
 11
155.759679528
 21
30.6905916353
 12
155.5284290869
 22
30.5938002079
 13
155.5284290869
 23
30.5938002079
  0
SOLID
  8
0
 62
7
  6
CONTINUOUS
 10
155.759679528
 20
30.6905916353
 11
155.8174918074
 21
30.5938002079
 12
155.5284290869
 22
30.5938002079
 13
155.5284290869
 23
30.5938002079
  0
SOLID
  8
0
 62
7
  6
CONTINUOUS
 10
151.0768668626
 20
30.8196456577
 11
151.1346793074
 21
30.9164373395
 12
151.4237418626
 22
30.9164373395
 13
151.4237418626
 23
30.9164373395
  0
SOLID
  8
0
 62
7
  6
CONTINUOUS
 10
151.4237418626
 20
30.9164373395
 11
151.3659292523
 21
30.7873815123
 12
151.0768668626
 22
30.8196456577
 13
151.0768668626
 23
30.8196456577
  0
SOLID
  8
0
 62
7
  6
CONTINUOUS
 10
150.9034292799
 20
30.7551187255
 11
151.0768668626
 21
30.8196456577
 12
151.3659292523
 22
30.7873815123
 13
151.3659292523
 23
30.7873815123
  0
SOLID
  8
0
 62
7
  6
CONTINUOUS
 10
150.9034292799
 20
30.7551187255
 11
151.3659292523
 21
30.7873815123
 12
150.498741835
 22
30.7228544222
 13
150.498741835
 23
30.7228544222
  0
SOLID
  8
0
 62
7
  6
CONTINUOUS
 10
151.3659292523
 20
30.7873815123
 11
151.1924917523
 21
30.6905916353
 12
150.498741835
 22
30.7228544222
 13
150.498741835
 23
30.7228544222
  0
SOLID
  8
0
 62
7
  6
CONTINUOUS
 10
150.0362418212
 20
30.658327332
 11
150.498741835
 21
30.7228544222
 12
151.1924917523
 22
30.6905916353
 13
151.1924917523
 23
30.6905916353
  0
SOLID
  8
0
 62
7
  6
CONTINUOUS
 10
150.0362418212
 20
30.658327332
 11
151.1924917523
 21
30.6905916353
 12
150.2096793212
 22
30.6260631011
 13
150.2096793212
 23
30.6260631011
  0
SOLID
  8
0
 62
7
  6
CONTINUOUS
 10
151.1924917523
 20
30.6905916353
 11
150.9612418074
 21
30.6260631011
 12
150.2096793212
 22
30.6260631011
 13
150.2096793212
 23
30.6260631011
  0
SOLID
  8
0
 62
7
  6
CONTINUOUS
 10
150.5565542799
 20
30.5938002419
 11
150.2096793212
 21
30.6260631011
 12
150.9612418074
 22
30.6260631011
 13
150.9612418074
 23
30.6260631011
  0
SOLID
  8
0
 62
7
  6
CONTINUOUS
 10
154.0253041972
 20
30.7551187255
 11
154.2565543074
 21
30.8519086025
 12
154.3143669177
 22
30.7873815123
 13
154.3143669177
 23
30.7873815123
  0
SOLID
  8
0
 62
7
  6
CONTINUOUS
 10
154.3143669177
 20
30.7873815123
 11
154.5456166972
 21
30.7228544222
 12
154.0253041972
 22
30.7551187255
 13
154.0253041972
 23
30.7551187255
  0
SOLID
  8
0
 62
7
  6
CONTINUOUS
 10
154.1987416972
 20
30.658327332
 11
154.0253041972
 21
30.7551187255
 12
154.5456166972
 22
30.7228544222
 13
154.5456166972
 23
30.7228544222
  0
SOLID
  8
0
 62
7
  6
CONTINUOUS
 10
154.8924916972
 20
30.7228544637
 11
155.1815540869
 21
30.7873815123
 12
155.412804528
 22
30.7551187255
 13
155.412804528
 23
30.7551187255
  0
SOLID
  8
0
 62
7
  6
CONTINUOUS
 10
155.412804528
 20
30.7551187255
 11
155.3549915869
 21
30.6905916353
 12
154.8924916972
 22
30.7228544637
 13
154.8924916972
 23
30.7228544637
  0
SOLID
  8
0
 62
7
  6
CONTINUOUS
 10
155.3549915869
 20
30.6905916353
 11
154.1987416972
 21
30.658327332
 12
154.8924916972
 22
30.7228544637
 13
154.8924916972
 23
30.7228544637
  0
SOLID
  8
0
 62
7
  6
CONTINUOUS
 10
154.1987416972
 20
30.658327332
 11
154.5456166972
 21
30.7228544637
 12
154.8924916972
 22
30.7228544637
 13
154.8924916972
 23
30.7228544637
  0
SOLID
  8
0
 62
7
  6
CONTINUOUS
 10
154.1987416972
 20
30.658327332
 11
155.3549915869
 21
30.6905916353
 12
154.3143669177
 22
30.6260630541
 13
154.3143669177
 23
30.6260630541
  0
SOLID
  8
0
 62
7
  6
CONTINUOUS
 10
155.3549915869
 20
30.6905916353
 11
155.1815540869
 21
30.6260630541
 12
154.3143669177
 22
30.6260630541
 13
154.3143669177
 23
30.6260630541
  0
SOLID
  8
0
 62
7
  6
CONTINUOUS
 10
154.5456166972
 20
30.5938002188
 11
154.3143669177
 21
30.6260630541
 12
155.1815540869
 22
30.6260630541
 13
155.1815540869
 23
30.6260630541
  0
SOLID
  8
0
 62
7
  6
CONTINUOUS
 10
155.1815540869
 20
30.6260630541
 11
154.8924916972
 21
30.5938002188
 12
154.5456166972
 22
30.5938002188
 13
154.5456166972
 23
30.5938002188
  0
SOLID
  8
0
 62
7
  6
CONTINUOUS
 10
159.575304528
 20
30.7551187255
 11
159.228429528
 21
30.7228544637
 12
159.4596793074
 22
30.7873815123
 13
159.4596793074
 23
30.7873815123
  0
SOLID
  8
0
 62
7
  6
CONTINUOUS
 10
159.4596793074
 20
30.7873815123
 11
159.228429528
 21
30.7228544637
 12
159.401867028
 22
30.851908644
 13
159.401867028
 23
30.851908644
  0
SOLID
  8
0
 62
7
  6
CONTINUOUS
 10
159.228429528
 20
30.7228544637
 11
159.1128043074
 21
30.851908644
 12
159.401867028
 22
30.851908644
 13
159.401867028
 23
30.851908644
  0
SOLID
  8
0
 62
7
  6
CONTINUOUS
 10
159.575304528
 20
30.7551187255
 11
159.922179528
 21
30.7228544637
 12
159.228429528
 22
30.7228544637
 13
159.228429528
 23
30.7228544637
  0
SOLID
  8
0
 62
7
  6
CONTINUOUS
 10
156.279992028
 20
30.5938002419
 11
156.279992028
 21
31.6262382337
 12
156.5690540869
 22
30.5938002419
 13
156.5690540869
 23
31.6262382337
  0
ENDBLK
  8
0
  6
BYBLOCK
 62
0
  0
BLOCK
  8
0
 62
2
  6
CONTINUOUS
  2
SYMBOL_3_BL0
 70
64
 10
32.1213064866
 20
19.8534310916
  0
TEXT
  8
0
 62
7
  6
CONTINUOUS
 10
18.3860103289
 20
19.2268451992
  7
TEXTSTYLE_3
 40
2.7338706658
  1
Ammeraal Beltech
 41
1.0
 51
15.0
 72
0
  0
TEXT
  8
0
 62
7
  6
CONTINUOUS
 10
29.1868111546
 20
16.9533085264
  7
TEXTSTYLE_4
 40
1.0935482663
  1
Innovation & Service in Belting
 41
1.0
 72
0
  0
LINE
  8
0
 62
7
  6
CONTINUOUS
 10
12.3614696776
 20
19.9934385078
 11
13.1396216709
 21
23.6543558055
  0
LINE
  8
0
 62
7
  6
CONTINUOUS
 10
23.2347899607
 20
27.3177497171
 11
13.6274394139
 21
24.1961322958
  0
LINE
  8
0
 62
7
  6
CONTINUOUS
 10
12.5867530099
 20
19.3000877048
 11
20.093828271
 21
12.5406867788
  0
LINE
  8
0
 62
7
  6
CONTINUOUS
 10
12.8492874206
 20
20.5352149982
 11
23.6575567857
 21
24.0470345971
  0
LINE
  8
0
 62
7
  6
CONTINUOUS
 10
23.6533516486
 20
13.6972460334
 11
15.2078919798
 21
21.3015720751
  0
LINE
  8
0
 62
7
  6
CONTINUOUS
 10
24.1731743684
 20
26.4728246013
 11
23.1966148312
 21
21.8784731989
  0
LINE
  8
0
 62
7
  6
CONTINUOUS
 10
22.4968128835
 20
18.5861638851
 11
21.810364672
 21
15.3566789607
  0
LINE
  8
0
 62
7
  6
CONTINUOUS
 10
24.8542704669
 20
14.087448211
 11
25.8105020025
 21
18.5861638851
  0
LINE
  8
0
 62
7
  6
CONTINUOUS
 10
26.5103039502
 20
21.8784731989
 11
26.9545457526
 21
23.9684665583
  0
LINE
  8
0
 62
7
  6
CONTINUOUS
 10
20.8069293463
 20
12.3891124661
 11
24.3664527239
 21
13.5456717207
  0
LINE
  8
0
 62
7
  6
CONTINUOUS
 10
23.9478910361
 20
27.1661754044
 11
26.7292624203
 21
24.6618173613
  0
ARC
  8
0
 62
7
  6
CONTINUOUS
 10
13.8527227462
 20
23.5027814928
 40
0.7290321776
 50
108.0
 51
168.0
  0
ARC
  8
0
 62
7
  6
CONTINUOUS
 10
23.4600732931
 20
26.624398914
 40
0.7290321776
 50
348.0
 51
108.0
  0
ARC
  8
0
 62
7
  6
CONTINUOUS
 10
26.2414446773
 20
24.120040871
 40
0.7290321776
 50
348.0
 51
48.0
  0
ARC
  8
0
 62
7
  6
CONTINUOUS
 10
20.581646014
 20
13.0824632691
 40
0.7290321776
 50
228.0
 51
288.0
  0
ARC
  8
0
 62
7
  6
CONTINUOUS
 10
13.0745707529
 20
19.8418641951
 40
0.7290321776
 50
108.0
 51
228.0
  0
ARC
  8
0
 62
7
  6
CONTINUOUS
 10
24.1411693916
 20
14.2390225237
 40
0.7290321776
 50
228.0
 51
348.0
  0
ENDBLK
  8
0
  6
BYBLOCK
 62
0
  0
ENDSEC
  0
SECTION
  2
ENTITIES
  0
TEXT
  8
0
 62
5
  6
CONTINUOUS
 10
96.0
 20
25.636
  7
TEXTSTYLE_2
 40
2.8
  1
Scale :
 41
0.6
 51
0.000019
 72
0
  0
TEXT
  8
0
 62
5
  6
CONTINUOUS
 10
116.0
 20
25.636
  7
TEXTSTYLE_2
 40
2.8
  1
Belt type:
 41
0.6
 51
0.000019
 72
0
  0
INSERT
  8
0
 62
2
  6
CONTINUOUS
  2
SYMBOL_3_BL0
 10
32.1213064866
 20
19.8534310916
  0
INSERT
  8
0
 62
2
  6
CONTINUOUS
  2
SYMBOL_8_BL1
 10
173.5956734183
 20
35.5937998301
  0
LINE
  8
0
 62
2
  6
CONTINUOUS
 10
10.0
 20
30.0
 11
200.0
 21
30.0
  0
LINE
  8
0
 62
2
  6
CONTINUOUS
 10
10.0
 20
30.0
 11
10.0
 21
10.0
  0
LINE
  8
0
 62
2
  6
CONTINUOUS
 10
10.0
 20
10.0
 11
200.0
 21
10.0
  0
LINE
  8
0
 62
2
  6
CONTINUOUS
 10
95.0
 20
30.0
 11
95.0
 21
10.0
  0
LINE
  8
0
 62
2
  6
CONTINUOUS
 10
115.0
 20
30.0
 11
115.0
 21
10.0
  0
LINE
  8
0
 62
2
  6
CONTINUOUS
 10
200.0
 20
30.0
 11
200.0
 21
10.0
  0
TEXT
  8
0
 62
5
  6
CONTINUOUS
 10
13.0
 20
23.303
  7
TEXTSTYLE_5
 40
1.52
  1
                                                                     Ammeraal Beltech Modular A/S
 41
1.0
 72
0
  0
TEXT
  8
0
 62
5
  6
CONTINUOUS
 10
13.0
 20
20.595
  7
TEXTSTYLE_5
 40
1.5
  1
                                                                      Hjulmagervej 21,  7100 Vejle,  DK
 41
1.0
 72
0
  0
TEXT
  8
0
 62
5
  6
CONTINUOUS
 10
13.0
 20
17.881
  7
TEXTSTYLE_5
 40
1.495
  1
                                                                      tel: 
 41
1.0
 72
0
  0
TEXT
  8
0
 62
5
  6
CONTINUOUS
 10
57.9869465649
 20
17.881
  7
TEXTSTYLE_5
 40
1.51
  1
+45 75723100     fax: +45 75723348
 41
1.0
 72
0
  0
TEXT
  8
0
 62
5
  6
CONTINUOUS
 10
13.0
 20
15.177
  7
TEXTSTYLE_5
 40
1.5
  1
                                                                      admin@unichains.dk  www.unichains.com
 41
1.0
 72
0
  0
TEXT
  8
0
 62
5
  6
CONTINUOUS
 10
99.75
 20
13.75
  7
TEXTSTYLE_6
 40
5.0
  1
1:1
 41
0.7
 72
1
 11
105.0
 21
13.75
  0
TEXT
  8
0
 62
5
  6
CONTINUOUS
 10
118.0
 20
13.75
  7
TEXTSTYLE_7
 40
7.5
  1
uni SSB-00-K300A
 41
0.5289713542
 72
0
  0
LINE
  8
0
 62
7
  6
CONTINUOUS
 10
210.0
 20
0.0
 11
0.0
 21
0.0
  0
LINE
  8
0
 62
7
  6
CONTINUOUS
 10
10.0
 20
10.0
 11
200.0
 21
10.0
  0
LINE
  8
0
 62
7
  6
CONTINUOUS
 10
10.0
 20
30.0
 11
200.0
 21
30.0
  0
LINE
  8
0
 62
7
  6
CONTINUOUS
 10
0.0
 20
0.0
 11
0.0
 21
297.0
  0
LINE
  8
0
 62
7
  6
CONTINUOUS
 10
10.0
 20
10.0
 11
10.0
 21
287.0
  0
LINE
  8
0
 62
7
  6
CONTINUOUS
 10
200.0
 20
287.0
 11
200.0
 21
10.0
  0
LINE
  8
0
 62
7
  6
CONTINUOUS
 10
210.0
 20
0.0
 11
210.0
 21
297.0
  0
LINE
  8
0
 62
7
  6
CONTINUOUS
 10
10.0
 20
287.0
 11
200.0
 21
287.0
  0
LINE
  8
0
 62
7
  6
CONTINUOUS
 10
0.0
 20
297.0
 11
210.0
 21
297.0
  0
LINE
  8
0
 62
7
  6
CONTINUOUS
 10
40.1623787954
 20
109.8565279296
 11
40.1623787954
 21
148.4565279336
  0
POLYLINE
  8
0
 62
7
  6
CONTINUOUS
 66
1
 70
0
  0
VERTEX
  8
0
 62
7
  6
CONTINUOUS
 10
49.5186412564
 20
110.7733150899
  0
VERTEX
  8
0
 62
7
  6
CONTINUOUS
 10
49.5397168277
 20
110.7400701962
  0
VERTEX
  8
0
 62
7
  6
CONTINUOUS
 10
49.5590747453
 20
110.7060684855
  0
VERTEX
  8
0
 62
7
  6
CONTINUOUS
 10
49.5765205213
 20
110.671444837
  0
VERTEX
  8
0
 62
7
  6
CONTINUOUS
 10
49.5917097224
 20
110.6365802805
  0
VERTEX
  8
0
 62
7
  6
CONTINUOUS
 10
49.5951980697
 20
110.6276512297
  0
SEQEND
  0
LINE
  8
0
 62
7
  6
CONTINUOUS
 10
43.7044008663
 20
110.5598826007
 11
43.6792298215
 21
109.8390781852
  0
LINE
  8
0
 62
7
  6
CONTINUOUS
 10
49.5952067835
 20
110.6276285804
 11
49.6042529919
 21
110.6036571204
  0
LINE
  8
0
 62
7
  6
CONTINUOUS
 10
49.6042529919
 20
110.6036571204
 11
49.6172031584
 21
110.5685624663
  0
LINE
  8
0
 62
7
  6
CONTINUOUS
 10
49.6172031584
 20
110.5685624663
 11
49.6295320308
 21
110.5344252313
  0
LINE
  8
0
 62
7
  6
CONTINUOUS
 10
49.6295320308
 20
110.5344252313
 11
49.6470643466
 21
110.4849560764
  0
LINE
  8
0
 62
7
  6
CONTINUOUS
 10
49.6470643466
 20
110.4849560764
 11
49.6897506933
 21
110.3630789212
  0
LINE
  8
0
 62
7
  6
CONTINUOUS
 10
49.6203571748
 20
110.5598697048
 11
49.6455277693
 21
109.8390781852
  0
LINE
  8
0
 62
7
  6
CONTINUOUS
 10
53.0621579321
 20
150.5367169572
 11
53.019023638
 21
150.3724347566
  0
LINE
  8
0
 62
7
  6
CONTINUOUS
 10
53.0243768611
 20
150.3867340127
 11
53.0596550378
 21
150.5207897346
  0
LINE
  8
0
 62
7
  6
CONTINUOUS
 10
52.9655553685
 20
150.2591593729
 11
53.0243768611
 21
150.3867340127
  0
LINE
  8
0
 62
7
  6
CONTINUOUS
 10
53.019023638
 20
150.3724347566
 11
52.9421709449
 21
150.2209507981
  0
LINE
  8
0
 62
7
  6
CONTINUOUS
 10
52.8846867064
 20
150.1430811596
 11
52.9655553685
 21
150.2591593729
  0
LINE
  8
0
 62
7
  6
CONTINUOUS
 10
52.9421709449
 20
150.2209507981
 11
52.8350679823
 21
150.0891109365
  0
LINE
  8
0
 62
7
  6
CONTINUOUS
 10
52.8350679823
 20
150.0891109365
 11
52.7025634533
 21
149.9828603631
  0
POLYLINE
  8
0
 62
7
  6
CONTINUOUS
 66
1
 70
0
  0
VERTEX
  8
0
 62
7
  6
CONTINUOUS
 10
52.6683383297
 20
149.962108699
  0
VERTEX
  8
0
 62
7
  6
CONTINUOUS
 10
52.7844623995
 20
150.0429148295
  0
VERTEX
  8
0
 62
7
  6
CONTINUOUS
 10
52.8846867064
 20
150.1430811596
  0
SEQEND
  0
LINE
  8
0
 62
7
  6
CONTINUOUS
 10
52.6503569986
 20
114.2483267812
 11
52.6535750989
 21
118.8565279336
  0
LINE
  8
0
 62
7
  6
CONTINUOUS
 10
53.0744005921
 20
155.2647290859
 11
53.0711824919
 21
150.6565279336
  0
LINE
  8
0
 62
7
  6
CONTINUOUS
 10
52.6410763188
 20
112.8996686398
 11
52.6503569986
 21
114.2483267812
  0
LINE
  8
0
 62
7
  6
CONTINUOUS
 10
53.0836812719
 20
156.6133872273
 11
53.0744005921
 21
155.2647290859
  0
LINE
  8
0
 62
7
  6
CONTINUOUS
 10
53.0952771548
 20
157.5844607215
 11
53.0836812719
 21
156.6133872273
  0
LINE
  8
0
 62
7
  6
CONTINUOUS
 10
52.6294804359
 20
111.9285951457
 11
52.6410763188
 21
112.8996686398
  0
LINE
  8
0
 62
7
  6
CONTINUOUS
 10
53.104329628
 20
158.1254544575
 11
53.0952771548
 21
157.5844607215
  0
LINE
  8
0
 62
7
  6
CONTINUOUS
 10
52.6204279628
 20
111.3876014097
 11
52.6294804359
 21
111.9285951457
  0
LINE
  8
0
 62
7
  6
CONTINUOUS
 10
53.1140958398
 20
158.5792222949
 11
53.104329628
 21
158.1254544575
  0
LINE
  8
0
 62
7
  6
CONTINUOUS
 10
52.6106617509
 20
110.9338335723
 11
52.6204279628
 21
111.3876014097
  0
LINE
  8
0
 62
7
  6
CONTINUOUS
 10
53.1217295445
 20
158.8632626002
 11
53.1140958398
 21
158.5792222949
  0
LINE
  8
0
 62
7
  6
CONTINUOUS
 10
52.6030280463
 20
110.649793267
 11
52.6106617509
 21
110.9338335723
  0
LINE
  8
0
 62
7
  6
CONTINUOUS
 10
53.1269101489
 20
159.0266597666
 11
53.1217295445
 21
158.8632626002
  0
LINE
  8
0
 62
7
  6
CONTINUOUS
 10
52.5978474418
 20
110.4863961006
 11
52.6030280463
 21
110.649793267
  0
LINE
  8
0
 62
7
  6
CONTINUOUS
 10
53.1321140981
 20
159.1695474404
 11
53.1269101489
 21
159.0266597666
  0
LINE
  8
0
 62
7
  6
CONTINUOUS
 10
52.5926434926
 20
110.3435084268
 11
52.5978474418
 21
110.4863961006
  0
LINE
  8
0
 62
7
  6
CONTINUOUS
 10
53.1372929476
 20
159.2923518556
 11
53.1321140981
 21
159.1695474404
  0
LINE
  8
0
 62
7
  6
CONTINUOUS
 10
52.5874646432
 20
110.2207040116
 11
52.5926434926
 21
110.3435084268
  0
LINE
  8
0
 62
7
  6
CONTINUOUS
 10
53.0711769683
 20
150.6565279338
 11
53.0621579321
 21
150.5367169572
  0
LINE
  8
0
 62
7
  6
CONTINUOUS
 10
52.6535806224
 20
118.8565279334
 11
52.6625996587
 21
118.97633891
  0
LINE
  8
0
 62
7
  6
CONTINUOUS
 10
53.0596550378
 20
150.5207897346
 11
53.0712586443
 21
150.6565279336
  0
LINE
  8
0
 62
7
  6
CONTINUOUS
 10
52.6651025529
 20
118.9922661325
 11
52.6534989465
 21
118.8565279336
  0
LINE
  8
0
 62
7
  6
CONTINUOUS
 10
43.6350095215
 20
110.3630861864
 11
43.683130235
 21
110.5003890328
  0
LINE
  8
0
 62
7
  6
CONTINUOUS
 10
43.683130235
 20
110.5003890328
 11
43.6996355144
 21
110.5467083467
  0
LINE
  8
0
 62
7
  6
CONTINUOUS
 10
43.6996355144
 20
110.5467083467
 11
43.7111795021
 21
110.5784715358
  0
LINE
  8
0
 62
7
  6
CONTINUOUS
 10
52.7025634533
 20
149.9828603631
 11
52.5512705292
 21
149.907212208
  0
LINE
  8
0
 62
7
  6
CONTINUOUS
 10
52.5512458078
 20
149.9071899755
 11
52.6683383297
 21
149.962108699
  0
POLYLINE
  8
0
 62
7
  6
CONTINUOUS
 66
1
 70
0
  0
VERTEX
  8
0
 62
7
  6
CONTINUOUS
 10
102.6534495334
 20
109.3565340607
  0
VERTEX
  8
0
 62
7
  6
CONTINUOUS
 10
102.7176066094
 20
109.3609090933
  0
VERTEX
  8
0
 62
7
  6
CONTINUOUS
 10
102.8353603849
 20
109.3914393906
  0
VERTEX
  8
0
 62
7
  6
CONTINUOUS
 10
102.9335336245
 20
109.4432803194
  0
VERTEX
  8
0
 62
7
  6
CONTINUOUS
 10
103.0119046538
 20
109.5090521175
  0
VERTEX
  8
0
 62
7
  6
CONTINUOUS
 10
103.0707759377
 20
109.5821150069
  0
VERTEX
  8
0
 62
7
  6
CONTINUOUS
 10
103.1096563804
 20
109.6519580052
  0
VERTEX
  8
0
 62
7
  6
CONTINUOUS
 10
103.1318226073
 20
109.7084769043
  0
VERTEX
  8
0
 62
7
  6
CONTINUOUS
 10
103.1439852396
 20
109.7508387139
  0
VERTEX
  8
0
 62
7
  6
CONTINUOUS
 10
103.1512915878
 20
109.7839699898
  0
VERTEX
  8
0
 62
7
  6
CONTINUOUS
 10
103.1563669547
 20
109.8127247373
  0
VERTEX
  8
0
 62
7
  6
CONTINUOUS
 10
103.1603333025
 20
109.8399517159
  0
VERTEX
  8
0
 62
7
  6
CONTINUOUS
 10
103.1636948964
 20
109.8672403761
  0
VERTEX
  8
0
 62
7
  6
CONTINUOUS
 10
103.1666925661
 20
109.8954419808
  0
VERTEX
  8
0
 62
7
  6
CONTINUOUS
 10
103.169467751
 20
109.9252012856
  0
VERTEX
  8
0
 62
7
  6
CONTINUOUS
 10
103.1721237237
 20
109.9572522371
  0
VERTEX
  8
0
 62
7
  6
CONTINUOUS
 10
103.1747125263
 20
109.9920686919
  0
VERTEX
  8
0
 62
7
  6
CONTINUOUS
 10
103.1772664719
 20
110.0300535422
  0
VERTEX
  8
0
 62
7
  6
CONTINUOUS
 10
103.1798064428
 20
110.0715662456
  0
VERTEX
  8
0
 62
7
  6
CONTINUOUS
 10
103.1823468155
 20
110.1169524707
  0
VERTEX
  8
0
 62
7
  6
CONTINUOUS
 10
103.1874646432
 20
110.2207040115
  0
SEQEND
  0
LINE
  8
0
 62
7
  6
CONTINUOUS
 10
52.0534495238
 20
109.3565364741
 11
50.1452231828
 21
109.3565279336
  0
LINE
  8
0
 62
7
  6
CONTINUOUS
 10
43.179534408
 20
109.3565279336
 11
40.6623787914
 21
109.3565279336
  0
LINE
  8
4_SURFACE
 62
7
  6
CONTINUOUS
 10
78.9732946217
 20
109.3565279336
 11
102.6514629691
 21
109.3565279336
  0
LINE
  8
0
 62
7
  6
CONTINUOUS
 10
78.9712864674
 20
109.3565341422
 11
102.6534495361
 21
109.3565333991
  0
POLYLINE
  8
0
 62
7
  6
CONTINUOUS
 66
1
 70
0
  0
VERTEX
  8
0
 62
7
  6
CONTINUOUS
 10
49.0840827704
 20
111.0745933693
  0
VERTEX
  8
0
 62
7
  6
CONTINUOUS
 10
49.0933935339
 20
111.0744496399
  0
VERTEX
  8
0
 62
7
  6
CONTINUOUS
 10
49.1391455416
 20
111.0692028556
  0
VERTEX
  8
0
 62
7
  6
CONTINUOUS
 10
49.1821639815
 20
111.0578876932
  0
VERTEX
  8
0
 62
7
  6
CONTINUOUS
 10
49.2224663539
 20
111.04207719
  0
VERTEX
  8
0
 62
7
  6
CONTINUOUS
 10
49.2601078361
 20
111.0229766336
  0
VERTEX
  8
0
 62
7
  6
CONTINUOUS
 10
49.295494863
 20
111.0013546985
  0
VERTEX
  8
0
 62
7
  6
CONTINUOUS
 10
49.3290558836
 20
110.9775539334
  0
VERTEX
  8
0
 62
7
  6
CONTINUOUS
 10
49.3607834282
 20
110.9520690196
  0
VERTEX
  8
0
 62
7
  6
CONTINUOUS
 10
49.3908704997
 20
110.9250981614
  0
VERTEX
  8
0
 62
7
  6
CONTINUOUS
 10
49.4193463838
 20
110.8968991976
  0
VERTEX
  8
0
 62
7
  6
CONTINUOUS
 10
49.4463274176
 20
110.8675554218
  0
VERTEX
  8
0
 62
7
  6
CONTINUOUS
 10
49.4718638422
 20
110.8371502999
  0
VERTEX
  8
0
 62
7
  6
CONTINUOUS
 10
49.4959803876
 20
110.8057205411
  0
VERTEX
  8
0
 62
7
  6
CONTINUOUS
 10
49.5186412564
 20
110.7733150899
  0
SEQEND
  0
POLYLINE
  8
0
 62
7
  6
CONTINUOUS
 66
1
 70
0
  0
VERTEX
  8
0
 62
7
  6
CONTINUOUS
 10
43.7111795021
 20
110.5784715358
  0
VERTEX
  8
0
 62
7
  6
CONTINUOUS
 10
43.7232269989
 20
110.6109211284
  0
VERTEX
  8
0
 62
7
  6
CONTINUOUS
 10
43.7295508665
 20
110.6276287862
  0
SEQEND
  0
POLYLINE
  8
0
 62
7
  6
CONTINUOUS
 66
1
 70
0
  0
VERTEX
  8
0
 62
7
  6
CONTINUOUS
 10
43.7295596754
 20
110.6276508812
  0
VERTEX
  8
0
 62
7
  6
CONTINUOUS
 10
43.7339035148
 20
110.6387053903
  0
VERTEX
  8
0
 62
7
  6
CONTINUOUS
 10
43.7492584035
 20
110.6736045373
  0
VERTEX
  8
0
 62
7
  6
CONTINUOUS
 10
43.7668313887
 20
110.7081991047
  0
VERTEX
  8
0
 62
7
  6
CONTINUOUS
 10
43.7863167318
 20
110.7421813462
  0
SEQEND
  0
LINE
  8
0
 62
7
  6
CONTINUOUS
 10
103.9180583833
 20
119.6449403425
 11
103.773511783
 21
119.6058658916
  0
POLYLINE
  8
0
 62
7
  6
CONTINUOUS
 66
1
 70
0
  0
VERTEX
  8
0
 62
7
  6
CONTINUOUS
 10
52.0534495336
 20
109.3565340607
  0
VERTEX
  8
0
 62
7
  6
CONTINUOUS
 10
52.1176066094
 20
109.3609090933
  0
VERTEX
  8
0
 62
7
  6
CONTINUOUS
 10
52.2353603849
 20
109.3914393906
  0
VERTEX
  8
0
 62
7
  6
CONTINUOUS
 10
52.3335336245
 20
109.4432803194
  0
VERTEX
  8
0
 62
7
  6
CONTINUOUS
 10
52.4119046538
 20
109.5090521175
  0
VERTEX
  8
0
 62
7
  6
CONTINUOUS
 10
52.4707759377
 20
109.5821150069
  0
VERTEX
  8
0
 62
7
  6
CONTINUOUS
 10
52.5096563804
 20
109.6519580052
  0
VERTEX
  8
0
 62
7
  6
CONTINUOUS
 10
52.5318226073
 20
109.7084769043
  0
VERTEX
  8
0
 62
7
  6
CONTINUOUS
 10
52.5439852396
 20
109.7508387139
  0
VERTEX
  8
0
 62
7
  6
CONTINUOUS
 10
52.5512915878
 20
109.7839699898
  0
VERTEX
  8
0
 62
7
  6
CONTINUOUS
 10
52.5563669547
 20
109.8127247373
  0
VERTEX
  8
0
 62
7
  6
CONTINUOUS
 10
52.5603333025
 20
109.8399517159
  0
VERTEX
  8
0
 62
7
  6
CONTINUOUS
 10
52.5636948964
 20
109.8672403761
  0
VERTEX
  8
0
 62
7
  6
CONTINUOUS
 10
52.5666925661
 20
109.8954419808
  0
VERTEX
  8
0
 62
7
  6
CONTINUOUS
 10
52.569467751
 20
109.9252012856
  0
VERTEX
  8
0
 62
7
  6
CONTINUOUS
 10
52.5721237237
 20
109.9572522371
  0
VERTEX
  8
0
 62
7
  6
CONTINUOUS
 10
52.5747125263
 20
109.9920686919
  0
VERTEX
  8
0
 62
7
  6
CONTINUOUS
 10
52.5772664719
 20
110.0300535422
  0
VERTEX
  8
0
 62
7
  6
CONTINUOUS
 10
52.5798064428
 20
110.0715662456
  0
VERTEX
  8
0
 62
7
  6
CONTINUOUS
 10
52.5823468155
 20
110.1169524707
  0
VERTEX
  8
0
 62
7
  6
CONTINUOUS
 10
52.5874646432
 20
110.2207040116
  0
SEQEND
  0
LINE
  8
0
 62
7
  6
CONTINUOUS
 10
49.0840827952
 20
111.0746001144
 11
44.2406687592
 21
111.0746001144
  0
LINE
  8
0
 62
7
  6
CONTINUOUS
 10
52.6625996587
 20
118.97633891
 11
52.7057339528
 21
119.1406211106
  0
LINE
  8
0
 62
7
  6
CONTINUOUS
 10
52.7003807297
 20
119.1263218545
 11
52.6651025529
 21
118.9922661325
  0
LINE
  8
1_AXIS
 62
7
  6
CENTER
 10
38.1623787954
 20
115.7065279336
 11
105.2082680941
 21
115.7065279336
  0
LINE
  8
0
 62
7
  6
CONTINUOUS
 10
52.7592022223
 20
119.2538964942
 11
52.7003807297
 21
119.1263218545
  0
LINE
  8
0
 62
7
  6
CONTINUOUS
 10
52.7057339528
 20
119.1406211106
 11
52.7825866458
 21
119.2921050691
  0
POLYLINE
  8
0
 62
7
  6
CONTINUOUS
 66
1
 70
0
  0
VERTEX
  8
0
 62
7
  6
CONTINUOUS
 10
43.7863167318
 20
110.7421813462
  0
VERTEX
  8
0
 62
7
  6
CONTINUOUS
 10
43.8074985048
 20
110.7753827769
  0
VERTEX
  8
0
 62
7
  6
CONTINUOUS
 10
43.8302700786
 20
110.8077507801
  0
VERTEX
  8
0
 62
7
  6
CONTINUOUS
 10
43.8545040304
 20
110.8391498489
  0
VERTEX
  8
0
 62
7
  6
CONTINUOUS
 10
43.8801625458
 20
110.8695221449
  0
VERTEX
  8
0
 62
7
  6
CONTINUOUS
 10
43.9072720247
 20
110.8988251656
  0
VERTEX
  8
0
 62
7
  6
CONTINUOUS
 10
43.9359000281
 20
110.9269930183
  0
VERTEX
  8
0
 62
7
  6
CONTINUOUS
 10
43.9661189713
 20
110.9538850358
  0
VERTEX
  8
0
 62
7
  6
CONTINUOUS
 10
43.9980063316
 20
110.9792949373
  0
VERTEX
  8
0
 62
7
  6
CONTINUOUS
 10
44.0317083499
 20
111.0029629587
  0
VERTEX
  8
0
 62
7
  6
CONTINUOUS
 10
44.0672568253
 20
111.0244337367
  0
VERTEX
  8
0
 62
7
  6
CONTINUOUS
 10
44.105065153
 20
111.043320002
  0
VERTEX
  8
0
 62
7
  6
CONTINUOUS
 10
44.1455721382
 20
111.0588645828
  0
VERTEX
  8
0
 62
7
  6
CONTINUOUS
 10
44.1888256389
 20
111.0698035057
  0
VERTEX
  8
0
 62
7
  6
CONTINUOUS
 10
44.2347112606
 20
111.0745386253
  0
VERTEX
  8
0
 62
7
  6
CONTINUOUS
 10
44.2406686757
 20
111.0745940235
  0
SEQEND
  0
LINE
  8
0
 62
7
  6
CONTINUOUS
 10
104.0537731253
 20
119.6565279336
 11
103.9180583833
 21
119.6449403425
  0
LINE
  8
0
 62
7
  6
CONTINUOUS
 10
77.5709844654
 20
119.6565279336
 11
53.4537731253
 21
119.6565279336
  0
LINE
  8
0
 62
7
  6
CONTINUOUS
 10
104.0537731253
 20
119.6565279336
 11
114.7623787954
 21
119.6565279336
  0
LINE
  8
0
 62
7
  6
CONTINUOUS
 10
77.7066992074
 20
119.6449403425
 11
77.5709844654
 21
119.6565279336
  0
LINE
  8
0
 62
7
  6
CONTINUOUS
 10
52.8400708844
 20
119.3699747076
 11
52.7592022223
 21
119.2538964942
  0
LINE
  8
0
 62
7
  6
CONTINUOUS
 10
53.4537731253
 20
119.6565279336
 11
53.3180583833
 21
119.6449403425
  0
LINE
  8
0
 62
7
  6
CONTINUOUS
 10
77.8511768078
 20
119.6058916772
 11
77.7066992074
 21
119.6449403425
  0
LINE
  8
0
 62
7
  6
CONTINUOUS
 10
77.9683383297
 20
119.5509471681
 11
77.8511768078
 21
119.6058916772
  0
LINE
  8
0
 62
7
  6
CONTINUOUS
 10
77.851201532
 20
119.6058694609
 11
78.0065412316
 21
119.5276316426
  0
LINE
  8
0
 62
7
  6
CONTINUOUS
 10
78.0844623995
 20
119.4701410377
 11
77.9683383297
 21
119.5509471681
  0
LINE
  8
0
 62
7
  6
CONTINUOUS
 10
78.0065412316
 20
119.5276316426
 11
78.1384251355
 21
119.4205892635
  0
LINE
  8
0
 62
7
  6
CONTINUOUS
 10
52.7825866458
 20
119.2921050691
 11
52.8896896085
 21
119.4239449306
  0
LINE
  8
0
 62
7
  6
CONTINUOUS
 10
78.1384251355
 20
119.4205892635
 11
78.2447356801
 21
119.2881294959
  0
POLYLINE
  8
0
 62
7
  6
CONTINUOUS
 66
1
 70
0
  0
VERTEX
  8
0
 62
7
  6
CONTINUOUS
 10
78.2655553685
 20
119.2538964942
  0
VERTEX
  8
0
 62
7
  6
CONTINUOUS
 10
78.1846867064
 20
119.3699747076
  0
VERTEX
  8
0
 62
7
  6
CONTINUOUS
 10
78.0844623995
 20
119.4701410377
  0
SEQEND
  0
LINE
  8
0
 62
7
  6
CONTINUOUS
 10
53.3180583833
 20
119.6449403425
 11
53.173511783
 21
119.6058658916
  0
LINE
  8
0
 62
7
  6
CONTINUOUS
 10
78.2447356801
 20
119.2881294959
 11
78.3206748567
 21
119.136237516
  0
LINE
  8
0
 62
7
  6
CONTINUOUS
 10
78.3243768611
 20
119.1263218545
 11
78.2655553685
 21
119.2538964942
  0
LINE
  8
0
 62
7
  6
CONTINUOUS
 10
52.8896896085
 20
119.4239449306
 11
53.0221941375
 21
119.5301955041
  0
LINE
  8
0
 62
7
  6
CONTINUOUS
 10
103.1512458078
 20
149.9071899755
 11
103.2683383297
 21
149.962108699
  0
LINE
  8
0
 62
7
  6
CONTINUOUS
 10
78.3596550378
 20
118.9922661325
 11
78.3243768611
 21
119.1263218545
  0
LINE
  8
0
 62
7
  6
CONTINUOUS
 10
78.3206748567
 20
119.136237516
 11
78.362835148
 21
118.9717812605
  0
LINE
  8
0
 62
7
  6
CONTINUOUS
 10
78.3712586443
 20
118.8565279336
 11
78.3596550378
 21
118.9922661325
  0
LINE
  8
0
 62
7
  6
CONTINUOUS
 10
78.362835148
 20
118.9717812605
 11
78.371176974
 21
118.8565279334
  0
POLYLINE
  8
0
 62
7
  6
CONTINUOUS
 66
1
 70
0
  0
VERTEX
  8
0
 62
7
  6
CONTINUOUS
 10
78.4406797244
 20
110.1501662479
  0
VERTEX
  8
0
 62
7
  6
CONTINUOUS
 10
78.4433800252
 20
110.0991707687
  0
VERTEX
  8
0
 62
7
  6
CONTINUOUS
 10
78.4460905387
 20
110.0524744541
  0
VERTEX
  8
0
 62
7
  6
CONTINUOUS
 10
78.4488192843
 20
110.0098388815
  0
VERTEX
  8
0
 62
7
  6
CONTINUOUS
 10
78.451581231
 20
109.9709722172
  0
VERTEX
  8
0
 62
7
  6
CONTINUOUS
 10
78.4543999067
 20
109.9355394781
  0
VERTEX
  8
0
 62
7
  6
CONTINUOUS
 10
78.4573168428
 20
109.9031052616
  0
VERTEX
  8
0
 62
7
  6
CONTINUOUS
 10
78.4604077749
 20
109.8730725474
  0
VERTEX
  8
0
 62
7
  6
CONTINUOUS
 10
78.4638142738
 20
109.8445921826
  0
VERTEX
  8
0
 62
7
  6
CONTINUOUS
 10
78.4678173536
 20
109.8163691906
  0
VERTEX
  8
0
 62
7
  6
CONTINUOUS
 10
78.4729765793
 20
109.786499473
  0
VERTEX
  8
0
 62
7
  6
CONTINUOUS
 10
78.4804241527
 20
109.7522518189
  0
VERTEX
  8
0
 62
7
  6
CONTINUOUS
 10
78.4927448784
 20
109.7090557286
  0
VERTEX
  8
0
 62
7
  6
CONTINUOUS
 10
78.5149292626
 20
109.6523325406
  0
VERTEX
  8
0
 62
7
  6
CONTINUOUS
 10
78.5537892562
 20
109.582405184
  0
VERTEX
  8
0
 62
7
  6
CONTINUOUS
 10
78.6121680333
 20
109.5097584193
  0
VERTEX
  8
0
 62
7
  6
CONTINUOUS
 10
78.6898880237
 20
109.4441905222
  0
VERTEX
  8
0
 62
7
  6
CONTINUOUS
 10
78.7876186162
 20
109.3921436806
  0
VERTEX
  8
0
 62
7
  6
CONTINUOUS
 10
78.9056687557
 20
109.3611084449
  0
VERTEX
  8
0
 62
7
  6
CONTINUOUS
 10
78.9712864674
 20
109.3565341422
  0
SEQEND
  0
LINE
  8
0
 62
7
  6
CONTINUOUS
 10
78.4352978402
 20
110.2658173109
 11
78.4406797244
 21
110.1501662479
  0
LINE
  8
0
 62
7
  6
CONTINUOUS
 10
78.4299441854
 20
110.400623212
 11
78.4352978402
 21
110.2658173109
  0
LINE
  8
0
 62
7
  6
CONTINUOUS
 10
78.4246394547
 20
110.5552967927
 11
78.4299441854
 21
110.400623212
  0
LINE
  8
0
 62
7
  6
CONTINUOUS
 10
78.4168397447
 20
110.8253629961
 11
78.4246394547
 21
110.5552967927
  0
LINE
  8
0
 62
7
  6
CONTINUOUS
 10
77.9129761067
 20
158.4817021407
 11
77.9053433696
 21
158.7828482572
  0
LINE
  8
0
 62
7
  6
CONTINUOUS
 10
78.4093043003
 20
111.1422839944
 11
78.4168397447
 21
110.8253629961
  0
LINE
  8
0
 62
7
  6
CONTINUOUS
 10
77.9226342984
 20
158.0059235846
 11
77.9129761067
 21
158.4817021407
  0
LINE
  8
0
 62
7
  6
CONTINUOUS
 10
78.3998260279
 20
111.6394770175
 11
78.4093043003
 21
111.1422839944
  0
LINE
  8
0
 62
7
  6
CONTINUOUS
 10
77.9335284571
 20
157.2908649205
 11
77.9226342984
 21
158.0059235846
  0
LINE
  8
0
 62
7
  6
CONTINUOUS
 10
78.3892498218
 20
112.3810257075
 11
78.3998260279
 21
111.6394770175
  0
LINE
  8
0
 62
7
  6
CONTINUOUS
 10
77.9441571718
 20
156.2624404939
 11
77.9335284571
 21
157.2908649205
  0
LINE
  8
0
 62
7
  6
CONTINUOUS
 10
78.3791528088
 20
113.4388753064
 11
78.3892498218
 21
112.3810257075
  0
LINE
  8
0
 62
7
  6
CONTINUOUS
 10
77.9519185522
 20
154.8567786792
 11
77.9441571718
 21
156.2624404939
  0
LINE
  8
0
 62
7
  6
CONTINUOUS
 10
78.3722252866
 20
114.8719814514
 11
78.3791528088
 21
113.4388753064
  0
LINE
  8
0
 62
7
  6
CONTINUOUS
 10
77.9535750756
 20
153.8065279336
 11
77.9519185522
 21
154.8567786792
  0
LINE
  8
0
 62
7
  6
CONTINUOUS
 10
77.9535750989
 20
153.8065279336
 11
77.9535750989
 21
150.6565279336
  0
LINE
  8
0
 62
7
  6
CONTINUOUS
 10
78.3722252866
 20
114.8719814514
 11
78.3711824919
 21
118.8565279336
  0
POLYLINE
  8
0
 62
7
  6
CONTINUOUS
 66
1
 70
0
  0
VERTEX
  8
0
 62
7
  6
CONTINUOUS
 10
53.056419261
 20
119.5509471681
  0
VERTEX
  8
0
 62
7
  6
CONTINUOUS
 10
52.9402951913
 20
119.4701410377
  0
VERTEX
  8
0
 62
7
  6
CONTINUOUS
 10
52.8400708844
 20
119.3699747076
  0
SEQEND
  0
LINE
  8
0
 62
7
  6
CONTINUOUS
 10
103.3025634532
 20
149.9828603631
 11
103.1512705292
 21
149.907212208
  0
LINE
  8
0
 62
7
  6
CONTINUOUS
 10
77.9534989465
 20
150.6565279336
 11
77.9651025529
 21
150.5207897346
  0
LINE
  8
0
 62
7
  6
CONTINUOUS
 10
77.9619224428
 20
150.5412746067
 11
77.9535806168
 21
150.6565279338
  0
POLYLINE
  8
0
 62
7
  6
CONTINUOUS
 66
1
 70
0
  0
VERTEX
  8
0
 62
7
  6
CONTINUOUS
 10
77.8840778663
 20
159.3628896192
  0
VERTEX
  8
0
 62
7
  6
CONTINUOUS
 10
77.8813775656
 20
159.4138850984
  0
VERTEX
  8
0
 62
7
  6
CONTINUOUS
 10
77.878667052
 20
159.460581413
  0
VERTEX
  8
0
 62
7
  6
CONTINUOUS
 10
77.8759383064
 20
159.5032169856
  0
VERTEX
  8
0
 62
7
  6
CONTINUOUS
 10
77.8731763597
 20
159.54208365
  0
VERTEX
  8
0
 62
7
  6
CONTINUOUS
 10
77.870357684
 20
159.577516389
  0
VERTEX
  8
0
 62
7
  6
CONTINUOUS
 10
77.8674407479
 20
159.6099506055
  0
VERTEX
  8
0
 62
7
  6
CONTINUOUS
 10
77.8643498159
 20
159.6399833198
  0
VERTEX
  8
0
 62
7
  6
CONTINUOUS
 10
77.8609433169
 20
159.6684636846
  0
VERTEX
  8
0
 62
7
  6
CONTINUOUS
 10
77.8569402371
 20
159.6966866766
  0
VERTEX
  8
0
 62
7
  6
CONTINUOUS
 10
77.8517810114
 20
159.7265563941
  0
VERTEX
  8
0
 62
7
  6
CONTINUOUS
 10
77.8443334381
 20
159.7608040483
  0
VERTEX
  8
0
 62
7
  6
CONTINUOUS
 10
77.8320127124
 20
159.8040001386
  0
VERTEX
  8
0
 62
7
  6
CONTINUOUS
 10
77.8098283281
 20
159.8607233266
  0
VERTEX
  8
0
 62
7
  6
CONTINUOUS
 10
77.7709683346
 20
159.9306506831
  0
VERTEX
  8
0
 62
7
  6
CONTINUOUS
 10
77.7125895574
 20
160.0032974478
  0
VERTEX
  8
0
 62
7
  6
CONTINUOUS
 10
77.634869567
 20
160.068865345
  0
VERTEX
  8
0
 62
7
  6
CONTINUOUS
 10
77.5371389746
 20
160.1209121866
  0
VERTEX
  8
0
 62
7
  6
CONTINUOUS
 10
77.419088835
 20
160.1519474223
  0
VERTEX
  8
0
 62
7
  6
CONTINUOUS
 10
77.3536423456
 20
160.1565210092
  0
SEQEND
  0
LINE
  8
0
 62
7
  6
CONTINUOUS
 10
77.8894597505
 20
159.2472385562
 11
77.8840778663
 21
159.3628896192
  0
LINE
  8
0
 62
7
  6
CONTINUOUS
 10
77.8948134054
 20
159.1124326552
 11
77.8894597505
 21
159.2472385562
  0
LINE
  8
0
 62
7
  6
CONTINUOUS
 10
77.9001181361
 20
158.9577590745
 11
77.8948134054
 21
159.1124326552
  0
LINE
  8
0
 62
7
  6
CONTINUOUS
 10
77.9053433696
 20
158.7828482572
 11
77.9001181361
 21
158.9577590745
  0
POLYLINE
  8
0
 62
7
  6
CONTINUOUS
 66
1
 70
0
  0
VERTEX
  8
0
 62
7
  6
CONTINUOUS
 10
103.2683383297
 20
149.962108699
  0
VERTEX
  8
0
 62
7
  6
CONTINUOUS
 10
103.3844623995
 20
150.0429148295
  0
VERTEX
  8
0
 62
7
  6
CONTINUOUS
 10
103.4846867064
 20
150.1430811596
  0
SEQEND
  0
LINE
  8
0
 62
7
  6
CONTINUOUS
 10
53.0221941375
 20
119.5301955041
 11
53.1734870615
 21
119.6058436591
  0
LINE
  8
0
 62
7
  6
CONTINUOUS
 10
53.173511783
 20
119.6058658916
 11
53.056419261
 21
119.5509471681
  0
LINE
  8
0
 62
7
  6
CONTINUOUS
 10
103.4350679823
 20
150.0891109365
 11
103.3025634532
 21
149.9828603631
  0
LINE
  8
0
 62
7
  6
CONTINUOUS
 10
78.0003807297
 20
150.3867340127
 11
78.0592022223
 21
150.2591593729
  0
LINE
  8
0
 62
7
  6
CONTINUOUS
 10
77.9651025529
 20
150.5207897346
 11
78.0003807297
 21
150.3867340127
  0
LINE
  8
0
 62
7
  6
CONTINUOUS
 10
78.004082734
 20
150.3768183512
 11
77.9619224428
 21
150.5412746067
  0
LINE
  8
0
 62
7
  6
CONTINUOUS
 10
103.0066992074
 20
149.8681155247
 11
103.1512458078
 21
149.9071899755
  0
POLYLINE
  8
0
 62
7
  6
CONTINUOUS
 66
1
 70
0
  0
VERTEX
  8
0
 62
7
  6
CONTINUOUS
 10
78.0592022223
 20
150.2591593729
  0
VERTEX
  8
0
 62
7
  6
CONTINUOUS
 10
78.1400708844
 20
150.1430811596
  0
VERTEX
  8
0
 62
7
  6
CONTINUOUS
 10
78.2402951913
 20
150.0429148295
  0
SEQEND
  0
LINE
  8
0
 62
7
  6
CONTINUOUS
 10
78.0800219106
 20
150.2249263712
 11
78.004082734
 21
150.3768183512
  0
LINE
  8
0
 62
7
  6
CONTINUOUS
 10
103.4846867064
 20
150.1430811596
 11
103.5655553685
 21
150.2591593729
  0
LINE
  8
0
 62
7
  6
CONTINUOUS
 10
103.5421709449
 20
150.2209507981
 11
103.4350679823
 21
150.0891109365
  0
LINE
  8
0
 62
7
  6
CONTINUOUS
 10
78.2402951913
 20
150.0429148295
 11
78.356419261
 21
149.962108699
  0
LINE
  8
0
 62
7
  6
CONTINUOUS
 10
78.3182163591
 20
149.9854242246
 11
78.1863324553
 21
150.0924666036
  0
LINE
  8
0
 62
7
  6
CONTINUOUS
 10
78.1863324553
 20
150.0924666036
 11
78.0800219106
 21
150.2249263712
  0
LINE
  8
0
 62
7
  6
CONTINUOUS
 10
103.619023638
 20
150.3724347566
 11
103.5421709449
 21
150.2209507981
  0
LINE
  8
0
 62
7
  6
CONTINUOUS
 10
102.8709844654
 20
149.8565279336
 11
103.0066992074
 21
149.8681155247
  0
LINE
  8
0
 62
7
  6
CONTINUOUS
 10
41.5623787954
 20
149.8565279336
 11
52.2709844654
 21
149.8565279336
  0
LINE
  8
0
 62
7
  6
CONTINUOUS
 10
78.7537731253
 20
149.8565279336
 11
102.8709844654
 21
149.8565279336
  0
LINE
  8
0
 62
7
  6
CONTINUOUS
 10
78.6180583833
 20
149.8681155247
 11
78.7537731253
 21
149.8565279336
  0
LINE
  8
0
 62
7
  6
CONTINUOUS
 10
78.473580783
 20
149.90716419
 11
78.6180583833
 21
149.8681155247
  0
LINE
  8
0
 62
7
  6
CONTINUOUS
 10
78.356419261
 20
149.962108699
 11
78.473580783
 21
149.90716419
  0
LINE
  8
0
 62
7
  6
CONTINUOUS
 10
78.4735560587
 20
149.9071864062
 11
78.3182163591
 21
149.9854242246
  0
LINE
  8
0
 62
7
  6
CONTINUOUS
 10
103.5655553685
 20
150.2591593729
 11
103.6243768611
 21
150.3867340127
  0
POLYLINE
  8
0
 62
7
  6
CONTINUOUS
 66
1
 70
0
  0
VERTEX
  8
0
 62
7
  6
CONTINUOUS
 10
112.538440859
 20
158.770874521
  0
VERTEX
  8
0
 62
7
  6
CONTINUOUS
 10
112.517259086
 20
158.7376730903
  0
VERTEX
  8
0
 62
7
  6
CONTINUOUS
 10
112.4944875121
 20
158.7053050871
  0
VERTEX
  8
0
 62
7
  6
CONTINUOUS
 10
112.4702535603
 20
158.6739060182
  0
VERTEX
  8
0
 62
7
  6
CONTINUOUS
 10
112.444595045
 20
158.6435337223
  0
VERTEX
  8
0
 62
7
  6
CONTINUOUS
 10
112.417485566
 20
158.6142307015
  0
VERTEX
  8
0
 62
7
  6
CONTINUOUS
 10
112.3888575627
 20
158.5860628489
  0
VERTEX
  8
0
 62
7
  6
CONTINUOUS
 10
112.3586386194
 20
158.5591708314
  0
VERTEX
  8
0
 62
7
  6
CONTINUOUS
 10
112.3267512591
 20
158.5337609299
  0
VERTEX
  8
0
 62
7
  6
CONTINUOUS
 10
112.2930492408
 20
158.5100929084
  0
VERTEX
  8
0
 62
7
  6
CONTINUOUS
 10
112.2575007654
 20
158.4886221305
  0
VERTEX
  8
0
 62
7
  6
CONTINUOUS
 10
112.2196924377
 20
158.4697358652
  0
VERTEX
  8
0
 62
7
  6
CONTINUOUS
 10
112.1791854526
 20
158.4541912843
  0
VERTEX
  8
0
 62
7
  6
CONTINUOUS
 10
112.1359319518
 20
158.4432523615
  0
VERTEX
  8
0
 62
7
  6
CONTINUOUS
 10
112.0900463302
 20
158.4385172419
  0
VERTEX
  8
0
 62
7
  6
CONTINUOUS
 10
112.084088915
 20
158.4384618437
  0
SEQEND
  0
LINE
  8
0
 62
7
  6
CONTINUOUS
 10
52.2709844654
 20
149.8565279336
 11
52.4066992074
 21
149.8681155247
  0
LINE
  8
0
 62
7
  6
CONTINUOUS
 10
103.6621579321
 20
150.5367169572
 11
103.619023638
 21
150.3724347566
  0
LINE
  8
0
 62
7
  6
CONTINUOUS
 10
103.6243768611
 20
150.3867340127
 11
103.6596550378
 21
150.5207897346
  0
LINE
  8
0
 62
7
  6
CONTINUOUS
 10
52.4066992074
 20
149.8681155247
 11
52.5512458078
 21
149.9071899755
  0
LINE
  8
1_AXIS
 62
7
  6
CENTER
 10
51.1164894966
 20
153.8065279336
 11
118.1623787954
 21
153.8065279336
  0
LINE
  8
0
 62
7
  6
CONTINUOUS
 10
103.7295123988
 20
159.1006527689
 11
103.7243136662
 21
158.9475314721
  0
LINE
  8
0
 62
7
  6
CONTINUOUS
 10
103.7347093798
 20
159.2334132451
 11
103.7295123988
 21
159.1006527689
  0
LINE
  8
0
 62
7
  6
CONTINUOUS
 10
103.6711769683
 20
150.6565279338
 11
103.6621579321
 21
150.5367169572
  0
LINE
  8
0
 62
7
  6
CONTINUOUS
 10
103.6596550378
 20
150.5207897346
 11
103.6712586443
 21
150.6565279336
  0
LINE
  8
0
 62
7
  6
CONTINUOUS
 10
112.6897480693
 20
159.1499696807
 11
112.6362229561
 21
158.9974022749
  0
LINE
  8
0
 62
7
  6
CONTINUOUS
 10
112.6362229561
 20
158.9974022749
 11
112.6251220765
 21
158.9663475207
  0
LINE
  8
0
 62
7
  6
CONTINUOUS
 10
112.6251220765
 20
158.9663475207
 11
112.6135780887
 21
158.9345843316
  0
POLYLINE
  8
0
 62
7
  6
CONTINUOUS
 66
1
 70
0
  0
VERTEX
  8
0
 62
7
  6
CONTINUOUS
 10
112.6135780887
 20
158.9345843316
  0
VERTEX
  8
0
 62
7
  6
CONTINUOUS
 10
112.6015305919
 20
158.9021347389
  0
VERTEX
  8
0
 62
7
  6
CONTINUOUS
 10
112.5952067243
 20
158.885427081
  0
SEQEND
  0
POLYLINE
  8
0
 62
7
  6
CONTINUOUS
 66
1
 70
0
  0
VERTEX
  8
0
 62
7
  6
CONTINUOUS
 10
112.5951979154
 20
158.885404986
  0
VERTEX
  8
0
 62
7
  6
CONTINUOUS
 10
112.590854076
 20
158.8743504769
  0
VERTEX
  8
0
 62
7
  6
CONTINUOUS
 10
112.5754991872
 20
158.8394513299
  0
VERTEX
  8
0
 62
7
  6
CONTINUOUS
 10
112.557926202
 20
158.8048567625
  0
VERTEX
  8
0
 62
7
  6
CONTINUOUS
 10
112.538440859
 20
158.770874521
  0
SEQEND
  0
LINE
  8
0
 62
7
  6
CONTINUOUS
 10
103.773511783
 20
119.6058658916
 11
103.656419261
 21
119.5509471681
  0
POLYLINE
  8
0
 62
7
  6
CONTINUOUS
 66
1
 70
0
  0
VERTEX
  8
0
 62
7
  6
CONTINUOUS
 10
104.2713080571
 20
160.1565218064
  0
VERTEX
  8
0
 62
7
  6
CONTINUOUS
 10
104.2071509814
 20
160.1521467739
  0
VERTEX
  8
0
 62
7
  6
CONTINUOUS
 10
104.0893972059
 20
160.1216164765
  0
VERTEX
  8
0
 62
7
  6
CONTINUOUS
 10
103.9912239663
 20
160.0697755478
  0
VERTEX
  8
0
 62
7
  6
CONTINUOUS
 10
103.912852937
 20
160.0040037497
  0
VERTEX
  8
0
 62
7
  6
CONTINUOUS
 10
103.8539816531
 20
159.9309408603
  0
VERTEX
  8
0
 62
7
  6
CONTINUOUS
 10
103.8151012103
 20
159.8610978619
  0
VERTEX
  8
0
 62
7
  6
CONTINUOUS
 10
103.7929349835
 20
159.8045789629
  0
VERTEX
  8
0
 62
7
  6
CONTINUOUS
 10
103.7807723512
 20
159.7622171532
  0
VERTEX
  8
0
 62
7
  6
CONTINUOUS
 10
103.7734660029
 20
159.7290858773
  0
VERTEX
  8
0
 62
7
  6
CONTINUOUS
 10
103.768390636
 20
159.7003311298
  0
VERTEX
  8
0
 62
7
  6
CONTINUOUS
 10
103.7644242882
 20
159.6731041513
  0
VERTEX
  8
0
 62
7
  6
CONTINUOUS
 10
103.7610626943
 20
159.6458154911
  0
VERTEX
  8
0
 62
7
  6
CONTINUOUS
 10
103.7580650247
 20
159.6176138863
  0
VERTEX
  8
0
 62
7
  6
CONTINUOUS
 10
103.7552898398
 20
159.5878545815
  0
VERTEX
  8
0
 62
7
  6
CONTINUOUS
 10
103.752633867
 20
159.5558036301
  0
VERTEX
  8
0
 62
7
  6
CONTINUOUS
 10
103.7500450644
 20
159.5209871752
  0
VERTEX
  8
0
 62
7
  6
CONTINUOUS
 10
103.7474911189
 20
159.483002325
  0
VERTEX
  8
0
 62
7
  6
CONTINUOUS
 10
103.7449511479
 20
159.4414896216
  0
VERTEX
  8
0
 62
7
  6
CONTINUOUS
 10
103.7424107753
 20
159.3961033965
  0
VERTEX
  8
0
 62
7
  6
CONTINUOUS
 10
103.7398601671
 20
159.3465028114
  0
VERTEX
  8
0
 62
7
  6
CONTINUOUS
 10
103.7347093798
 20
159.2334132451
  0
SEQEND
  0
LINE
  8
0
 62
7
  6
CONTINUOUS
 10
107.2406747955
 20
158.4384557527
 11
112.0840888316
 21
158.4384557527
  0
POLYLINE
  8
0
 62
7
  6
CONTINUOUS
 66
1
 70
0
  0
VERTEX
  8
0
 62
7
  6
CONTINUOUS
 10
107.2406748203
 20
158.4384624978
  0
VERTEX
  8
0
 62
7
  6
CONTINUOUS
 10
107.2313640569
 20
158.4386062273
  0
VERTEX
  8
0
 62
7
  6
CONTINUOUS
 10
107.1856120491
 20
158.4438530116
  0
VERTEX
  8
0
 62
7
  6
CONTINUOUS
 10
107.1425936092
 20
158.455168174
  0
VERTEX
  8
0
 62
7
  6
CONTINUOUS
 10
107.1022912369
 20
158.4709786771
  0
VERTEX
  8
0
 62
7
  6
CONTINUOUS
 10
107.0646497546
 20
158.4900792336
  0
VERTEX
  8
0
 62
7
  6
CONTINUOUS
 10
107.0292627277
 20
158.5117011687
  0
VERTEX
  8
0
 62
7
  6
CONTINUOUS
 10
106.9957017071
 20
158.5355019338
  0
VERTEX
  8
0
 62
7
  6
CONTINUOUS
 10
106.9639741625
 20
158.5609868475
  0
VERTEX
  8
0
 62
7
  6
CONTINUOUS
 10
106.9338870911
 20
158.5879577057
  0
VERTEX
  8
0
 62
7
  6
CONTINUOUS
 10
106.9054112069
 20
158.6161566696
  0
VERTEX
  8
0
 62
7
  6
CONTINUOUS
 10
106.8784301732
 20
158.6455004454
  0
VERTEX
  8
0
 62
7
  6
CONTINUOUS
 10
106.8528937485
 20
158.6759055672
  0
VERTEX
  8
0
 62
7
  6
CONTINUOUS
 10
106.8287772031
 20
158.7073353261
  0
VERTEX
  8
0
 62
7
  6
CONTINUOUS
 10
106.8061163344
 20
158.7397407773
  0
SEQEND
  0
LINE
  8
0
 62
7
  6
CONTINUOUS
 10
103.2503569986
 20
114.2483267812
 11
103.2535750989
 21
118.8565279336
  0
LINE
  8
0
 62
7
  6
CONTINUOUS
 10
103.6744005921
 20
155.2647290859
 11
103.6711824919
 21
150.6565279336
  0
LINE
  8
0
 62
7
  6
CONTINUOUS
 10
103.2410763188
 20
112.8996686398
 11
103.2503569986
 21
114.2483267812
  0
LINE
  8
0
 62
7
  6
CONTINUOUS
 10
103.6836812719
 20
156.6133872273
 11
103.6744005921
 21
155.2647290859
  0
LINE
  8
0
 62
7
  6
CONTINUOUS
 10
103.6952771548
 20
157.5844607215
 11
103.6836812719
 21
156.6133872273
  0
LINE
  8
0
 62
7
  6
CONTINUOUS
 10
103.2294804359
 20
111.9285951457
 11
103.2410763188
 21
112.8996686398
  0
LINE
  8
0
 62
7
  6
CONTINUOUS
 10
103.704329628
 20
158.1254544575
 11
103.6952771548
 21
157.5844607215
  0
LINE
  8
0
 62
7
  6
CONTINUOUS
 10
103.2204279628
 20
111.3876014097
 11
103.2294804359
 21
111.9285951457
  0
LINE
  8
0
 62
7
  6
CONTINUOUS
 10
103.7140958398
 20
158.5792222949
 11
103.704329628
 21
158.1254544575
  0
LINE
  8
0
 62
7
  6
CONTINUOUS
 10
103.2106617509
 20
110.9338335723
 11
103.2204279628
 21
111.3876014097
  0
LINE
  8
0
 62
7
  6
CONTINUOUS
 10
103.2030280463
 20
110.649793267
 11
103.2106617509
 21
110.9338335723
  0
POLYLINE
  8
0
 62
7
  6
CONTINUOUS
 66
1
 70
0
  0
VERTEX
  8
0
 62
7
  6
CONTINUOUS
 10
103.7243136662
 20
158.9475314721
  0
VERTEX
  8
0
 62
7
  6
CONTINUOUS
 10
103.7217295445
 20
158.8632626002
  0
VERTEX
  8
0
 62
7
  6
CONTINUOUS
 10
103.7140958398
 20
158.5792222949
  0
SEQEND
  0
LINE
  8
0
 62
7
  6
CONTINUOUS
 10
103.1978474418
 20
110.4863961006
 11
103.2030280463
 21
110.649793267
  0
LINE
  8
0
 62
7
  6
CONTINUOUS
 10
103.1926434926
 20
110.3435084268
 11
103.1978474418
 21
110.4863961006
  0
LINE
  8
0
 62
7
  6
CONTINUOUS
 10
103.1874646432
 20
110.2207040115
 11
103.1926434926
 21
110.3435084268
  0
LINE
  8
0
 62
7
  6
CONTINUOUS
 10
103.2535806224
 20
118.8565279334
 11
103.2625996587
 21
118.97633891
  0
LINE
  8
0
 62
7
  6
CONTINUOUS
 10
103.2651025529
 20
118.9922661325
 11
103.2534989465
 21
118.8565279336
  0
LINE
  8
0
 62
7
  6
CONTINUOUS
 10
103.4896896085
 20
119.4239449306
 11
103.6221941375
 21
119.5301955041
  0
POLYLINE
  8
0
 62
7
  6
CONTINUOUS
 66
1
 70
0
  0
VERTEX
  8
0
 62
7
  6
CONTINUOUS
 10
103.656419261
 20
119.5509471681
  0
VERTEX
  8
0
 62
7
  6
CONTINUOUS
 10
103.5402951913
 20
119.4701410377
  0
VERTEX
  8
0
 62
7
  6
CONTINUOUS
 10
103.4400708844
 20
119.3699747076
  0
SEQEND
  0
LINE
  8
0
 62
7
  6
CONTINUOUS
 10
103.6221941375
 20
119.5301955041
 11
103.7734870615
 21
119.6058436591
  0
POLYLINE
  8
0
 62
7
  6
CONTINUOUS
 66
1
 70
0
  0
VERTEX
  8
0
 62
7
  6
CONTINUOUS
 10
53.6713080573
 20
160.1565218064
  0
VERTEX
  8
0
 62
7
  6
CONTINUOUS
 10
53.6071509814
 20
160.1521467739
  0
VERTEX
  8
0
 62
7
  6
CONTINUOUS
 10
53.4893972059
 20
160.1216164765
  0
VERTEX
  8
0
 62
7
  6
CONTINUOUS
 10
53.3912239663
 20
160.0697755478
  0
VERTEX
  8
0
 62
7
  6
CONTINUOUS
 10
53.312852937
 20
160.0040037497
  0
VERTEX
  8
0
 62
7
  6
CONTINUOUS
 10
53.2539816531
 20
159.9309408603
  0
VERTEX
  8
0
 62
7
  6
CONTINUOUS
 10
53.2151012103
 20
159.8610978619
  0
VERTEX
  8
0
 62
7
  6
CONTINUOUS
 10
53.1929349835
 20
159.8045789629
  0
VERTEX
  8
0
 62
7
  6
CONTINUOUS
 10
53.1807723512
 20
159.7622171532
  0
VERTEX
  8
0
 62
7
  6
CONTINUOUS
 10
53.1734660029
 20
159.7290858773
  0
VERTEX
  8
0
 62
7
  6
CONTINUOUS
 10
53.168390636
 20
159.7003311298
  0
VERTEX
  8
0
 62
7
  6
CONTINUOUS
 10
53.1644242882
 20
159.6731041513
  0
VERTEX
  8
0
 62
7
  6
CONTINUOUS
 10
53.1610626943
 20
159.6458154911
  0
VERTEX
  8
0
 62
7
  6
CONTINUOUS
 10
53.1580650247
 20
159.6176138864
  0
VERTEX
  8
0
 62
7
  6
CONTINUOUS
 10
53.1552898398
 20
159.5878545815
  0
VERTEX
  8
0
 62
7
  6
CONTINUOUS
 10
53.152633867
 20
159.5558036301
  0
VERTEX
  8
0
 62
7
  6
CONTINUOUS
 10
53.1500450644
 20
159.5209871752
  0
VERTEX
  8
0
 62
7
  6
CONTINUOUS
 10
53.1474911189
 20
159.483002325
  0
VERTEX
  8
0
 62
7
  6
CONTINUOUS
 10
53.1449511479
 20
159.4414896216
  0
VERTEX
  8
0
 62
7
  6
CONTINUOUS
 10
53.1424107753
 20
159.3961033965
  0
VERTEX
  8
0
 62
7
  6
CONTINUOUS
 10
53.1372929476
 20
159.2923518556
  0
SEQEND
  0
LINE
  8
4_SURFACE
 62
7
  6
CONTINUOUS
 10
115.6623787993
 20
160.1565279336
 11
113.1452231828
 21
160.1565279336
  0
LINE
  8
4_SURFACE
 62
7
  6
CONTINUOUS
 10
106.179534408
 20
160.1565279336
 11
104.2732946217
 21
160.1565279336
  0
LINE
  8
0
 62
7
  6
CONTINUOUS
 10
77.3514417223
 20
160.1565279336
 11
53.6713080547
 21
160.1565224681
  0
LINE
  8
0
 62
7
  6
CONTINUOUS
 10
104.271308067
 20
160.1565193931
 11
106.179534408
 21
160.1565279336
  0
LINE
  8
0
 62
7
  6
CONTINUOUS
 10
113.1452231828
 20
160.1565279336
 11
115.6623787993
 21
160.1565279336
  0
LINE
  8
1_AXIS
 62
7
  6
CONTINUOUS
 10
77.3536423325
 20
160.1565188937
 11
77.3514417223
 21
160.1565279336
  0
LINE
  8
0
 62
7
  6
CONTINUOUS
 10
106.6792298215
 20
159.6739776819
 11
106.704400416
 21
158.9531861624
  0
LINE
  8
0
 62
7
  6
CONTINUOUS
 10
103.2625996587
 20
118.97633891
 11
103.3057339528
 21
119.1406211106
  0
LINE
  8
0
 62
7
  6
CONTINUOUS
 10
103.3003807297
 20
119.1263218545
 11
103.2651025529
 21
118.9922661325
  0
LINE
  8
0
 62
7
  6
CONTINUOUS
 10
103.3592022223
 20
119.2538964942
 11
103.3003807297
 21
119.1263218545
  0
LINE
  8
0
 62
7
  6
CONTINUOUS
 10
103.3057339528
 20
119.1406211106
 11
103.3825866458
 21
119.2921050691
  0
LINE
  8
0
 62
7
  6
CONTINUOUS
 10
103.4400708844
 20
119.3699747076
 11
103.3592022223
 21
119.2538964942
  0
LINE
  8
0
 62
7
  6
CONTINUOUS
 10
103.3825866458
 20
119.2921050691
 11
103.4896896085
 21
119.4239449306
  0
LINE
  8
0
 62
7
  6
CONTINUOUS
 10
112.6455277693
 20
159.6739776819
 11
112.6203567244
 21
158.9531732665
  0
LINE
  8
0
 62
7
  6
CONTINUOUS
 10
106.7295508072
 20
158.8854272868
 11
106.7205045988
 21
158.9093987468
  0
LINE
  8
0
 62
7
  6
CONTINUOUS
 10
106.7205045988
 20
158.9093987468
 11
106.7075544323
 21
158.944493401
  0
LINE
  8
0
 62
7
  6
CONTINUOUS
 10
106.7075544323
 20
158.944493401
 11
106.6952255599
 21
158.978630636
  0
LINE
  8
0
 62
7
  6
CONTINUOUS
 10
106.6952255599
 20
158.978630636
 11
106.6776932441
 21
159.028099791
  0
LINE
  8
0
 62
7
  6
CONTINUOUS
 10
106.6776932441
 20
159.028099791
 11
106.6350068974
 21
159.1499769459
  0
LINE
  8
0
 62
7
  6
CONTINUOUS
 10
116.1623787954
 20
121.0565279336
 11
116.1623787954
 21
159.6565279376
  0
POLYLINE
  8
0
 62
7
  6
CONTINUOUS
 66
1
 70
0
  0
VERTEX
  8
0
 62
7
  6
CONTINUOUS
 10
106.8061163344
 20
158.7397407773
  0
VERTEX
  8
0
 62
7
  6
CONTINUOUS
 10
106.7850407631
 20
158.7729856709
  0
VERTEX
  8
0
 62
7
  6
CONTINUOUS
 10
106.7656828454
 20
158.8069873817
  0
VERTEX
  8
0
 62
7
  6
CONTINUOUS
 10
106.7482370694
 20
158.8416110301
  0
VERTEX
  8
0
 62
7
  6
CONTINUOUS
 10
106.7330478684
 20
158.8764755867
  0
VERTEX
  8
0
 62
7
  6
CONTINUOUS
 10
106.7295595211
 20
158.8854046375
  0
SEQEND
  0
LINE
  8
1_AXIS
 62
2
  6
CONTINUOUS
 10
162.4053623615
 20
115.7065279336
 11
160.6453623615
 21
115.7065279336
  0
LINE
  8
1_AXIS
 62
7
  6
CENTER
 10
157.1253623615
 20
115.7065279336
 11
156.2753623615
 21
115.7065279336
  0
LINE
  8
1_AXIS
 62
7
  6
CENTER
 10
165.9253623615
 20
115.7065279336
 11
166.7753623615
 21
115.7065279336
  0
LINE
  8
0
 62
7
  6
CONTINUOUS
 10
163.8737941153
 20
147.2159562086
 11
156.4903381248
 21
144.524219057
  0
LINE
  8
0
 62
7
  6
CONTINUOUS
 10
155.1753623615
 20
155.0448722713
 11
155.1753623615
 21
114.4681835959
  0
LINE
  8
0
 62
7
  6
CONTINUOUS
 10
167.2165665093
 20
149.8344047802
 11
167.2132022282
 21
149.8294002458
  0
LINE
  8
1_AXIS
 62
2
  6
CONTINUOUS
 10
161.5253623615
 20
154.6865279336
 11
161.5253623615
 21
152.9265279336
  0
LINE
  8
1_AXIS
 62
7
  6
CENTER
 10
161.5253623615
 20
149.4065279336
 11
161.5253623615
 21
148.5565279336
  0
LINE
  8
1_AXIS
 62
2
  6
CONTINUOUS
 10
161.5253623615
 20
116.5865279336
 11
161.5253623615
 21
114.8265279336
  0
LINE
  8
1_AXIS
 62
7
  6
CENTER
 10
161.5253623615
 20
111.3065279336
 11
161.5253623615
 21
110.4565279336
  0
LINE
  8
1_AXIS
 62
7
  6
CENTER
 10
161.5253623615
 20
120.1065279336
 11
161.5253623615
 21
120.9565279336
  0
LINE
  8
1_AXIS
 62
7
  6
CENTER
 10
161.5253623615
 20
158.2065279336
 11
161.5253623615
 21
159.0565279336
  0
LINE
  8
0
 62
7
  6
CONTINUOUS
 10
167.8753623615
 20
115.7065279336
 11
167.8753623615
 21
153.8065279335
  0
LINE
  8
0
 62
7
  6
CONTINUOUS
 10
163.8737941849
 20
147.2165279336
 11
155.6753623615
 21
147.2165279336
  0
LINE
  8
0
 62
7
  6
CONTINUOUS
 10
167.2641533541
 20
149.8565279336
 11
167.3753623615
 21
149.8565279336
  0
LINE
  8
1_AXIS
 62
2
  6
CONTINUOUS
 10
162.4053623615
 20
153.8065279336
 11
160.6453623615
 21
153.8065279336
  0
LINE
  8
1_AXIS
 62
7
  6
CENTER
 10
157.1253623615
 20
153.8065279336
 11
156.2753623615
 21
153.8065279336
  0
LINE
  8
1_AXIS
 62
7
  6
CENTER
 10
165.9253623615
 20
153.8065279336
 11
166.7753623615
 21
153.8065279336
  0
LINE
  8
0
 62
7
  6
CONTINUOUS
 10
40.1623787954
 20
192.8577610669
 11
40.1623787954
 21
204.3134434277
  0
LINE
  8
0
 62
7
  6
CONTINUOUS
 10
40.163940319
 20
193.4819109031
 11
40.1623787676
 21
193.4274702759
  0
LINE
  8
0
 62
7
  6
CONTINUOUS
 10
43.4492746868
 20
204.322169631
 11
43.5839833196
 21
196.6047172245
  0
POLYLINE
  8
0
 62
7
  6
CONTINUOUS
 66
1
 70
0
  0
VERTEX
  8
0
 62
7
  6
CONTINUOUS
 10
40.1663605735
 20
193.4817304654
  0
VERTEX
  8
0
 62
7
  6
CONTINUOUS
 10
40.1829413218
 20
193.5463338291
  0
VERTEX
  8
0
 62
7
  6
CONTINUOUS
 10
40.226205524
 20
193.6303489439
  0
VERTEX
  8
0
 62
7
  6
CONTINUOUS
 10
40.2925984456
 20
193.7061818582
  0
VERTEX
  8
0
 62
7
  6
CONTINUOUS
 10
40.3799196035
 20
193.769788087
  0
VERTEX
  8
0
 62
7
  6
CONTINUOUS
 10
40.484351333
 20
193.8177180716
  0
VERTEX
  8
0
 62
7
  6
CONTINUOUS
 10
40.6000495927
 20
193.847337247
  0
SEQEND
  0
LINE
  8
0
 62
7
  6
CONTINUOUS
 10
50.2407742711
 20
196.6047172245
 11
50.3754829039
 21
204.322169631
  0
LINE
  8
0
 62
7
  6
CONTINUOUS
 10
53.0712586443
 20
192.622169631
 11
53.2754829039
 21
204.322169631
  0
LINE
  8
0
 62
7
  6
CONTINUOUS
 10
53.1211117854
 20
195.7941357082
 11
53.1241014075
 21
195.8660022506
  0
POLYLINE
  8
0
 62
7
  6
CONTINUOUS
 66
1
 70
0
  0
VERTEX
  8
0
 62
7
  6
CONTINUOUS
 10
53.1211102602
 20
195.794221671
  0
VERTEX
  8
0
 62
7
  6
CONTINUOUS
 10
53.1171831695
 20
195.7308853551
  0
VERTEX
  8
0
 62
7
  6
CONTINUOUS
 10
53.1097215537
 20
195.6630781567
  0
VERTEX
  8
0
 62
7
  6
CONTINUOUS
 10
53.1052183081
 20
195.6347008001
  0
SEQEND
  0
POLYLINE
  8
0
 62
7
  6
CONTINUOUS
 66
1
 70
0
  0
VERTEX
  8
0
 62
7
  6
CONTINUOUS
 10
53.1052183081
 20
195.6347008001
  0
VERTEX
  8
0
 62
7
  6
CONTINUOUS
 10
53.0965017892
 20
195.5923186185
  0
VERTEX
  8
0
 62
7
  6
CONTINUOUS
 10
53.0746584144
 20
195.520714487
  0
VERTEX
  8
0
 62
7
  6
CONTINUOUS
 10
53.0411605786
 20
195.450641327
  0
VERTEX
  8
0
 62
7
  6
CONTINUOUS
 10
52.9927880869
 20
195.3834047961
  0
SEQEND
  0
LINE
  8
0
 62
7
  6
CONTINUOUS
 10
115.8247475591
 20
192.4459171805
 11
114.2031593764
 21
192.1215995439
  0
LINE
  8
0
 62
7
  6
CONTINUOUS
 10
42.1215955163
 20
192.1216000836
 11
40.5000100186
 21
192.4459171831
  0
LINE
  8
0
 62
7
  6
CONTINUOUS
 10
42.121594137
 20
192.1216003594
 11
42.1847599694
 21
192.1139286746
  0
LINE
  8
0
 62
7
  6
CONTINUOUS
 10
42.2039669911
 20
192.1134434277
 11
42.2035796528
 21
192.1134641777
  0
LINE
  8
4_SURFACE
 62
7
  6
CONTINUOUS
 10
114.1207905997
 20
192.1134434277
 11
104.1711824919
 21
192.1134434277
  0
LINE
  8
0
 62
7
  6
CONTINUOUS
 10
42.2039669911
 20
192.1134434277
 11
114.1207905997
 21
192.1134434277
  0
LINE
  8
0
 62
7
  6
CONTINUOUS
 10
42.1847599694
 20
192.1139286746
 11
42.2034316529
 21
192.1135192339
  0
LINE
  8
0
 62
7
  6
CONTINUOUS
 10
107.2406747988
 20
194.5400678383
 11
112.0840853377
 21
194.5400678383
  0
LINE
  8
0
 62
7
  6
CONTINUOUS
 10
44.0830966261
 20
196.1134434277
 11
49.7478516736
 21
196.1134434277
  0
LINE
  8
0
 62
7
  6
CONTINUOUS
 10
81.2269059172
 20
196.1134434277
 11
100.2478516736
 21
196.1134434277
  0
POLYLINE
  8
0
 62
7
  6
CONTINUOUS
 66
1
 70
0
  0
VERTEX
  8
0
 62
7
  6
CONTINUOUS
 10
107.2406747989
 20
194.5400828392
  0
VERTEX
  8
0
 62
7
  6
CONTINUOUS
 10
107.2242229627
 20
194.5406018624
  0
VERTEX
  8
0
 62
7
  6
CONTINUOUS
 10
107.1722496375
 20
194.5488372008
  0
VERTEX
  8
0
 62
7
  6
CONTINUOUS
 10
107.1242832861
 20
194.5650077124
  0
VERTEX
  8
0
 62
7
  6
CONTINUOUS
 10
107.0801500892
 20
194.5869474336
  0
VERTEX
  8
0
 62
7
  6
CONTINUOUS
 10
107.039001066
 20
194.6135439269
  0
VERTEX
  8
0
 62
7
  6
CONTINUOUS
 10
107.0000432791
 20
194.6444112463
  0
VERTEX
  8
0
 62
7
  6
CONTINUOUS
 10
106.9631065867
 20
194.6791748665
  0
VERTEX
  8
0
 62
7
  6
CONTINUOUS
 10
106.9282419992
 20
194.7174503488
  0
VERTEX
  8
0
 62
7
  6
CONTINUOUS
 10
106.8954332254
 20
194.7590012834
  0
VERTEX
  8
0
 62
7
  6
CONTINUOUS
 10
106.8646241216
 20
194.8038010909
  0
VERTEX
  8
0
 62
7
  6
CONTINUOUS
 10
106.8358121993
 20
194.8518885754
  0
VERTEX
  8
0
 62
7
  6
CONTINUOUS
 10
106.8091169203
 20
194.9032520761
  0
VERTEX
  8
0
 62
7
  6
CONTINUOUS
 10
106.7847810632
 20
194.9577089631
  0
VERTEX
  8
0
 62
7
  6
CONTINUOUS
 10
106.7629981272
 20
195.0152364465
  0
VERTEX
  8
0
 62
7
  6
CONTINUOUS
 10
106.7440234471
 20
195.0757553792
  0
VERTEX
  8
0
 62
7
  6
CONTINUOUS
 10
106.7392716648
 20
195.0931598124
  0
SEQEND
  0
POLYLINE
  8
0
 62
7
  6
CONTINUOUS
 66
1
 70
0
  0
VERTEX
  8
0
 62
7
  6
CONTINUOUS
 10
77.7906723899
 20
200.2463386657
  0
VERTEX
  8
0
 62
7
  6
CONTINUOUS
 10
77.8054594791
 20
199.9868098745
  0
VERTEX
  8
0
 62
7
  6
CONTINUOUS
 10
77.8179990638
 20
199.7032547753
  0
VERTEX
  8
0
 62
7
  6
CONTINUOUS
 10
77.8281701236
 20
199.3999252815
  0
VERTEX
  8
0
 62
7
  6
CONTINUOUS
 10
77.8361394728
 20
199.0859408675
  0
VERTEX
  8
0
 62
7
  6
CONTINUOUS
 10
77.8422507218
 20
198.7730119107
  0
VERTEX
  8
0
 62
7
  6
CONTINUOUS
 10
77.8466683469
 20
198.4720872696
  0
SEQEND
  0
LINE
  8
0
 62
7
  6
CONTINUOUS
 10
77.9036457845
 20
195.7941359269
 11
77.9006563539
 21
195.8659975844
  0
LINE
  8
0
 62
7
  6
CONTINUOUS
 10
77.7492746868
 20
204.322169631
 11
77.9534989465
 21
192.622169631
  0
LINE
  8
1_AXIS
 62
7
  6
CONTINUOUS
 10
77.8466683469
 20
198.4720872696
 11
77.8467727826
 21
198.4634434277
  0
LINE
  8
1_AXIS
 62
7
  6
CONTINUOUS
 10
77.8467727826
 20
198.4634434277
 11
77.3514417223
 21
198.4634434277
  0
LINE
  8
1_AXIS
 62
7
  6
CENTER
 10
35.8187602547
 20
198.4634434277
 11
77.3514417223
 21
198.4634434277
  0
LINE
  8
1_AXIS
 62
7
  6
CENTER
 10
77.8467727826
 20
198.4634434277
 11
121.2932770241
 21
198.4634434277
  0
POLYLINE
  8
0
 62
7
  6
CONTINUOUS
 66
1
 70
0
  0
VERTEX
  8
0
 62
7
  6
CONTINUOUS
 10
78.0319692825
 20
195.3834051704
  0
VERTEX
  8
0
 62
7
  6
CONTINUOUS
 10
77.9835865759
 20
195.4506593139
  0
VERTEX
  8
0
 62
7
  6
CONTINUOUS
 10
77.9501053477
 20
195.5206983486
  0
VERTEX
  8
0
 62
7
  6
CONTINUOUS
 10
77.9282541121
 20
195.5923263425
  0
VERTEX
  8
0
 62
7
  6
CONTINUOUS
 10
77.9195441449
 20
195.6346737426
  0
SEQEND
  0
POLYLINE
  8
0
 62
7
  6
CONTINUOUS
 66
1
 70
0
  0
VERTEX
  8
0
 62
7
  6
CONTINUOUS
 10
77.9195441449
 20
195.6346737426
  0
VERTEX
  8
0
 62
7
  6
CONTINUOUS
 10
77.9150128292
 20
195.6632416108
  0
VERTEX
  8
0
 62
7
  6
CONTINUOUS
 10
77.9075627369
 20
195.7310274018
  0
VERTEX
  8
0
 62
7
  6
CONTINUOUS
 10
77.9036473962
 20
195.7942265796
  0
SEQEND
  0
LINE
  8
0
 62
7
  6
CONTINUOUS
 10
80.7339833196
 20
196.6047172245
 11
80.5992746868
 21
204.322169631
  0
LINE
  8
0
 62
7
  6
CONTINUOUS
 10
40.6623787954
 20
204.8134434277
 11
115.6623787954
 21
204.8134434277
  0
LINE
  8
0
 62
7
  6
CONTINUOUS
 10
100.7407742711
 20
196.6047172245
 11
100.8754829039
 21
204.322169631
  0
LINE
  8
0
 62
7
  6
CONTINUOUS
 10
103.6712586443
 20
192.622169631
 11
103.8754829039
 21
204.322169631
  0
LINE
  8
0
 62
7
  6
CONTINUOUS
 10
103.7211117382
 20
195.7941357728
 11
103.7240032667
 21
195.8634924383
  0
POLYLINE
  8
0
 62
7
  6
CONTINUOUS
 66
1
 70
0
  0
VERTEX
  8
0
 62
7
  6
CONTINUOUS
 10
103.7211101871
 20
195.7942215656
  0
VERTEX
  8
0
 62
7
  6
CONTINUOUS
 10
103.7171849416
 20
195.7309070074
  0
VERTEX
  8
0
 62
7
  6
CONTINUOUS
 10
103.70972536
 20
195.6631050741
  0
VERTEX
  8
0
 62
7
  6
CONTINUOUS
 10
103.7052183537
 20
195.6347013008
  0
SEQEND
  0
POLYLINE
  8
0
 62
7
  6
CONTINUOUS
 66
1
 70
0
  0
VERTEX
  8
0
 62
7
  6
CONTINUOUS
 10
103.7052183537
 20
195.6347013008
  0
VERTEX
  8
0
 62
7
  6
CONTINUOUS
 10
103.6965010808
 20
195.5923159469
  0
VERTEX
  8
0
 62
7
  6
CONTINUOUS
 10
103.674656866
 20
195.5207106934
  0
VERTEX
  8
0
 62
7
  6
CONTINUOUS
 10
103.6411623853
 20
195.4506449436
  0
VERTEX
  8
0
 62
7
  6
CONTINUOUS
 10
103.5927884625
 20
195.3834052883
  0
SEQEND
  0
POLYLINE
  8
1_AXIS
 62
7
  6
CONTINUOUS
 66
1
 70
0
  0
VERTEX
  8
1_AXIS
 62
7
  6
CONTINUOUS
 10
106.8841256816
 20
201.7134434277
  0
VERTEX
  8
1_AXIS
 62
7
  6
CONTINUOUS
 10
106.8663650524
 20
201.6734010907
  0
VERTEX
  8
1_AXIS
 62
7
  6
CONTINUOUS
 10
106.849042683
 20
201.5542664813
  0
VERTEX
  8
1_AXIS
 62
7
  6
CONTINUOUS
 10
106.8325858334
 20
201.3589908948
  0
VERTEX
  8
1_AXIS
 62
7
  6
CONTINUOUS
 10
106.817400098
 20
201.0924081053
  0
VERTEX
  8
1_AXIS
 62
7
  6
CONTINUOUS
 10
106.803859322
 20
200.7611096195
  0
VERTEX
  8
1_AXIS
 62
7
  6
CONTINUOUS
 10
106.7922964244
 20
200.3732765629
  0
VERTEX
  8
1_AXIS
 62
7
  6
CONTINUOUS
 10
106.7829953047
 20
199.9384730705
  0
VERTEX
  8
1_AXIS
 62
7
  6
CONTINUOUS
 10
106.7761840291
 20
199.4674075146
  0
VERTEX
  8
1_AXIS
 62
7
  6
CONTINUOUS
 10
106.7720294293
 20
198.971668719
  0
VERTEX
  8
1_AXIS
 62
7
  6
CONTINUOUS
 10
106.7706331808
 20
198.4634424277
  0
VERTEX
  8
1_AXIS
 62
7
  6
CONTINUOUS
 10
106.7720294399
 20
197.9552162088
  0
VERTEX
  8
1_AXIS
 62
7
  6
CONTINUOUS
 10
106.7761840486
 20
197.4594776205
  0
VERTEX
  8
1_AXIS
 62
7
  6
CONTINUOUS
 10
106.7829953299
 20
196.9884123705
  0
VERTEX
  8
1_AXIS
 62
7
  6
CONTINUOUS
 10
106.7922964512
 20
196.5536092344
  0
VERTEX
  8
1_AXIS
 62
7
  6
CONTINUOUS
 10
106.8038593466
 20
196.1657765299
  0
VERTEX
  8
1_AXIS
 62
7
  6
CONTINUOUS
 10
106.8174001175
 20
195.8344783442
  0
VERTEX
  8
1_AXIS
 62
7
  6
CONTINUOUS
 10
106.8325858462
 20
195.5678957731
  0
VERTEX
  8
1_AXIS
 62
7
  6
CONTINUOUS
 10
106.8490426893
 20
195.3726203155
  0
VERTEX
  8
1_AXIS
 62
7
  6
CONTINUOUS
 10
106.8663650539
 20
195.2534857579
  0
VERTEX
  8
1_AXIS
 62
7
  6
CONTINUOUS
 10
106.8841256816
 20
195.2134434277
  0
SEQEND
  0
POLYLINE
  8
1_AXIS
 62
7
  6
CONTINUOUS
 66
1
 70
0
  0
VERTEX
  8
1_AXIS
 62
7
  6
CONTINUOUS
 10
106.8841256816
 20
195.2134434277
  0
VERTEX
  8
1_AXIS
 62
7
  6
CONTINUOUS
 10
106.9018863109
 20
195.2534857648
  0
VERTEX
  8
1_AXIS
 62
7
  6
CONTINUOUS
 10
106.9192086803
 20
195.3726203742
  0
VERTEX
  8
1_AXIS
 62
7
  6
CONTINUOUS
 10
106.9356655299
 20
195.5678959607
  0
VERTEX
  8
1_AXIS
 62
7
  6
CONTINUOUS
 10
106.9508512653
 20
195.8344787502
  0
VERTEX
  8
1_AXIS
 62
7
  6
CONTINUOUS
 10
106.9643920413
 20
196.1657772359
  0
VERTEX
  8
1_AXIS
 62
7
  6
CONTINUOUS
 10
106.9759549389
 20
196.5536102926
  0
VERTEX
  8
1_AXIS
 62
7
  6
CONTINUOUS
 10
106.9852560586
 20
196.988413785
  0
VERTEX
  8
1_AXIS
 62
7
  6
CONTINUOUS
 10
106.9920673342
 20
197.4594793409
  0
VERTEX
  8
1_AXIS
 62
7
  6
CONTINUOUS
 10
106.996221934
 20
197.9552181365
  0
VERTEX
  8
1_AXIS
 62
7
  6
CONTINUOUS
 10
106.9976181825
 20
198.4634444278
  0
VERTEX
  8
1_AXIS
 62
7
  6
CONTINUOUS
 10
106.9962219234
 20
198.9716706467
  0
VERTEX
  8
1_AXIS
 62
7
  6
CONTINUOUS
 10
106.9920673147
 20
199.467409235
  0
VERTEX
  8
1_AXIS
 62
7
  6
CONTINUOUS
 10
106.9852560334
 20
199.9384744849
  0
VERTEX
  8
1_AXIS
 62
7
  6
CONTINUOUS
 10
106.975954912
 20
200.3732776211
  0
VERTEX
  8
1_AXIS
 62
7
  6
CONTINUOUS
 10
106.9643920167
 20
200.7611103256
  0
VERTEX
  8
1_AXIS
 62
7
  6
CONTINUOUS
 10
106.9508512458
 20
201.0924085113
  0
VERTEX
  8
1_AXIS
 62
7
  6
CONTINUOUS
 10
106.9356655171
 20
201.3589910824
  0
VERTEX
  8
1_AXIS
 62
7
  6
CONTINUOUS
 10
106.919208674
 20
201.5542665399
  0
VERTEX
  8
1_AXIS
 62
7
  6
CONTINUOUS
 10
106.9018863094
 20
201.6734010976
  0
VERTEX
  8
1_AXIS
 62
7
  6
CONTINUOUS
 10
106.8841256816
 20
201.7134434277
  0
SEQEND
  0
POLYLINE
  8
0
 62
7
  6
CONTINUOUS
 66
1
 70
0
  0
VERTEX
  8
0
 62
7
  6
CONTINUOUS
 10
106.7392710576
 20
195.093162013
  0
VERTEX
  8
0
 62
7
  6
CONTINUOUS
 10
106.7364908906
 20
195.1037408191
  0
VERTEX
  8
0
 62
7
  6
CONTINUOUS
 10
106.7295050879
 20
195.1308438815
  0
SEQEND
  0
LINE
  8
0
 62
7
  6
CONTINUOUS
 10
106.7295050879
 20
195.1308438815
 11
106.7213727245
 21
195.1633272373
  0
POLYLINE
  8
0
 62
7
  6
CONTINUOUS
 66
1
 70
0
  0
VERTEX
  8
0
 62
7
  6
CONTINUOUS
 10
106.7213789829
 20
195.1633020568
  0
VERTEX
  8
0
 62
7
  6
CONTINUOUS
 10
106.7172254286
 20
195.1837524684
  0
VERTEX
  8
0
 62
7
  6
CONTINUOUS
 10
106.7154805227
 20
195.1966392199
  0
SEQEND
  0
LINE
  8
0
 62
7
  6
CONTINUOUS
 10
106.7154765664
 20
195.1966751455
 11
106.7154805227
 21
195.1966392199
  0
POLYLINE
  8
1_AXIS
 62
7
  6
CONTINUOUS
 66
1
 70
0
  0
VERTEX
  8
1_AXIS
 62
7
  6
CONTINUOUS
 10
112.4406319091
 20
195.2134434277
  0
VERTEX
  8
1_AXIS
 62
7
  6
CONTINUOUS
 10
112.4228712798
 20
195.2534857648
  0
VERTEX
  8
1_AXIS
 62
7
  6
CONTINUOUS
 10
112.4055489105
 20
195.3726203742
  0
VERTEX
  8
1_AXIS
 62
7
  6
CONTINUOUS
 10
112.3890920608
 20
195.5678959607
  0
VERTEX
  8
1_AXIS
 62
7
  6
CONTINUOUS
 10
112.3739063254
 20
195.8344787502
  0
VERTEX
  8
1_AXIS
 62
7
  6
CONTINUOUS
 10
112.3603655494
 20
196.1657772359
  0
VERTEX
  8
1_AXIS
 62
7
  6
CONTINUOUS
 10
112.3488026519
 20
196.5536102926
  0
VERTEX
  8
1_AXIS
 62
7
  6
CONTINUOUS
 10
112.3395015322
 20
196.988413785
  0
VERTEX
  8
1_AXIS
 62
7
  6
CONTINUOUS
 10
112.3326902566
 20
197.4594793409
  0
VERTEX
  8
1_AXIS
 62
7
  6
CONTINUOUS
 10
112.3285356567
 20
197.9552181365
  0
VERTEX
  8
1_AXIS
 62
7
  6
CONTINUOUS
 10
112.3271394083
 20
198.4634444278
  0
VERTEX
  8
1_AXIS
 62
7
  6
CONTINUOUS
 10
112.3285356674
 20
198.9716706467
  0
VERTEX
  8
1_AXIS
 62
7
  6
CONTINUOUS
 10
112.3326902761
 20
199.467409235
  0
VERTEX
  8
1_AXIS
 62
7
  6
CONTINUOUS
 10
112.3395015573
 20
199.9384744849
  0
VERTEX
  8
1_AXIS
 62
7
  6
CONTINUOUS
 10
112.3488026787
 20
200.3732776211
  0
VERTEX
  8
1_AXIS
 62
7
  6
CONTINUOUS
 10
112.3603655741
 20
200.7611103256
  0
VERTEX
  8
1_AXIS
 62
7
  6
CONTINUOUS
 10
112.3739063449
 20
201.0924085113
  0
VERTEX
  8
1_AXIS
 62
7
  6
CONTINUOUS
 10
112.3890920737
 20
201.3589910824
  0
VERTEX
  8
1_AXIS
 62
7
  6
CONTINUOUS
 10
112.4055489168
 20
201.5542665399
  0
VERTEX
  8
1_AXIS
 62
7
  6
CONTINUOUS
 10
112.4228712813
 20
201.6734010976
  0
VERTEX
  8
1_AXIS
 62
7
  6
CONTINUOUS
 10
112.4406319091
 20
201.7134434277
  0
SEQEND
  0
POLYLINE
  8
1_AXIS
 62
7
  6
CONTINUOUS
 66
1
 70
0
  0
VERTEX
  8
1_AXIS
 62
7
  6
CONTINUOUS
 10
112.4406319091
 20
201.7134434277
  0
VERTEX
  8
1_AXIS
 62
7
  6
CONTINUOUS
 10
112.4583925384
 20
201.6734010907
  0
VERTEX
  8
1_AXIS
 62
7
  6
CONTINUOUS
 10
112.4757149077
 20
201.5542664813
  0
VERTEX
  8
1_AXIS
 62
7
  6
CONTINUOUS
 10
112.4921717574
 20
201.3589908948
  0
VERTEX
  8
1_AXIS
 62
7
  6
CONTINUOUS
 10
112.5073574928
 20
201.0924081053
  0
VERTEX
  8
1_AXIS
 62
7
  6
CONTINUOUS
 10
112.5208982688
 20
200.7611096195
  0
VERTEX
  8
1_AXIS
 62
7
  6
CONTINUOUS
 10
112.5324611663
 20
200.3732765629
  0
VERTEX
  8
1_AXIS
 62
7
  6
CONTINUOUS
 10
112.541762286
 20
199.9384730705
  0
VERTEX
  8
1_AXIS
 62
7
  6
CONTINUOUS
 10
112.5485735616
 20
199.4674075146
  0
VERTEX
  8
1_AXIS
 62
7
  6
CONTINUOUS
 10
112.5527281615
 20
198.971668719
  0
VERTEX
  8
1_AXIS
 62
7
  6
CONTINUOUS
 10
112.5541244099
 20
198.4634424277
  0
VERTEX
  8
1_AXIS
 62
7
  6
CONTINUOUS
 10
112.5527281508
 20
197.9552162088
  0
VERTEX
  8
1_AXIS
 62
7
  6
CONTINUOUS
 10
112.5485735421
 20
197.4594776205
  0
VERTEX
  8
1_AXIS
 62
7
  6
CONTINUOUS
 10
112.5417622609
 20
196.9884123705
  0
VERTEX
  8
1_AXIS
 62
7
  6
CONTINUOUS
 10
112.5324611395
 20
196.5536092344
  0
VERTEX
  8
1_AXIS
 62
7
  6
CONTINUOUS
 10
112.5208982441
 20
196.1657765299
  0
VERTEX
  8
1_AXIS
 62
7
  6
CONTINUOUS
 10
112.5073574733
 20
195.8344783442
  0
VERTEX
  8
1_AXIS
 62
7
  6
CONTINUOUS
 10
112.4921717445
 20
195.5678957731
  0
VERTEX
  8
1_AXIS
 62
7
  6
CONTINUOUS
 10
112.4757149014
 20
195.3726203155
  0
VERTEX
  8
1_AXIS
 62
7
  6
CONTINUOUS
 10
112.4583925369
 20
195.2534857579
  0
VERTEX
  8
1_AXIS
 62
7
  6
CONTINUOUS
 10
112.4406319091
 20
195.2134434277
  0
SEQEND
  0
LINE
  8
0
 62
7
  6
CONTINUOUS
 10
116.1623787954
 20
204.3134434277
 11
116.1623787954
 21
192.8577610755
  0
POLYLINE
  8
0
 62
7
  6
CONTINUOUS
 66
1
 70
0
  0
VERTEX
  8
0
 62
7
  6
CONTINUOUS
 10
112.6092773599
 20
195.1966417613
  0
VERTEX
  8
0
 62
7
  6
CONTINUOUS
 10
112.6074108963
 20
195.1830058113
  0
VERTEX
  8
0
 62
7
  6
CONTINUOUS
 10
112.603378559
 20
195.1633019391
  0
SEQEND
  0
LINE
  8
0
 62
7
  6
CONTINUOUS
 10
112.6033854504
 20
195.1633296269
 11
112.5937410457
 21
195.12491667
  0
LINE
  8
0
 62
7
  6
CONTINUOUS
 10
112.5937410457
 20
195.12491667
 11
112.5854864735
 21
195.0931617184
  0
POLYLINE
  8
0
 62
7
  6
CONTINUOUS
 66
1
 70
0
  0
VERTEX
  8
0
 62
7
  6
CONTINUOUS
 10
112.5854859972
 20
195.0931612515
  0
VERTEX
  8
0
 62
7
  6
CONTINUOUS
 10
112.5797089624
 20
195.0721447899
  0
VERTEX
  8
0
 62
7
  6
CONTINUOUS
 10
112.5605775085
 20
195.0118403696
  0
VERTEX
  8
0
 62
7
  6
CONTINUOUS
 10
112.5386605034
 20
194.954535833
  0
VERTEX
  8
0
 62
7
  6
CONTINUOUS
 10
112.5141936398
 20
194.9002690279
  0
VERTEX
  8
0
 62
7
  6
CONTINUOUS
 10
112.4873845314
 20
194.8491075993
  0
VERTEX
  8
0
 62
7
  6
CONTINUOUS
 10
112.4584615951
 20
194.8012090193
  0
VERTEX
  8
0
 62
7
  6
CONTINUOUS
 10
112.4275585734
 20
194.7566158381
  0
VERTEX
  8
0
 62
7
  6
CONTINUOUS
 10
112.3946438005
 20
194.7152485429
  0
VERTEX
  8
0
 62
7
  6
CONTINUOUS
 10
112.3596754578
 20
194.6771744604
  0
VERTEX
  8
0
 62
7
  6
CONTINUOUS
 10
112.3226328043
 20
194.6426166488
  0
VERTEX
  8
0
 62
7
  6
CONTINUOUS
 10
112.2835337585
 20
194.6119528831
  0
VERTEX
  8
0
 62
7
  6
CONTINUOUS
 10
112.242235004
 20
194.5855971428
  0
VERTEX
  8
0
 62
7
  6
CONTINUOUS
 10
112.1978902735
 20
194.5639311585
  0
VERTEX
  8
0
 62
7
  6
CONTINUOUS
 10
112.1496273064
 20
194.5481246018
  0
VERTEX
  8
0
 62
7
  6
CONTINUOUS
 10
112.0973935016
 20
194.5404241049
  0
VERTEX
  8
0
 62
7
  6
CONTINUOUS
 10
112.084085349
 20
194.5400829349
  0
SEQEND
  0
ARC
  8
0
 62
7
  6
CONTINUOUS
 10
41.5623787954
 20
148.4565279336
 40
1.4
 50
90.0
 51
179.9958945024
  0
ARC
  8
0
 62
7
  6
CONTINUOUS
 10
114.7623787954
 20
121.0565279336
 40
1.4
 50
270.0
 51
360.0
  0
ARC
  8
0
 62
7
  6
CONTINUOUS
 10
106.1795345019
 20
159.6565252433
 40
0.5
 50
2.0003084733
 51
90.0000107655
  0
ARC
  8
0
 62
7
  6
CONTINUOUS
 10
113.1452231294
 20
159.6565264046
 40
0.5
 50
89.9999938817
 51
177.9998246866
  0
ARC
  8
0
 62
7
  6
CONTINUOUS
 10
43.1795344614
 20
109.8565294625
 40
0.5
 50
269.9999938817
 51
357.9998246866
  0
ARC
  8
0
 62
7
  6
CONTINUOUS
 10
50.1452230888
 20
109.8565306239
 40
0.5
 50
182.0003084733
 51
270.0000107655
  0
ARC
  8
0
 62
7
  6
CONTINUOUS
 10
40.6623774779
 20
109.8565267305
 40
0.4999987172
 50
179.9998625897
 51
270.0001503581
  0
ARC
  8
0
 62
7
  6
CONTINUOUS
 10
115.6623801129
 20
159.6565291367
 40
0.4999987172
 50
359.9998625897
 51
90.0001503581
  0
ARC
  8
0
 62
7
  6
CONTINUOUS
 10
157.1753623615
 20
142.6451922357
 40
2.0
 50
110.03
 51
180.0
  0
ARC
  8
0
 62
7
  6
CONTINUOUS
 10
155.6753623615
 20
146.7165247018
 40
0.5
 50
90.0
 51
179.9996296678
  0
ARC
  8
0
 62
7
  6
CONTINUOUS
 10
161.5253623615
 20
115.8565279336
 40
6.5
 50
192.3329031
 51
270.0
  0
ARC
  8
0
 62
7
  6
CONTINUOUS
 10
161.5253623615
 20
115.7065279336
 40
6.35
 50
270.0
 51
360.0
  0
CIRCLE
  8
1_AXIS
 62
7
  6
CONTINUOUS
 10
161.5253623615
 20
115.7065279336
 40
3.25
  0
ARC
  8
0
 62
7
  6
CONTINUOUS
 10
161.5258736138
 20
153.6563204477
 40
6.855
 50
290.0299999999
 51
326.0639670642
  0
ARC
  8
0
 62
7
  6
CONTINUOUS
 10
161.5253623615
 20
153.6565279336
 40
6.5
 50
90.0
 51
167.6670969
  0
ARC
  8
1_AXIS
 62
7
  6
CONTINUOUS
 10
161.5253623615
 20
153.8065279336
 40
6.35
 50
0.0
 51
90.0
  0
ARC
  8
0
 62
7
  6
CONTINUOUS
 10
161.5253623615
 20
153.8065279336
 40
6.35
 50
0.0
 51
90.0
  0
CIRCLE
  8
1_AXIS
 62
7
  6
CONTINUOUS
 10
161.5253623615
 20
153.8065279336
 40
3.25
  0
ARC
  8
0
 62
7
  6
CONTINUOUS
 10
167.3753623615
 20
149.3565279336
 40
0.5
 50
0.0
 51
90.0
  0
ARC
  8
0
 62
7
  6
CONTINUOUS
 10
167.2580741161
 20
149.8065279336
 40
0.05
 50
89.9999999999
 51
146.1143692678
  0
ARC
  8
0
 62
7
  6
CONTINUOUS
 10
53.5711824919
 20
192.6134434277
 40
0.5
 50
179.0
 51
270.0
  0
ARC
  8
0
 62
7
  6
CONTINUOUS
 10
42.2039669911
 20
192.5334434277
 40
0.42
 50
258.690067526
 51
269.9999692672
  0
ARC
  8
0
 62
7
  6
CONTINUOUS
 10
40.5823787954
 20
192.8577610669
 40
0.42
 50
180.0
 51
258.690067526
  0
ARC
  8
0
 62
7
  6
CONTINUOUS
 10
49.7408504162
 20
196.6134434277
 40
0.5000000028
 50
270.79779894
 51
359.0000000147
  0
ARC
  8
0
 62
7
  6
CONTINUOUS
 10
44.0839071672
 20
196.6134434277
 40
0.5
 50
181.0
 51
270.0
  0
ARC
  8
0
 62
7
  6
CONTINUOUS
 10
77.4535840659
 20
192.6134434277
 40
0.4999965517
 50
269.9989724714
 51
1.0000179334
  0
ARC
  8
0
 62
7
  6
CONTINUOUS
 10
53.7754067515
 20
204.3134434277
 40
0.5
 50
90.0
 51
179.0
  0
ARC
  8
0
 62
7
  6
CONTINUOUS
 10
42.9493508863
 20
204.3134407297
 40
0.5
 50
1.0003092198
 51
90.0000053966
  0
ARC
  8
0
 62
7
  6
CONTINUOUS
 10
77.2493508392
 20
204.3134434277
 40
0.5
 50
1.0
 51
90.0
  0
ARC
  8
0
 62
7
  6
CONTINUOUS
 10
50.8753988116
 20
204.3134434277
 40
0.4999973538
 50
89.9990901653
 51
178.9999841208
  0
ARC
  8
0
 62
7
  6
CONTINUOUS
 10
40.6600137576
 20
204.3158084655
 40
0.4977176821
 50
89.7277010584
 51
180.272299229
  0
ARC
  8
0
 62
7
  6
CONTINUOUS
 10
100.2408504204
 20
196.6134434277
 40
0.5000000012
 50
270.7977984567
 51
359.0000000063
  0
ARC
  8
0
 62
7
  6
CONTINUOUS
 10
81.2339099179
 20
196.6134434277
 40
0.5
 50
181.0
 51
269.2018872539
  0
ARC
  8
0
 62
7
  6
CONTINUOUS
 10
104.171182515
 20
192.6134447564
 40
0.5
 50
179.0001522812
 51
269.9999973423
  0
ARC
  8
0
 62
7
  6
CONTINUOUS
 10
115.7423787954
 20
192.8577610669
 40
0.42
 50
281.309932474
 51
360.0
  0
ARC
  8
0
 62
7
  6
CONTINUOUS
 10
114.1207905997
 20
192.5334434277
 40
0.42
 50
270.0
 51
281.309932474
  0
ARC
  8
0
 62
7
  6
CONTINUOUS
 10
115.6623787954
 20
204.3134434277
 40
0.5
 50
0.0
 51
90.0
  0
ARC
  8
0
 62
7
  6
CONTINUOUS
 10
101.3754102903
 20
204.3134434277
 40
0.5
 50
90.0004055118
 51
179.0000070767
  0
ARC
  8
0
 62
7
  6
CONTINUOUS
 10
104.3754067515
 20
204.3134434277
 40
0.5
 50
90.0
 51
179.0
  0
ARC
  8
0
 62
7
  6
CONTINUOUS
 10
80.0993528861
 20
204.3134434277
 40
0.4999999689
 50
0.9998600083
 51
90.0001278944
  0
ENDSEC
  0
EOF
