  0
SECTION
  2
HEADER
  9
$EXTMAX
 10
210.0
 20
297.0
 30
0.0
  9
$EXTMIN
 10
0.0
 20
0.0
 30
0.0
  9
$LIMMIN
 10
0.0
 20
0.0
  9
$LIMMAX
 10
210.0
 20
297.0
  9
$VIEWCTR
 10
105.0
 20
148.5
  9
$VIEWSIZE
 40
297.0
  9
$CLAYER
  8
0
  9
$LTSCALE
 40
19.36
  9
$CELTYPE
  6
BYLAYER
  9
$DIMSCALE
 40
1.0
  9
$DIMASZ
 40
3.5
  9
$DIMEXO
 40
2.2
  9
$DIMDLI
 40
13.376
  9
$DIMEXE
 40
6.336
  9
$DIMCEN
 40
3.168
  9
$DIMLFAC
 40
1.0
  9
$DIMBLK
  1
_FILLED
  9
$DIMTXT
 40
3.5
  9
$PDMODE
 70
3
  9
$PDSIZE
 40
0.3125
  9
$TILEMODE
 70
1
  0
ENDSEC
  0
SECTION
  2
TABLES
  0
TABLE
  2
LTYPE
 70
6
  0
LTYPE
  2
BYBLOCK
 70
0
  3

 72
65
 73
0
 40
0.0
  0
LTYPE
  2
BYLAYER
 70
0
  3

 72
65
 73
0
 40
0.0
  0
LTYPE
  2
CONTINUOUS
 70
64
  3
Solid line
 72
65
 73
0
 40
0.0
  0
LTYPE
  2
CENTER
 70
64
  3
____ _ ____ _ ____ _ ____ _ ____ _ ____ _ ____
 72
65
 73
4
 40
0.6
 49
0.375
 49
-0.075
 49
0.075
 49
-0.075
  0
LTYPE
  2
HIDDEN
 70
64
  3
- - - - - - - - - - - - - - - - - - - -
 72
65
 73
2
 40
0.2
 49
0.1
 49
-0.1
  0
LTYPE
  2
PHANTOM
 70
64
  3
_____ _ _ _____ _ _ _____ _ _ _____
 72
65
 73
6
 40
0.8
 49
0.45
 49
-0.05
 49
0.1
 49
-0.05
 49
0.1
 49
-0.05
  0
LTYPE
  2
DOT
 70
64
  3
. . . . . . . . . . . . . . . . . . . .
 72
65
 73
2
 40
0.2
 49
0.1
 49
-0.1
  0
LTYPE
  2
DASHED
 70
64
  3
- - - - - - - - - - - - - - - - - - - -
 72
65
 73
2
 40
0.2
 49
0.1
 49
-0.1
  0
ENDTAB
  0
TABLE
  2
LAYER
 70
36
  0
LAYER
  2
0
 70
0
 62
7
  6
CONTINUOUS
  0
LAYER
  2
DEFAULT_1
 70
0
 62
7
  6
CENTER
  0
LAYER
  2
DEFAULT_2
 70
0
 62
8
  6
HIDDEN
  0
LAYER
  2
DEFAULT_3
 70
0
 62
7
  6
PHANTOM
  0
LAYER
  2
1_AXIS
 70
0
 62
7
  6
CONTINUOUS
  0
LAYER
  2
1_CSYS
 70
0
 62
7
  6
CONTINUOUS
  0
LAYER
  2
1_DATUMPLANE
 70
0
 62
7
  6
CONTINUOUS
  0
LAYER
  2
4_QUILT
 70
0
 62
7
  6
CONTINUOUS
  0
LAYER
  2
4_SURFACE
 70
0
 62
7
  6
CONTINUOUS
  0
LAYER
  2
6_DIM
 70
0
 62
7
  6
CONTINUOUS
  0
LAYER
  2
CURVE
 70
0
 62
7
  6
CONTINUOUS
  0
LAYER
  2
SURFACE
 70
0
 62
7
  6
CONTINUOUS
  0
ENDTAB
  0
TABLE
  2
STYLE
 70
1
  0
STYLE
  2
STANDARD
 70
0
 40
0.0
 41
0.8
 50
0.0
 71
0
 42
0.2
  3
txt
  4

  0
STYLE
  2
TEXTSTYLE_1
 70
0
 40
0.0
 41
0.8
 50
0.0
 71
0
 42
0.2
  3
gdt
  4

  0
STYLE
  2
TEXTSTYLE_2
 70
0
 40
0.0
 41
0.6
 50
0.0
 71
0
 42
0.2
  3
txt
  4

  0
STYLE
  2
TEXTSTYLE_3
 70
0
 40
0.0
 41
1.0
 50
0.0
 71
0
 42
0.2
  3
ftb_____.ttf
  4

  0
STYLE
  2
TEXTSTYLE_4
 70
0
 40
0.0
 41
1.0
 50
0.0
 71
0
 42
0.2
  3
fti_____.ttf
  4

  0
STYLE
  2
TEXTSTYLE_5
 70
0
 40
0.0
 41
1.0
 50
0.0
 71
0
 42
0.2
  3
frutiger light.ttf
  4

  0
STYLE
  2
TEXTSTYLE_6
 70
0
 40
0.0
 41
0.7
 50
0.0
 71
0
 42
0.2
  3
txt
  4

  0
STYLE
  2
TEXTSTYLE_7
 70
0
 40
0.0
 41
0.8
 50
0.0
 71
0
 42
0.2
  3
txt
  4

  0
ENDTAB
  0
ENDSEC
  0
SECTION
  2
BLOCKS
  0
BLOCK
  8
0
 62
2
  6
CONTINUOUS
  2
SYMBOL_8_BL1
 70
64
 10
173.5956734183
 20
35.5937998301
  0
TEXT
  8
0
 62
7
  6
CONTINUOUS
 10
164.6539584268
 20
30.6865562072
  7
TEXTSTYLE_4
 40
1.0655737705
  1
The brand for plastic modular belts and chains
 41
1.0
 72
0
  0
LINE
  8
0
 62
7
  6
CONTINUOUS
 10
149.5737418074
 20
36.1675703219
 11
149.5737418074
 21
34.0364227809
  0
LINE
  8
0
 62
7
  6
CONTINUOUS
 10
149.8628043005
 20
31.0454914852
 11
149.8628043005
 21
31.1422825445
  0
LINE
  8
0
 62
7
  6
CONTINUOUS
 10
149.5737418074
 20
31.1100188581
 11
149.6315543091
 21
30.9164367395
  0
LINE
  8
0
 62
7
  6
CONTINUOUS
 10
150.9671844304
 20
33.9544555678
 11
150.9671844304
 21
36.1675703219
  0
LINE
  8
0
 62
7
  6
CONTINUOUS
 10
151.8862417523
 20
32.1101932727
 11
151.8862417523
 21
30.5937998301
  0
LINE
  8
0
 62
7
  6
CONTINUOUS
 10
152.1753043074
 20
30.5937998301
 11
152.1753043074
 21
31.3358647082
  0
LINE
  8
0
 62
7
  6
CONTINUOUS
 10
152.1753043074
 20
31.4649194539
 11
152.1753043074
 21
32.1101932727
  0
LINE
  8
0
 62
7
  6
CONTINUOUS
 10
149.6315543091
 20
31.3036010218
 11
149.5737418074
 21
31.1100188581
  0
LINE
  8
0
 62
7
  6
CONTINUOUS
 10
149.9784292936
 20
30.8841730531
 11
149.8628043005
 21
31.0454914852
  0
LINE
  8
0
 62
7
  6
CONTINUOUS
 10
151.0768668626
 20
31.400392081
 11
151.1346793074
 21
31.3036010218
  0
LINE
  8
0
 62
7
  6
CONTINUOUS
 10
151.4237418626
 20
31.3036010218
 11
151.3659292523
 21
31.4326557675
  0
LINE
  8
0
 62
7
  6
CONTINUOUS
 10
152.852430332
 20
36.1675703219
 11
152.852430332
 21
34.3642916334
  0
LINE
  8
0
 62
7
  6
CONTINUOUS
 10
152.852430332
 20
33.0528162235
 11
152.852430332
 21
32.3970785186
  0
LINE
  8
0
 62
7
  6
CONTINUOUS
 10
153.2159293074
 20
31.2390736489
 11
153.2159293074
 21
30.5937998301
  0
LINE
  8
0
 62
7
  6
CONTINUOUS
 10
153.5049916972
 20
30.5937998301
 11
153.5049916972
 21
31.2390736489
  0
LINE
  8
0
 62
7
  6
CONTINUOUS
 10
149.8628043005
 20
31.1422825445
 11
149.9206168074
 21
31.2713373354
  0
LINE
  8
0
 62
7
  6
CONTINUOUS
 10
149.6315543091
 20
30.9164367395
 11
149.7471793074
 21
30.7873819712
  0
LINE
  8
0
 62
7
  6
CONTINUOUS
 10
153.1581166972
 20
31.3681283946
 11
153.2159293074
 21
31.2390736489
  0
LINE
  8
0
 62
7
  6
CONTINUOUS
 10
153.9674919177
 20
30.8841730531
 11
154.0253041972
 21
30.7551182848
  0
LINE
  8
0
 62
7
  6
CONTINUOUS
 10
153.5049916972
 20
31.2390736489
 11
153.4471794177
 21
31.400392081
  0
LINE
  8
0
 62
7
  6
CONTINUOUS
 10
153.9674919177
 20
31.4326557675
 11
153.9674919177
 21
31.3681283946
  0
LINE
  8
0
 62
7
  6
CONTINUOUS
 10
153.9674919177
 20
30.9809641124
 11
153.9674919177
 21
30.8841730531
  0
LINE
  8
0
 62
7
  6
CONTINUOUS
 10
154.245872955
 20
32.3970785186
 11
154.245872955
 21
36.1675703219
  0
LINE
  8
0
 62
7
  6
CONTINUOUS
 10
154.2565543074
 20
30.8519093441
 11
154.2565543074
 21
30.9164367395
  0
LINE
  8
0
 62
7
  6
CONTINUOUS
 10
154.5737418074
 20
36.1675703219
 11
154.5737418074
 21
32.3970785186
  0
LINE
  8
0
 62
7
  6
CONTINUOUS
 10
151.3659292523
 20
30.7873819712
 11
151.4237418626
 21
30.9164367395
  0
LINE
  8
0
 62
7
  6
CONTINUOUS
 10
155.759679528
 20
30.6905909007
 11
155.7018665869
 21
30.8519093441
  0
LINE
  8
0
 62
7
  6
CONTINUOUS
 10
155.412804528
 20
31.3681283946
 11
155.412804528
 21
31.2713373354
  0
LINE
  8
0
 62
7
  6
CONTINUOUS
 10
155.412804528
 20
31.1422825445
 11
155.412804528
 21
30.9487004259
  0
LINE
  8
0
 62
7
  6
CONTINUOUS
 10
155.7018665869
 20
30.8519093441
 11
155.7018665869
 21
31.3681283946
  0
LINE
  8
0
 62
7
  6
CONTINUOUS
 10
155.9671844304
 20
32.3970785186
 11
155.9671844304
 21
34.2003572071
  0
LINE
  8
0
 62
7
  6
CONTINUOUS
 10
155.9671844304
 20
35.511832617
 11
155.9671844304
 21
36.1675703219
  0
LINE
  8
0
 62
7
  6
CONTINUOUS
 10
156.279992028
 20
32.1101932727
 11
156.279992028
 21
31.9488748406
  0
LINE
  8
0
 62
7
  6
CONTINUOUS
 10
156.279992028
 20
31.626237886
 11
156.279992028
 21
30.5937998301
  0
LINE
  8
0
 62
7
  6
CONTINUOUS
 10
156.5690540869
 20
30.5937998301
 11
156.5690540869
 21
31.626237886
  0
LINE
  8
0
 62
7
  6
CONTINUOUS
 10
156.5690540869
 20
31.9488748406
 11
156.5690540869
 21
32.1101932727
  0
LINE
  8
0
 62
7
  6
CONTINUOUS
 10
151.1346793074
 20
30.9164367395
 11
151.0768668626
 21
30.8196456577
  0
LINE
  8
0
 62
7
  6
CONTINUOUS
 10
153.4471794177
 20
31.400392081
 11
153.3893668074
 21
31.4649194539
  0
LINE
  8
0
 62
7
  6
CONTINUOUS
 10
154.3143669177
 20
30.7873819712
 11
154.2565543074
 21
30.8519093441
  0
LINE
  8
0
 62
7
  6
CONTINUOUS
 10
155.4706168074
 20
30.6583272086
 11
155.5284290869
 21
30.5937998301
  0
LINE
  8
0
 62
7
  6
CONTINUOUS
 10
155.412804528
 20
30.7551182848
 11
155.4706168074
 21
30.6583272086
  0
LINE
  8
0
 62
7
  6
CONTINUOUS
 10
155.8174918074
 20
30.5937998301
 11
155.759679528
 21
30.6905909007
  0
LINE
  8
0
 62
7
  6
CONTINUOUS
 10
155.7018665869
 20
31.3681283946
 11
155.6440543074
 21
31.4649194539
  0
LINE
  8
0
 62
7
  6
CONTINUOUS
 10
157.0315543074
 20
31.626237886
 11
157.0315543074
 21
30.5937998301
  0
LINE
  8
0
 62
7
  6
CONTINUOUS
 10
157.320617028
 20
30.5937998301
 11
157.320617028
 21
31.3358647082
  0
LINE
  8
0
 62
7
  6
CONTINUOUS
 10
157.320617028
 20
31.4649194539
 11
157.320617028
 21
31.626237886
  0
LINE
  8
0
 62
7
  6
CONTINUOUS
 10
157.852430332
 20
34.6101932727
 11
157.852430332
 21
32.3970785186
  0
LINE
  8
0
 62
7
  6
CONTINUOUS
 10
149.7471793074
 20
31.4326557675
 11
149.6315543091
 21
31.3036010218
  0
LINE
  8
0
 62
7
  6
CONTINUOUS
 10
149.9206168074
 20
31.2713373354
 11
149.9784292936
 21
31.3358647082
  0
LINE
  8
0
 62
7
  6
CONTINUOUS
 10
149.7471793074
 20
30.7873819712
 11
149.8628043005
 21
30.7228545871
  0
LINE
  8
0
 62
7
  6
CONTINUOUS
 10
150.1518667936
 20
30.7873819712
 11
149.9784292936
 21
30.8841730531
  0
LINE
  8
0
 62
7
  6
CONTINUOUS
 10
155.3549915869
 20
31.4326557675
 11
155.412804528
 21
31.3681283946
  0
LINE
  8
0
 62
7
  6
CONTINUOUS
 10
158.3034290869
 20
31.3681283946
 11
158.361242028
 21
31.2068099625
  0
LINE
  8
0
 62
7
  6
CONTINUOUS
 10
158.6503040869
 20
31.2068099625
 11
158.5924918074
 21
31.3681283946
  0
LINE
  8
0
 62
7
  6
CONTINUOUS
 10
158.361242028
 20
31.2068099625
 11
158.361242028
 21
30.5937998301
  0
LINE
  8
0
 62
7
  6
CONTINUOUS
 10
158.6503040869
 20
30.5937998301
 11
158.6503040869
 21
31.2068099625
  0
LINE
  8
0
 62
7
  6
CONTINUOUS
 10
159.1128043074
 20
31.4326557675
 11
159.1128043074
 21
31.3681283946
  0
LINE
  8
0
 62
7
  6
CONTINUOUS
 10
159.245872955
 20
32.3970785186
 11
159.245872955
 21
34.5282260596
  0
LINE
  8
0
 62
7
  6
CONTINUOUS
 10
159.5737418074
 20
36.1675703219
 11
159.5737418074
 21
32.3970785186
  0
LINE
  8
0
 62
7
  6
CONTINUOUS
 10
154.2565543074
 20
30.9164367395
 11
154.3143669177
 21
31.0132277988
  0
LINE
  8
0
 62
7
  6
CONTINUOUS
 10
149.8628043005
 20
30.7228545871
 11
150.0362418212
 21
30.6583272086
  0
LINE
  8
0
 62
7
  6
CONTINUOUS
 10
151.3659292523
 20
31.4326557675
 11
151.1924917523
 21
31.5294468267
  0
LINE
  8
0
 62
7
  6
CONTINUOUS
 10
154.0253041972
 20
30.7551182848
 11
154.1987416972
 21
30.6583272086
  0
LINE
  8
0
 62
7
  6
CONTINUOUS
 10
153.0424918074
 20
31.4326557675
 11
153.1581166972
 21
31.3681283946
  0
LINE
  8
0
 62
7
  6
CONTINUOUS
 10
153.3893668074
 20
31.4649194539
 11
153.2737419177
 21
31.5294468267
  0
LINE
  8
0
 62
7
  6
CONTINUOUS
 10
159.1128043074
 20
30.8519093441
 11
159.228429528
 21
30.7228545871
  0
LINE
  8
0
 62
7
  6
CONTINUOUS
 10
159.4596793074
 20
30.7873819712
 11
159.401867028
 21
30.8519093441
  0
LINE
  8
0
 62
7
  6
CONTINUOUS
 10
159.1128043074
 20
31.3681283946
 11
159.228429528
 21
31.2390736489
  0
LINE
  8
0
 62
7
  6
CONTINUOUS
 10
158.5924918074
 20
31.3681283946
 11
158.534679528
 21
31.4649194539
  0
LINE
  8
0
 62
7
  6
CONTINUOUS
 10
160.9628038663
 20
30.7873819712
 11
160.9628038663
 21
30.8519093441
  0
LINE
  8
0
 62
7
  6
CONTINUOUS
 10
160.9671844304
 20
32.3970785186
 11
160.9671844304
 21
36.1675703219
  0
LINE
  8
0
 62
7
  6
CONTINUOUS
 10
154.0253041972
 20
31.4971831403
 11
153.9674919177
 21
31.4326557675
  0
LINE
  8
0
 62
7
  6
CONTINUOUS
 10
150.9034292799
 20
31.4649194539
 11
151.0768668626
 21
31.400392081
  0
LINE
  8
0
 62
7
  6
CONTINUOUS
 10
155.6440543074
 20
31.4649194539
 11
155.5284290869
 21
31.5294468267
  0
LINE
  8
0
 62
7
  6
CONTINUOUS
 10
159.4596793074
 20
31.3036010218
 11
159.401867028
 21
31.3681283946
  0
LINE
  8
0
 62
7
  6
CONTINUOUS
 10
160.615929528
 20
30.9164367395
 11
160.6737418074
 21
30.8519093441
  0
LINE
  8
0
 62
7
  6
CONTINUOUS
 10
160.9628038663
 20
30.8519093441
 11
160.8471793074
 21
30.9809641124
  0
LINE
  8
0
 62
7
  6
CONTINUOUS
 10
160.615929528
 20
31.4326557675
 11
160.6737418074
 21
31.3681283946
  0
LINE
  8
0
 62
7
  6
CONTINUOUS
 10
160.9628038663
 20
31.3681283946
 11
160.8471793074
 21
31.4971831403
  0
LINE
  8
0
 62
7
  6
CONTINUOUS
 10
154.2565543074
 20
31.3681283946
 11
154.3143669177
 21
31.4326557675
  0
LINE
  8
0
 62
7
  6
CONTINUOUS
 10
154.0831168074
 20
31.1100188581
 11
153.9674919177
 21
30.9809641124
  0
LINE
  8
0
 62
7
  6
CONTINUOUS
 10
155.412804528
 20
30.9487004259
 11
155.3549915869
 21
30.8841730531
  0
LINE
  8
0
 62
7
  6
CONTINUOUS
 10
155.3549915869
 20
30.6905909007
 11
155.412804528
 21
30.7551182848
  0
LINE
  8
0
 62
7
  6
CONTINUOUS
 10
154.1987416972
 20
30.6583272086
 11
154.3143669177
 21
30.6260635193
  0
LINE
  8
0
 62
7
  6
CONTINUOUS
 10
151.1924917523
 20
31.5294468267
 11
150.9612418074
 21
31.5939741996
  0
LINE
  8
0
 62
7
  6
CONTINUOUS
 10
154.5456166972
 20
30.7228545871
 11
154.3143669177
 21
30.7873819712
  0
LINE
  8
0
 62
7
  6
CONTINUOUS
 10
153.2737419177
 20
31.5294468267
 11
153.1003044177
 21
31.5939741996
  0
LINE
  8
0
 62
7
  6
CONTINUOUS
 10
155.5284290869
 20
31.5294468267
 11
155.3549915869
 21
31.5939741996
  0
LINE
  8
0
 62
7
  6
CONTINUOUS
 10
158.187804528
 20
31.4326557675
 11
158.3034290869
 21
31.3681283946
  0
LINE
  8
0
 62
7
  6
CONTINUOUS
 10
158.534679528
 20
31.4649194539
 11
158.4190543074
 21
31.5294468267
  0
LINE
  8
0
 62
7
  6
CONTINUOUS
 10
150.0362418212
 20
30.6583272086
 11
150.2096793212
 21
30.6260635193
  0
LINE
  8
0
 62
7
  6
CONTINUOUS
 10
150.498741835
 20
30.7228545871
 11
150.1518667936
 21
30.7873819712
  0
LINE
  8
0
 62
7
  6
CONTINUOUS
 10
152.9268669177
 20
31.4649194539
 11
153.0424918074
 21
31.4326557675
  0
LINE
  8
0
 62
7
  6
CONTINUOUS
 10
155.239367028
 20
31.4649194539
 11
155.3549915869
 21
31.4326557675
  0
LINE
  8
0
 62
7
  6
CONTINUOUS
 10
159.575304528
 20
30.7551182848
 11
159.4596793074
 21
30.7873819712
  0
LINE
  8
0
 62
7
  6
CONTINUOUS
 10
158.0721793074
 20
31.4649194539
 11
158.187804528
 21
31.4326557675
  0
LINE
  8
0
 62
7
  6
CONTINUOUS
 10
159.228429528
 20
30.7228545871
 11
159.401867028
 21
30.6583272086
  0
LINE
  8
0
 62
7
  6
CONTINUOUS
 10
158.4190543074
 20
31.5294468267
 11
158.2456168074
 21
31.5939741996
  0
LINE
  8
0
 62
7
  6
CONTINUOUS
 10
159.6331168074
 20
31.2390736489
 11
159.4596793074
 21
31.3036010218
  0
LINE
  8
0
 62
7
  6
CONTINUOUS
 10
160.442492028
 20
30.9809641124
 11
160.615929528
 21
30.9164367395
  0
LINE
  8
0
 62
7
  6
CONTINUOUS
 10
160.8471793074
 20
31.4971831403
 11
160.6737418074
 21
31.5617105132
  0
LINE
  8
0
 62
7
  6
CONTINUOUS
 10
159.228429528
 20
31.2390736489
 11
159.4596793074
 21
31.1422825445
  0
LINE
  8
0
 62
7
  6
CONTINUOUS
 10
160.8471793074
 20
30.9809641124
 11
160.615929528
 21
31.0777551716
  0
LINE
  8
0
 62
7
  6
CONTINUOUS
 10
159.401867028
 20
31.3681283946
 11
159.4596793074
 21
31.4326557675
  0
LINE
  8
0
 62
7
  6
CONTINUOUS
 10
149.8628043005
 20
31.4971831403
 11
149.7471793074
 21
31.4326557675
  0
LINE
  8
0
 62
7
  6
CONTINUOUS
 10
149.9784292936
 20
31.3358647082
 11
150.1518667936
 21
31.4326557675
  0
LINE
  8
0
 62
7
  6
CONTINUOUS
 10
152.2909293626
 20
31.5294468267
 11
152.1753043074
 21
31.4649194539
  0
LINE
  8
0
 62
7
  6
CONTINUOUS
 10
152.1753043074
 20
31.3358647082
 11
152.2909293626
 21
31.400392081
  0
LINE
  8
0
 62
7
  6
CONTINUOUS
 10
151.1924917523
 20
30.6905909007
 11
151.3659292523
 21
30.7873819712
  0
LINE
  8
0
 62
7
  6
CONTINUOUS
 10
150.2096793212
 20
30.6260635193
 11
150.5565542799
 21
30.5937998301
  0
LINE
  8
0
 62
7
  6
CONTINUOUS
 10
154.3143669177
 20
30.6260635193
 11
154.5456166972
 21
30.5937998301
  0
LINE
  8
0
 62
7
  6
CONTINUOUS
 10
152.6956168074
 20
31.4971831403
 11
152.9268669177
 21
31.4649194539
  0
LINE
  8
0
 62
7
  6
CONTINUOUS
 10
155.0081169177
 20
31.4971831403
 11
155.239367028
 21
31.4649194539
  0
LINE
  8
0
 62
7
  6
CONTINUOUS
 10
159.4596793074
 20
31.1422825445
 11
160.442492028
 21
30.9809641124
  0
LINE
  8
0
 62
7
  6
CONTINUOUS
 10
160.615929528
 20
31.0777551716
 11
159.6331168074
 21
31.2390736489
  0
LINE
  8
0
 62
7
  6
CONTINUOUS
 10
153.1003044177
 20
31.5939741996
 11
152.9268669177
 21
31.626237886
  0
LINE
  8
0
 62
7
  6
CONTINUOUS
 10
159.401867028
 20
30.6583272086
 11
159.575304528
 21
30.6260635193
  0
LINE
  8
0
 62
7
  6
CONTINUOUS
 10
158.2456168074
 20
31.5939741996
 11
158.0721793074
 21
31.626237886
  0
LINE
  8
0
 62
7
  6
CONTINUOUS
 10
160.5003043074
 20
31.4649194539
 11
160.615929528
 21
31.4326557675
  0
LINE
  8
0
 62
7
  6
CONTINUOUS
 10
160.6737418074
 20
30.8519093441
 11
160.615929528
 21
30.7873819712
  0
LINE
  8
0
 62
7
  6
CONTINUOUS
 10
159.228429528
 20
31.5294468267
 11
159.1128043074
 21
31.4326557675
  0
LINE
  8
0
 62
7
  6
CONTINUOUS
 10
154.1409294177
 20
31.5617105132
 11
154.0253041972
 21
31.4971831403
  0
LINE
  8
0
 62
7
  6
CONTINUOUS
 10
154.1987416972
 20
31.1745462761
 11
154.0831168074
 21
31.1100188581
  0
LINE
  8
0
 62
7
  6
CONTINUOUS
 10
154.3143669177
 20
31.0132277988
 11
154.4299918074
 21
31.0777551716
  0
LINE
  8
0
 62
7
  6
CONTINUOUS
 10
151.8862417523
 20
30.5937998301
 11
152.1753043074
 21
30.5937998301
  0
LINE
  8
0
 62
7
  6
CONTINUOUS
 10
153.2159293074
 20
30.5937998301
 11
153.5049916972
 21
30.5937998301
  0
LINE
  8
0
 62
7
  6
CONTINUOUS
 10
154.5456166972
 20
30.5937998301
 11
154.8924916972
 21
30.5937998301
  0
LINE
  8
0
 62
7
  6
CONTINUOUS
 10
155.5284290869
 20
30.5937998301
 11
155.8174918074
 21
30.5937998301
  0
LINE
  8
0
 62
7
  6
CONTINUOUS
 10
156.279992028
 20
30.5937998301
 11
156.5690540869
 21
30.5937998301
  0
LINE
  8
0
 62
7
  6
CONTINUOUS
 10
157.0315543074
 20
30.5937998301
 11
157.320617028
 21
30.5937998301
  0
LINE
  8
0
 62
7
  6
CONTINUOUS
 10
158.361242028
 20
30.5937998301
 11
158.6503040869
 21
30.5937998301
  0
LINE
  8
0
 62
7
  6
CONTINUOUS
 10
159.922179528
 20
30.5937998301
 11
160.269054528
 21
30.5937998301
  0
LINE
  8
0
 62
7
  6
CONTINUOUS
 10
160.269054528
 20
30.7228545871
 11
159.922179528
 21
30.7228545871
  0
LINE
  8
0
 62
7
  6
CONTINUOUS
 10
154.8924916972
 20
30.7228545871
 11
154.5456166972
 21
30.7228545871
  0
LINE
  8
0
 62
7
  6
CONTINUOUS
 10
159.401867028
 20
30.8519093441
 11
159.1128043074
 21
30.8519093441
  0
LINE
  8
0
 62
7
  6
CONTINUOUS
 10
151.4237418626
 20
30.9164367395
 11
151.1346793074
 21
30.9164367395
  0
LINE
  8
0
 62
7
  6
CONTINUOUS
 10
150.498741835
 20
31.4971831403
 11
150.9034292799
 21
31.4649194539
  0
LINE
  8
0
 62
7
  6
CONTINUOUS
 10
150.9612418074
 20
31.5939741996
 11
150.5565542799
 21
31.626237886
  0
LINE
  8
0
 62
7
  6
CONTINUOUS
 10
159.575304528
 20
30.6260635193
 11
159.922179528
 21
30.5937998301
  0
LINE
  8
0
 62
7
  6
CONTINUOUS
 10
159.922179528
 20
30.7228545871
 11
159.575304528
 21
30.7551182848
  0
LINE
  8
0
 62
7
  6
CONTINUOUS
 10
155.3549915869
 20
31.5939741996
 11
155.0081169177
 21
31.626237886
  0
LINE
  8
0
 62
7
  6
CONTINUOUS
 10
160.1534293074
 20
31.4971831403
 11
160.5003043074
 21
31.4649194539
  0
LINE
  8
0
 62
7
  6
CONTINUOUS
 10
160.5003043074
 20
31.5939741996
 11
160.1534293074
 21
31.626237886
  0
LINE
  8
0
 62
7
  6
CONTINUOUS
 10
157.840929528
 20
31.4971831403
 11
158.0721793074
 21
31.4649194539
  0
LINE
  8
0
 62
7
  6
CONTINUOUS
 10
160.6737418074
 20
31.5617105132
 11
160.5003043074
 21
31.5939741996
  0
LINE
  8
0
 62
7
  6
CONTINUOUS
 10
160.8471793074
 20
30.6905909007
 11
160.9628038663
 21
30.7873819712
  0
LINE
  8
0
 62
7
  6
CONTINUOUS
 10
155.3549915869
 20
30.8841730531
 11
155.1815540869
 21
30.7873819712
  0
LINE
  8
0
 62
7
  6
CONTINUOUS
 10
157.4362415869
 20
31.5294468267
 11
157.320617028
 21
31.4649194539
  0
LINE
  8
0
 62
7
  6
CONTINUOUS
 10
157.320617028
 20
31.3358647082
 11
157.4362415869
 21
31.400392081
  0
LINE
  8
0
 62
7
  6
CONTINUOUS
 10
150.0362418212
 20
31.5617105132
 11
149.8628043005
 21
31.4971831403
  0
LINE
  8
0
 62
7
  6
CONTINUOUS
 10
152.4643666972
 20
31.5939741996
 11
152.2909293626
 21
31.5294468267
  0
LINE
  8
0
 62
7
  6
CONTINUOUS
 10
152.2909293626
 20
31.400392081
 11
152.4643666972
 21
31.4649194539
  0
LINE
  8
0
 62
7
  6
CONTINUOUS
 10
151.0768668626
 20
30.8196456577
 11
150.9034292799
 21
30.7551182848
  0
LINE
  8
0
 62
7
  6
CONTINUOUS
 10
160.5003043074
 20
30.7551182848
 11
160.269054528
 21
30.7228545871
  0
LINE
  8
0
 62
7
  6
CONTINUOUS
 10
154.8924916972
 20
30.5937998301
 11
155.1815540869
 21
30.6260635193
  0
LINE
  8
0
 62
7
  6
CONTINUOUS
 10
160.269054528
 20
30.5937998301
 11
160.615929528
 21
30.6260635193
  0
LINE
  8
0
 62
7
  6
CONTINUOUS
 10
150.5565542799
 20
30.5937998301
 11
150.9612418074
 21
30.6260635193
  0
LINE
  8
0
 62
7
  6
CONTINUOUS
 10
150.9034292799
 20
30.7551182848
 11
150.498741835
 21
30.7228545871
  0
LINE
  8
0
 62
7
  6
CONTINUOUS
 10
154.7768668074
 20
31.1422825445
 11
155.412804528
 21
31.1422825445
  0
LINE
  8
0
 62
7
  6
CONTINUOUS
 10
155.412804528
 20
31.2713373354
 11
154.7768668074
 21
31.2713373354
  0
LINE
  8
0
 62
7
  6
CONTINUOUS
 10
151.1346793074
 20
31.3036010218
 11
151.4237418626
 21
31.3036010218
  0
LINE
  8
0
 62
7
  6
CONTINUOUS
 10
153.9674919177
 20
31.3681283946
 11
154.2565543074
 21
31.3681283946
  0
LINE
  8
0
 62
7
  6
CONTINUOUS
 10
160.6737418074
 20
31.3681283946
 11
160.9628038663
 21
31.3681283946
  0
LINE
  8
0
 62
7
  6
CONTINUOUS
 10
154.6612419177
 20
31.4971831403
 11
155.0081169177
 21
31.4971831403
  0
LINE
  8
0
 62
7
  6
CONTINUOUS
 10
159.8065543074
 20
31.4971831403
 11
160.1534293074
 21
31.4971831403
  0
LINE
  8
0
 62
7
  6
CONTINUOUS
 10
160.1534293074
 20
31.626237886
 11
159.8065543074
 21
31.626237886
  0
LINE
  8
0
 62
7
  6
CONTINUOUS
 10
158.0721793074
 20
31.626237886
 11
157.840929528
 21
31.626237886
  0
LINE
  8
0
 62
7
  6
CONTINUOUS
 10
157.320617028
 20
31.626237886
 11
157.0315543074
 21
31.626237886
  0
LINE
  8
0
 62
7
  6
CONTINUOUS
 10
156.5690540869
 20
31.626237886
 11
156.279992028
 21
31.626237886
  0
LINE
  8
0
 62
7
  6
CONTINUOUS
 10
155.0081169177
 20
31.626237886
 11
154.6612419177
 21
31.626237886
  0
LINE
  8
0
 62
7
  6
CONTINUOUS
 10
152.9268669177
 20
31.626237886
 11
152.6956168074
 21
31.626237886
  0
LINE
  8
0
 62
7
  6
CONTINUOUS
 10
156.279992028
 20
31.9488748406
 11
156.5690540869
 21
31.9488748406
  0
LINE
  8
0
 62
7
  6
CONTINUOUS
 10
156.5690540869
 20
32.1101932727
 11
156.279992028
 21
32.1101932727
  0
LINE
  8
0
 62
7
  6
CONTINUOUS
 10
152.1753043074
 20
32.1101932727
 11
151.8862417523
 21
32.1101932727
  0
LINE
  8
0
 62
7
  6
CONTINUOUS
 10
151.2130860697
 20
32.3970785186
 11
151.6256574183
 21
32.3970785186
  0
LINE
  8
0
 62
7
  6
CONTINUOUS
 10
152.852430332
 20
32.3970785186
 11
154.245872955
 21
32.3970785186
  0
LINE
  8
0
 62
7
  6
CONTINUOUS
 10
154.5737418074
 20
32.3970785186
 11
155.9671844304
 21
32.3970785186
  0
LINE
  8
0
 62
7
  6
CONTINUOUS
 10
157.852430332
 20
32.3970785186
 11
159.245872955
 21
32.3970785186
  0
LINE
  8
0
 62
7
  6
CONTINUOUS
 10
159.5737418074
 20
32.3970785186
 11
160.9671844304
 21
32.3970785186
  0
LINE
  8
0
 62
7
  6
CONTINUOUS
 10
157.6096790869
 20
31.5939741996
 11
157.4362415869
 21
31.5294468267
  0
LINE
  8
0
 62
7
  6
CONTINUOUS
 10
155.1815540869
 20
30.6260635193
 11
155.3549915869
 21
30.6905909007
  0
LINE
  8
0
 62
7
  6
CONTINUOUS
 10
160.615929528
 20
30.6260635193
 11
160.8471793074
 21
30.6905909007
  0
LINE
  8
0
 62
7
  6
CONTINUOUS
 10
160.615929528
 20
30.7873819712
 11
160.5003043074
 21
30.7551182848
  0
LINE
  8
0
 62
7
  6
CONTINUOUS
 10
159.575304528
 20
31.4649194539
 11
159.8065543074
 21
31.4971831403
  0
LINE
  8
0
 62
7
  6
CONTINUOUS
 10
157.6096790869
 20
31.4649194539
 11
157.840929528
 21
31.4971831403
  0
LINE
  8
0
 62
7
  6
CONTINUOUS
 10
154.5456166972
 20
31.1100188581
 11
154.7768668074
 21
31.1422825445
  0
LINE
  8
0
 62
7
  6
CONTINUOUS
 10
157.840929528
 20
31.626237886
 11
157.6096790869
 21
31.5939741996
  0
LINE
  8
0
 62
7
  6
CONTINUOUS
 10
154.4299918074
 20
31.4649194539
 11
154.6612419177
 21
31.4971831403
  0
LINE
  8
0
 62
7
  6
CONTINUOUS
 10
159.8065543074
 20
31.626237886
 11
159.4596793074
 21
31.5939741996
  0
LINE
  8
0
 62
7
  6
CONTINUOUS
 10
154.7768668074
 20
31.2713373354
 11
154.4299918074
 21
31.2390736489
  0
LINE
  8
0
 62
7
  6
CONTINUOUS
 10
150.5565542799
 20
31.626237886
 11
150.2096793212
 21
31.5939741996
  0
LINE
  8
0
 62
7
  6
CONTINUOUS
 10
154.6612419177
 20
31.626237886
 11
154.2565543074
 21
31.5939741996
  0
LINE
  8
0
 62
7
  6
CONTINUOUS
 10
152.0327582009
 20
33.5446195022
 11
151.3770204959
 21
33.5446195022
  0
LINE
  8
0
 62
7
  6
CONTINUOUS
 10
157.4362415869
 20
31.400392081
 11
157.6096790869
 21
31.4649194539
  0
LINE
  8
0
 62
7
  6
CONTINUOUS
 10
159.4596793074
 20
31.4326557675
 11
159.575304528
 21
31.4649194539
  0
LINE
  8
0
 62
7
  6
CONTINUOUS
 10
159.4596793074
 20
31.5939741996
 11
159.228429528
 21
31.5294468267
  0
LINE
  8
0
 62
7
  6
CONTINUOUS
 10
155.1815540869
 20
30.7873819712
 11
154.8924916972
 21
30.7228545871
  0
LINE
  8
0
 62
7
  6
CONTINUOUS
 10
152.4643666972
 20
31.4649194539
 11
152.6956168074
 21
31.4971831403
  0
LINE
  8
0
 62
7
  6
CONTINUOUS
 10
152.6956168074
 20
31.626237886
 11
152.4643666972
 21
31.5939741996
  0
LINE
  8
0
 62
7
  6
CONTINUOUS
 10
150.2674918074
 20
31.4649194539
 11
150.498741835
 21
31.4971831403
  0
LINE
  8
0
 62
7
  6
CONTINUOUS
 10
156.7868565615
 20
35.0200293383
 11
157.4425942664
 21
35.0200293383
  0
LINE
  8
0
 62
7
  6
CONTINUOUS
 10
154.4299918074
 20
31.0777551716
 11
154.5456166972
 21
31.1100188581
  0
LINE
  8
0
 62
7
  6
CONTINUOUS
 10
154.4299918074
 20
31.2390736489
 11
154.1987416972
 21
31.1745462761
  0
LINE
  8
0
 62
7
  6
CONTINUOUS
 10
154.3143669177
 20
31.4326557675
 11
154.4299918074
 21
31.4649194539
  0
LINE
  8
0
 62
7
  6
CONTINUOUS
 10
150.9612418074
 20
30.6260635193
 11
151.1924917523
 21
30.6905909007
  0
LINE
  8
0
 62
7
  6
CONTINUOUS
 10
154.2565543074
 20
31.5939741996
 11
154.1409294177
 21
31.5617105132
  0
LINE
  8
0
 62
7
  6
CONTINUOUS
 10
150.2096793212
 20
31.5939741996
 11
150.0362418212
 21
31.5617105132
  0
LINE
  8
0
 62
7
  6
CONTINUOUS
 10
160.9671844304
 20
36.1675703219
 11
159.5737418074
 21
36.1675703219
  0
LINE
  8
0
 62
7
  6
CONTINUOUS
 10
157.6065286927
 20
36.1675703219
 11
157.1939573441
 21
36.1675703219
  0
LINE
  8
0
 62
7
  6
CONTINUOUS
 10
155.9671844304
 20
36.1675703219
 11
154.5737418074
 21
36.1675703219
  0
LINE
  8
0
 62
7
  6
CONTINUOUS
 10
154.245872955
 20
36.1675703219
 11
152.852430332
 21
36.1675703219
  0
LINE
  8
0
 62
7
  6
CONTINUOUS
 10
150.9671844304
 20
36.1675703219
 11
149.5737418074
 21
36.1675703219
  0
LINE
  8
0
 62
7
  6
CONTINUOUS
 10
150.1518667936
 20
31.4326557675
 11
150.2674918074
 21
31.4649194539
  0
CIRCLE
  8
0
 62
7
  6
CONTINUOUS
 10
160.2704631189
 20
38.5036358957
 40
2.0901639344
  0
ARC
  8
0
 62
7
  6
CONTINUOUS
 10
151.2130860697
 20
34.0364227809
 40
1.6393442623
 50
180.0
 51
270.0
  0
ARC
  8
0
 62
7
  6
CONTINUOUS
 10
157.6065286927
 20
34.5282260596
 40
1.6393442623
 50
0.0
 51
90.0
  0
ARC
  8
0
 62
7
  6
CONTINUOUS
 10
151.6256574183
 20
33.8724883547
 40
1.4754098361
 50
270.0
 51
326.2510114041
  0
ARC
  8
0
 62
7
  6
CONTINUOUS
 10
157.1939573441
 20
34.6921604858
 40
1.4754098361
 50
90.0
 51
146.2510114041
  0
ARC
  8
0
 62
7
  6
CONTINUOUS
 10
152.0327582009
 20
34.3642916334
 40
0.8196721311
 50
270.0
 51
360.0
  0
ARC
  8
0
 62
7
  6
CONTINUOUS
 10
156.7868565615
 20
34.2003572071
 40
0.8196721311
 50
90.0
 51
180.0
  0
ARC
  8
0
 62
7
  6
CONTINUOUS
 10
151.3770204959
 20
33.9544555678
 40
0.4098360656
 50
180.0
 51
270.0
  0
ARC
  8
0
 62
7
  6
CONTINUOUS
 10
157.4425942664
 20
34.6101932727
 40
0.4098360656
 50
0.0
 51
90.0
  0
SOLID
  8
0
 62
7
  6
CONTINUOUS
 10
156.279992028
 20
31.9488752009
 11
156.279992028
 21
32.1101936845
 12
156.5690540869
 22
31.9488752009
 13
156.5690540869
 23
32.1101936845
  0
SOLID
  8
0
 62
7
  6
CONTINUOUS
 10
150.5565542799
 20
31.6262382337
 11
150.9612418074
 21
31.5939740028
 12
150.2096793212
 22
31.5939740028
 13
150.2096793212
 23
31.5939740028
  0
SOLID
  8
0
 62
7
  6
CONTINUOUS
 10
150.0362418212
 20
31.5617111435
 11
150.2096793212
 21
31.5939740028
 12
150.9612418074
 22
31.5939740028
 13
150.9612418074
 23
31.5939740028
  0
SOLID
  8
0
 62
7
  6
CONTINUOUS
 10
150.9612418074
 20
31.5939740028
 11
151.1924917523
 21
31.5294468402
 12
150.0362418212
 22
31.5617111435
 13
150.0362418212
 23
31.5617111435
  0
SOLID
  8
0
 62
7
  6
CONTINUOUS
 10
149.8628043005
 20
31.49718259
 11
150.0362418212
 21
31.5617111435
 12
151.1924917523
 22
31.5294468402
 13
151.1924917523
 23
31.5294468402
  0
SOLID
  8
0
 62
7
  6
CONTINUOUS
 10
149.8628043005
 20
31.49718259
 11
151.1924917523
 21
31.5294468402
 12
150.498741835
 22
31.49718259
 13
150.498741835
 23
31.49718259
  0
SOLID
  8
0
 62
7
  6
CONTINUOUS
 10
150.498741835
 20
31.49718259
 11
151.1924917523
 21
31.5294468402
 12
150.9034292799
 22
31.4649197501
 13
150.9034292799
 23
31.4649197501
  0
SOLID
  8
0
 62
7
  6
CONTINUOUS
 10
151.1924917523
 20
31.5294468402
 11
151.3659292523
 21
31.4326554468
 12
150.9034292799
 22
31.4649197501
 13
150.9034292799
 23
31.4649197501
  0
SOLID
  8
0
 62
7
  6
CONTINUOUS
 10
151.0768668626
 20
31.4003926599
 11
150.9034292799
 21
31.4649197501
 12
151.3659292523
 22
31.4326554468
 13
151.3659292523
 23
31.4326554468
  0
SOLID
  8
0
 62
7
  6
CONTINUOUS
 10
151.0768668626
 20
31.4003926599
 11
151.3659292523
 21
31.4326554468
 12
151.1346793074
 22
31.3036013776
 13
151.1346793074
 23
31.3036013776
  0
SOLID
  8
0
 62
7
  6
CONTINUOUS
 10
151.3659292523
 20
31.4326554468
 11
151.4237418626
 21
31.3036013776
 12
151.1346793074
 22
31.3036013776
 13
151.1346793074
 23
31.3036013776
  0
SOLID
  8
0
 62
7
  6
CONTINUOUS
 10
152.4643666972
 20
31.5939739754
 11
152.6956168074
 21
31.6262382787
 12
152.9268669177
 22
31.6262382787
 13
152.9268669177
 23
31.6262382787
  0
SOLID
  8
0
 62
7
  6
CONTINUOUS
 10
152.9268669177
 20
31.6262382787
 11
153.1003044177
 21
31.5939739754
 12
152.4643666972
 22
31.5939739754
 13
152.4643666972
 23
31.5939739754
  0
SOLID
  8
0
 62
7
  6
CONTINUOUS
 10
152.2909293626
 20
31.5294468852
 11
152.4643666972
 21
31.5939739754
 12
153.1003044177
 22
31.5939739754
 13
153.1003044177
 23
31.5939739754
  0
SOLID
  8
0
 62
7
  6
CONTINUOUS
 10
153.1003044177
 20
31.5939739754
 11
153.2737419177
 21
31.5294468852
 12
152.2909293626
 22
31.5294468852
 13
152.2909293626
 23
31.5294468852
  0
SOLID
  8
0
 62
7
  6
CONTINUOUS
 10
153.2737419177
 20
31.5294468852
 11
152.6956168074
 21
31.4971825369
 12
152.2909293626
 22
31.5294468852
 13
152.2909293626
 23
31.5294468852
  0
SOLID
  8
0
 62
7
  6
CONTINUOUS
 10
152.1753043074
 20
31.4649197951
 11
152.2909293626
 21
31.5294468852
 12
152.6956168074
 22
31.4971825369
 13
152.6956168074
 23
31.4971825369
  0
SOLID
  8
0
 62
7
  6
CONTINUOUS
 10
152.6956168074
 20
31.4971825369
 11
152.4643666972
 21
31.4649197951
 12
152.1753043074
 22
31.4649197951
 13
152.1753043074
 23
31.4649197951
  0
SOLID
  8
0
 62
7
  6
CONTINUOUS
 10
152.6956168074
 20
31.4971825369
 11
153.2737419177
 21
31.5294468852
 12
152.9268669177
 22
31.4649197951
 13
152.9268669177
 23
31.4649197951
  0
SOLID
  8
0
 62
7
  6
CONTINUOUS
 10
153.2737419177
 20
31.5294468852
 11
153.3893668074
 21
31.4649197951
 12
152.9268669177
 22
31.4649197951
 13
152.9268669177
 23
31.4649197951
  0
SOLID
  8
0
 62
7
  6
CONTINUOUS
 10
153.0424918074
 20
31.4326554468
 11
152.9268669177
 21
31.4649197951
 12
153.3893668074
 22
31.4649197951
 13
153.3893668074
 23
31.4649197951
  0
SOLID
  8
0
 62
7
  6
CONTINUOUS
 10
153.3893668074
 20
31.4649197951
 11
153.4471794177
 21
31.4003927049
 12
153.0424918074
 22
31.4326554468
 13
153.0424918074
 23
31.4326554468
  0
SOLID
  8
0
 62
7
  6
CONTINUOUS
 10
153.1581166972
 20
31.3681283566
 11
153.0424918074
 21
31.4326554468
 12
153.4471794177
 22
31.4003927049
 13
153.4471794177
 23
31.4003927049
  0
SOLID
  8
0
 62
7
  6
CONTINUOUS
 10
153.1581166972
 20
31.3681283566
 11
153.4471794177
 21
31.4003927049
 12
153.2159293074
 22
31.2390742213
 13
153.2159293074
 23
31.2390742213
  0
SOLID
  8
0
 62
7
  6
CONTINUOUS
 10
153.4471794177
 20
31.4003927049
 11
153.5049916972
 21
31.2390742213
 12
153.2159293074
 22
31.2390742213
 13
153.2159293074
 23
31.2390742213
  0
SOLID
  8
0
 62
7
  6
CONTINUOUS
 10
152.4643666972
 20
31.4649197951
 11
152.2909293626
 21
31.4003927049
 12
152.1753043074
 22
31.4649197951
 13
152.1753043074
 23
31.4649197951
  0
SOLID
  8
0
 62
7
  6
CONTINUOUS
 10
152.2909293626
 20
31.4003927049
 11
152.1753043074
 21
31.3358640533
 12
152.1753043074
 22
31.4649197951
 13
152.1753043074
 23
31.4649197951
  0
SOLID
  8
0
 62
7
  6
CONTINUOUS
 10
152.1753043074
 20
31.3358640533
 11
151.8862417523
 21
30.5938002869
 12
152.1753043074
 22
31.4649197951
 13
152.1753043074
 23
31.4649197951
  0
SOLID
  8
0
 62
7
  6
CONTINUOUS
 10
152.1753043074
 20
31.4649197951
 11
151.8862417523
 21
30.5938002869
 12
152.1753043074
 22
32.1101937295
 13
152.1753043074
 23
32.1101937295
  0
SOLID
  8
0
 62
7
  6
CONTINUOUS
 10
151.8862417523
 20
30.5938002869
 11
151.8862417523
 21
32.1101937295
 12
152.1753043074
 22
32.1101937295
 13
152.1753043074
 23
32.1101937295
  0
SOLID
  8
0
 62
7
  6
CONTINUOUS
 10
152.1753043074
 20
31.3358640533
 11
152.1753043074
 21
30.5938002869
 12
151.8862417523
 22
30.5938002869
 13
151.8862417523
 23
30.5938002869
  0
SOLID
  8
0
 62
7
  6
CONTINUOUS
 10
153.2159293074
 20
30.5938002869
 11
153.2159293074
 21
31.2390742213
 12
153.5049916972
 22
31.2390742213
 13
153.5049916972
 23
31.2390742213
  0
SOLID
  8
0
 62
7
  6
CONTINUOUS
 10
153.5049916972
 20
31.2390742213
 11
153.5049916972
 21
30.5938002869
 12
153.2159293074
 22
30.5938002869
 13
153.2159293074
 23
30.5938002869
  0
SOLID
  8
0
 62
7
  6
CONTINUOUS
 10
154.2565543074
 20
31.5939738288
 11
154.6612419177
 21
31.6262385959
 12
155.0081169177
 22
31.6262385959
 13
155.0081169177
 23
31.6262385959
  0
SOLID
  8
0
 62
7
  6
CONTINUOUS
 10
155.0081169177
 20
31.6262385959
 11
155.3549915869
 21
31.5939738288
 12
154.2565543074
 22
31.5939738288
 13
154.2565543074
 23
31.5939738288
  0
SOLID
  8
0
 62
7
  6
CONTINUOUS
 10
154.1409294177
 20
31.5617111435
 11
154.2565543074
 21
31.5939738288
 12
155.3549915869
 22
31.5939738288
 13
155.3549915869
 23
31.5939738288
  0
SOLID
  8
0
 62
7
  6
CONTINUOUS
 10
155.3549915869
 20
31.5939738288
 11
155.5284290869
 21
31.5294468402
 12
154.1409294177
 22
31.5617111435
 13
154.1409294177
 23
31.5617111435
  0
SOLID
  8
0
 62
7
  6
CONTINUOUS
 10
154.0253041972
 20
31.4971826249
 11
154.1409294177
 21
31.5617111435
 12
155.5284290869
 22
31.5294468402
 13
155.5284290869
 23
31.5294468402
  0
SOLID
  8
0
 62
7
  6
CONTINUOUS
 10
154.0253041972
 20
31.4971826249
 11
155.5284290869
 21
31.5294468402
 12
154.6612419177
 22
31.4971826249
 13
154.6612419177
 23
31.4971826249
  0
SOLID
  8
0
 62
7
  6
CONTINUOUS
 10
154.6612419177
 20
31.4971826249
 11
155.5284290869
 21
31.5294468402
 12
155.0081169177
 22
31.4971826249
 13
155.0081169177
 23
31.4971826249
  0
SOLID
  8
0
 62
7
  6
CONTINUOUS
 10
155.0081169177
 20
31.4971826249
 11
155.5284290869
 21
31.5294468402
 12
155.239367028
 22
31.4649194065
 13
155.239367028
 23
31.4649194065
  0
SOLID
  8
0
 62
7
  6
CONTINUOUS
 10
155.5284290869
 20
31.5294468402
 11
155.6440543074
 21
31.4649194065
 12
155.239367028
 22
31.4649194065
 13
155.239367028
 23
31.4649194065
  0
SOLID
  8
0
 62
7
  6
CONTINUOUS
 10
153.9674919177
 20
31.4326554138
 11
154.0253041972
 21
31.4971826249
 12
154.6612419177
 22
31.4971826249
 13
154.6612419177
 23
31.4971826249
  0
SOLID
  8
0
 62
7
  6
CONTINUOUS
 10
155.3549915869
 20
31.4326554138
 11
155.239367028
 21
31.4649194065
 12
155.6440543074
 22
31.4649194065
 13
155.6440543074
 23
31.4649194065
  0
SOLID
  8
0
 62
7
  6
CONTINUOUS
 10
155.3549915869
 20
31.4326554138
 11
155.6440543074
 21
31.4649194065
 12
155.412804528
 22
31.3681282026
 13
155.412804528
 23
31.3681282026
  0
SOLID
  8
0
 62
7
  6
CONTINUOUS
 10
155.6440543074
 20
31.4649194065
 11
155.7018665869
 21
31.3681282026
 12
155.412804528
 22
31.3681282026
 13
155.412804528
 23
31.3681282026
  0
SOLID
  8
0
 62
7
  6
CONTINUOUS
 10
155.412804528
 20
31.2713369632
 11
155.412804528
 21
31.3681282026
 12
155.7018665869
 22
31.3681282026
 13
155.7018665869
 23
31.3681282026
  0
SOLID
  8
0
 62
7
  6
CONTINUOUS
 10
155.412804528
 20
31.2713369632
 11
155.7018665869
 21
31.3681282026
 12
155.412804528
 22
31.1422827828
 13
155.412804528
 23
31.1422827828
  0
SOLID
  8
0
 62
7
  6
CONTINUOUS
 10
155.412804528
 20
31.1422827828
 11
155.7018665869
 21
31.3681282026
 12
155.412804528
 22
30.9487004259
 13
155.412804528
 23
30.9487004259
  0
SOLID
  8
0
 62
7
  6
CONTINUOUS
 10
155.7018665869
 20
31.3681282026
 11
155.7018665869
 21
30.8519086025
 12
155.412804528
 22
30.9487004259
 13
155.412804528
 23
30.9487004259
  0
SOLID
  8
0
 62
7
  6
CONTINUOUS
 10
157.6096790869
 20
31.5939736268
 11
157.840929528
 21
31.6262383465
 12
158.0721793074
 22
31.6262383465
 13
158.0721793074
 23
31.6262383465
  0
SOLID
  8
0
 62
7
  6
CONTINUOUS
 10
158.0721793074
 20
31.6262383465
 11
158.2456168074
 21
31.5939736268
 12
157.6096790869
 22
31.5939736268
 13
157.6096790869
 23
31.5939736268
  0
SOLID
  8
0
 62
7
  6
CONTINUOUS
 10
157.4362415869
 20
31.5294472848
 11
157.6096790869
 21
31.5939736268
 12
158.2456168074
 22
31.5939736268
 13
158.2456168074
 23
31.5939736268
  0
SOLID
  8
0
 62
7
  6
CONTINUOUS
 10
158.2456168074
 20
31.5939736268
 11
158.4190543074
 21
31.5294472848
 12
157.4362415869
 22
31.5294472848
 13
157.4362415869
 23
31.5294472848
  0
SOLID
  8
0
 62
7
  6
CONTINUOUS
 10
158.4190543074
 20
31.5294472848
 11
157.840929528
 21
31.4971825369
 12
157.4362415869
 22
31.5294472848
 13
157.4362415869
 23
31.5294472848
  0
SOLID
  8
0
 62
7
  6
CONTINUOUS
 10
157.320617028
 20
31.4649199103
 11
157.4362415869
 21
31.5294472848
 12
157.840929528
 22
31.4971825369
 13
157.840929528
 23
31.4971825369
  0
SOLID
  8
0
 62
7
  6
CONTINUOUS
 10
157.840929528
 20
31.4971825369
 11
157.6096790869
 21
31.4649199103
 12
157.320617028
 22
31.4649199103
 13
157.320617028
 23
31.4649199103
  0
SOLID
  8
0
 62
7
  6
CONTINUOUS
 10
157.840929528
 20
31.4971825369
 11
158.4190543074
 21
31.5294472848
 12
158.0721793074
 22
31.4649199103
 13
158.0721793074
 23
31.4649199103
  0
SOLID
  8
0
 62
7
  6
CONTINUOUS
 10
158.4190543074
 20
31.5294472848
 11
158.534679528
 21
31.4649199103
 12
158.0721793074
 22
31.4649199103
 13
158.0721793074
 23
31.4649199103
  0
SOLID
  8
0
 62
7
  6
CONTINUOUS
 10
158.187804528
 20
31.4326554468
 11
158.0721793074
 21
31.4649199103
 12
158.534679528
 22
31.4649199103
 13
158.534679528
 23
31.4649199103
  0
SOLID
  8
0
 62
7
  6
CONTINUOUS
 10
158.187804528
 20
31.4326554468
 11
158.534679528
 21
31.4649199103
 12
158.3034290869
 22
31.3681288486
 13
158.3034290869
 23
31.3681288486
  0
SOLID
  8
0
 62
7
  6
CONTINUOUS
 10
158.534679528
 20
31.4649199103
 11
158.5924918074
 21
31.3681288486
 12
158.3034290869
 22
31.3681288486
 13
158.3034290869
 23
31.3681288486
  0
SOLID
  8
0
 62
7
  6
CONTINUOUS
 10
158.361242028
 20
31.2068093799
 11
158.3034290869
 21
31.3681288486
 12
158.5924918074
 22
31.3681288486
 13
158.5924918074
 23
31.3681288486
  0
SOLID
  8
0
 62
7
  6
CONTINUOUS
 10
158.5924918074
 20
31.3681288486
 11
158.6503040869
 21
31.2068093799
 12
158.361242028
 22
31.2068093799
 13
158.361242028
 23
31.2068093799
  0
SOLID
  8
0
 62
7
  6
CONTINUOUS
 10
157.6096790869
 20
31.4649199103
 11
157.4362415869
 21
31.4003926599
 12
157.320617028
 22
31.4649199103
 13
157.320617028
 23
31.4649199103
  0
SOLID
  8
0
 62
7
  6
CONTINUOUS
 10
157.4362415869
 20
31.4003926599
 11
157.320617028
 21
31.3358640533
 12
157.320617028
 22
31.4649199103
 13
157.320617028
 23
31.4649199103
  0
SOLID
  8
0
 62
7
  6
CONTINUOUS
 10
157.320617028
 20
31.3358640533
 11
157.0315543074
 21
30.5938003547
 12
157.320617028
 22
31.4649199103
 13
157.320617028
 23
31.4649199103
  0
SOLID
  8
0
 62
7
  6
CONTINUOUS
 10
157.320617028
 20
31.4649199103
 11
157.0315543074
 21
30.5938003547
 12
157.320617028
 22
31.6262383465
 13
157.320617028
 23
31.6262383465
  0
SOLID
  8
0
 62
7
  6
CONTINUOUS
 10
157.0315543074
 20
30.5938003547
 11
157.0315543074
 21
31.6262383465
 12
157.320617028
 22
31.6262383465
 13
157.320617028
 23
31.6262383465
  0
SOLID
  8
0
 62
7
  6
CONTINUOUS
 10
157.320617028
 20
31.3358640533
 11
157.320617028
 21
30.5938003547
 12
157.0315543074
 22
30.5938003547
 13
157.0315543074
 23
30.5938003547
  0
SOLID
  8
0
 62
7
  6
CONTINUOUS
 10
158.361242028
 20
30.5938003547
 11
158.361242028
 21
31.2068093799
 12
158.6503040869
 22
31.2068093799
 13
158.6503040869
 23
31.2068093799
  0
SOLID
  8
0
 62
7
  6
CONTINUOUS
 10
158.6503040869
 20
31.2068093799
 11
158.6503040869
 21
30.5938003547
 12
158.361242028
 22
30.5938003547
 13
158.361242028
 23
30.5938003547
  0
SOLID
  8
0
 62
7
  6
CONTINUOUS
 10
159.4596793074
 20
31.5939739474
 11
159.8065543074
 21
31.6262381969
 12
160.1534293074
 22
31.6262381969
 13
160.1534293074
 23
31.6262381969
  0
SOLID
  8
0
 62
7
  6
CONTINUOUS
 10
160.1534293074
 20
31.6262381969
 11
160.5003043074
 21
31.5939739474
 12
159.4596793074
 22
31.5939739474
 13
159.4596793074
 23
31.5939739474
  0
SOLID
  8
0
 62
7
  6
CONTINUOUS
 10
159.228429528
 20
31.5294468402
 11
159.4596793074
 21
31.5939739474
 12
160.5003043074
 22
31.5939739474
 13
160.5003043074
 23
31.5939739474
  0
SOLID
  8
0
 62
7
  6
CONTINUOUS
 10
159.228429528
 20
31.5294468402
 11
160.5003043074
 21
31.5939739304
 12
160.6737418074
 22
31.5617111435
 13
160.6737418074
 23
31.5617111435
  0
SOLID
  8
0
 62
7
  6
CONTINUOUS
 10
159.228429528
 20
31.5294468402
 11
160.6737418074
 21
31.5617111435
 12
159.8065543074
 22
31.4971825592
 13
159.8065543074
 23
31.4971825592
  0
SOLID
  8
0
 62
7
  6
CONTINUOUS
 10
159.8065543074
 20
31.4971825592
 11
160.6737418074
 21
31.5617111435
 12
160.1534293074
 22
31.4971825592
 13
160.1534293074
 23
31.4971825592
  0
SOLID
  8
0
 62
7
  6
CONTINUOUS
 10
160.6737418074
 20
31.5617111435
 11
160.8471793074
 21
31.4971825592
 12
160.1534293074
 22
31.4971825592
 13
160.1534293074
 23
31.4971825592
  0
SOLID
  8
0
 62
7
  6
CONTINUOUS
 10
160.5003043074
 20
31.4649197501
 11
160.1534293074
 21
31.4971825592
 12
160.8471793074
 22
31.4971825592
 13
160.8471793074
 23
31.4971825592
  0
SOLID
  8
0
 62
7
  6
CONTINUOUS
 10
159.1128043074
 20
31.4326555427
 11
159.228429528
 21
31.5294468402
 12
159.8065543074
 22
31.4971825592
 13
159.8065543074
 23
31.4971825592
  0
SOLID
  8
0
 62
7
  6
CONTINUOUS
 10
160.5003043074
 20
31.4649197501
 11
160.8471793074
 21
31.4971825592
 12
160.615929528
 22
31.4326555427
 13
160.615929528
 23
31.4326555427
  0
SOLID
  8
0
 62
7
  6
CONTINUOUS
 10
160.615929528
 20
31.4326555427
 11
160.8471793074
 21
31.4971825592
 12
160.6737418074
 22
31.3681283005
 13
160.6737418074
 23
31.3681283005
  0
SOLID
  8
0
 62
7
  6
CONTINUOUS
 10
160.8471793074
 20
31.4971825592
 11
160.9628038663
 21
31.3681283005
 12
160.6737418074
 22
31.3681283005
 13
160.6737418074
 23
31.3681283005
  0
SOLID
  8
0
 62
7
  6
CONTINUOUS
 10
150.2674918074
 20
31.4649197501
 11
149.7471793074
 21
31.4326554237
 12
150.498741835
 22
31.4971824493
 13
150.498741835
 23
31.4971824493
  0
SOLID
  8
0
 62
7
  6
CONTINUOUS
 10
149.7471793074
 20
31.4326554237
 11
149.8628043005
 21
31.4971824493
 12
150.498741835
 22
31.4971824493
 13
150.498741835
 23
31.4971824493
  0
SOLID
  8
0
 62
7
  6
CONTINUOUS
 10
150.2674918074
 20
31.4649197501
 11
150.1518667936
 21
31.4326554237
 12
149.7471793074
 22
31.4326554237
 13
149.7471793074
 23
31.4326554237
  0
SOLID
  8
0
 62
7
  6
CONTINUOUS
 10
149.6315543091
 20
31.3036012664
 11
149.7471793074
 21
31.4326554237
 12
150.1518667936
 22
31.4326554237
 13
150.1518667936
 23
31.4326554237
  0
SOLID
  8
0
 62
7
  6
CONTINUOUS
 10
153.9674919177
 20
31.4326554237
 11
154.6612419177
 21
31.4971825369
 12
154.4299918074
 22
31.4649197501
 13
154.4299918074
 23
31.4649197501
  0
SOLID
  8
0
 62
7
  6
CONTINUOUS
 10
154.4299918074
 20
31.4649197501
 11
154.3143669177
 21
31.4326554237
 12
153.9674919177
 22
31.4326554237
 13
153.9674919177
 23
31.4326554237
  0
SOLID
  8
0
 62
7
  6
CONTINUOUS
 10
153.9674919177
 20
31.3681283335
 11
153.9674919177
 21
31.4326554237
 12
154.3143669177
 22
31.4326554237
 13
154.3143669177
 23
31.4326554237
  0
SOLID
  8
0
 62
7
  6
CONTINUOUS
 10
154.3143669177
 20
31.4326554237
 11
154.2565543074
 21
31.3681283335
 12
153.9674919177
 22
31.3681283335
 13
153.9674919177
 23
31.3681283335
  0
SOLID
  8
0
 62
7
  6
CONTINUOUS
 10
159.1128043074
 20
31.4326555528
 11
159.8065543074
 21
31.4971825369
 12
159.575304528
 22
31.4649197501
 13
159.575304528
 23
31.4649197501
  0
SOLID
  8
0
 62
7
  6
CONTINUOUS
 10
159.575304528
 20
31.4649197501
 11
159.4596793074
 21
31.4326555528
 12
159.1128043074
 22
31.4326555528
 13
159.1128043074
 23
31.4326555528
  0
SOLID
  8
0
 62
7
  6
CONTINUOUS
 10
159.1128043074
 20
31.3681284626
 11
159.1128043074
 21
31.4326555528
 12
159.4596793074
 22
31.4326555528
 13
159.4596793074
 23
31.4326555528
  0
SOLID
  8
0
 62
7
  6
CONTINUOUS
 10
159.4596793074
 20
31.4326555528
 11
159.401867028
 21
31.3681284626
 12
159.1128043074
 22
31.3681284626
 13
159.1128043074
 23
31.3681284626
  0
SOLID
  8
0
 62
7
  6
CONTINUOUS
 10
159.228429528
 20
31.2390741763
 11
159.1128043074
 21
31.3681284626
 12
159.401867028
 22
31.3681284626
 13
159.401867028
 23
31.3681284626
  0
SOLID
  8
0
 62
7
  6
CONTINUOUS
 10
149.6315543091
 20
31.3036012664
 11
150.1518667936
 21
31.4326554468
 12
149.9784292936
 22
31.3358640533
 13
149.9784292936
 23
31.3358640533
  0
SOLID
  8
0
 62
7
  6
CONTINUOUS
 10
149.9784292936
 20
31.3358640533
 11
149.9206168074
 21
31.2713369632
 12
149.6315543091
 22
31.3036012664
 13
149.6315543091
 23
31.3036012664
  0
SOLID
  8
0
 62
7
  6
CONTINUOUS
 10
149.5737418074
 20
31.1100184796
 11
149.6315543091
 21
31.3036012664
 12
149.9206168074
 22
31.2713369632
 13
149.9206168074
 23
31.2713369632
  0
SOLID
  8
0
 62
7
  6
CONTINUOUS
 10
154.4299918074
 20
31.2390741763
 11
154.7768668074
 21
31.271336924
 12
155.412804528
 22
31.271336924
 13
155.412804528
 23
31.271336924
  0
SOLID
  8
0
 62
7
  6
CONTINUOUS
 10
154.4299918074
 20
31.2390741763
 11
155.412804528
 21
31.271336924
 12
154.1987416972
 22
31.1745462761
 13
154.1987416972
 23
31.1745462761
  0
SOLID
  8
0
 62
7
  6
CONTINUOUS
 10
154.1987416972
 20
31.1745462761
 11
155.412804528
 21
31.271336924
 12
154.7768668074
 22
31.1422827436
 13
154.7768668074
 23
31.1422827436
  0
SOLID
  8
0
 62
7
  6
CONTINUOUS
 10
155.412804528
 20
31.271336924
 11
155.412804528
 21
31.1422827436
 12
154.7768668074
 22
31.1422827436
 13
154.7768668074
 23
31.1422827436
  0
SOLID
  8
0
 62
7
  6
CONTINUOUS
 10
159.228429528
 20
31.2390745501
 11
159.401867028
 21
31.3681283566
 12
159.4596793074
 22
31.3036012664
 13
159.4596793074
 23
31.3036012664
  0
SOLID
  8
0
 62
7
  6
CONTINUOUS
 10
159.4596793074
 20
31.3036012664
 11
159.6331168074
 21
31.2390745501
 12
159.228429528
 22
31.2390745501
 13
159.228429528
 23
31.2390745501
  0
SOLID
  8
0
 62
7
  6
CONTINUOUS
 10
159.4596793074
 20
31.1422827828
 11
159.228429528
 21
31.2390745501
 12
159.6331168074
 22
31.2390745501
 13
159.6331168074
 23
31.2390745501
  0
SOLID
  8
0
 62
7
  6
CONTINUOUS
 10
159.6331168074
 20
31.2390745501
 11
160.615929528
 21
31.0777556927
 12
159.4596793074
 22
31.1422827828
 13
159.4596793074
 23
31.1422827828
  0
SOLID
  8
0
 62
7
  6
CONTINUOUS
 10
160.442492028
 20
30.9809646623
 11
159.4596793074
 21
31.1422827828
 12
160.615929528
 22
31.0777556927
 13
160.615929528
 23
31.0777556927
  0
SOLID
  8
0
 62
7
  6
CONTINUOUS
 10
160.615929528
 20
31.0777556927
 11
160.8471793074
 21
30.9809646623
 12
160.442492028
 22
30.9809646623
 13
160.442492028
 23
30.9809646623
  0
SOLID
  8
0
 62
7
  6
CONTINUOUS
 10
160.615929528
 20
30.9164372091
 11
160.442492028
 21
30.9809646623
 12
160.8471793074
 22
30.9809646623
 13
160.8471793074
 23
30.9809646623
  0
SOLID
  8
0
 62
7
  6
CONTINUOUS
 10
160.615929528
 20
30.9164372091
 11
160.8471793074
 21
30.9809646623
 12
160.6737418074
 22
30.8519089441
 13
160.6737418074
 23
30.8519089441
  0
SOLID
  8
0
 62
7
  6
CONTINUOUS
 10
160.8471793074
 20
30.9809646623
 11
160.9628038663
 21
30.8519089441
 12
160.6737418074
 22
30.8519089441
 13
160.6737418074
 23
30.8519089441
  0
SOLID
  8
0
 62
7
  6
CONTINUOUS
 10
160.615929528
 20
30.7873818593
 11
160.6737418074
 21
30.8519089441
 12
160.9628038663
 22
30.8519089441
 13
160.9628038663
 23
30.8519089441
  0
SOLID
  8
0
 62
7
  6
CONTINUOUS
 10
160.9628038663
 20
30.8519089441
 11
160.9628038663
 21
30.7873818593
 12
160.615929528
 22
30.7873818593
 13
160.615929528
 23
30.7873818593
  0
SOLID
  8
0
 62
7
  6
CONTINUOUS
 10
160.5003043074
 20
30.7551187255
 11
160.615929528
 21
30.7873818593
 12
160.9628038663
 22
30.7873818593
 13
160.9628038663
 23
30.7873818593
  0
SOLID
  8
0
 62
7
  6
CONTINUOUS
 10
160.5003043074
 20
30.7551187255
 11
160.9628038663
 21
30.7873818593
 12
160.269054528
 22
30.7228547745
 13
160.269054528
 23
30.7228547745
  0
SOLID
  8
0
 62
7
  6
CONTINUOUS
 10
160.9628038663
 20
30.7873818593
 11
160.8471793074
 21
30.6905916353
 12
160.269054528
 22
30.7228547745
 13
160.269054528
 23
30.7228547745
  0
SOLID
  8
0
 62
7
  6
CONTINUOUS
 10
160.8471793074
 20
30.6905916353
 11
159.401867028
 21
30.658327332
 12
160.269054528
 22
30.7228547745
 13
160.269054528
 23
30.7228547745
  0
SOLID
  8
0
 62
7
  6
CONTINUOUS
 10
160.269054528
 20
30.7228547745
 11
159.401867028
 21
30.658327332
 12
159.922179528
 22
30.7228547745
 13
159.922179528
 23
30.7228547745
  0
SOLID
  8
0
 62
7
  6
CONTINUOUS
 10
159.401867028
 20
30.658327332
 11
159.228429528
 21
30.7228547745
 12
159.922179528
 22
30.7228547745
 13
159.922179528
 23
30.7228547745
  0
SOLID
  8
0
 62
7
  6
CONTINUOUS
 10
159.401867028
 20
30.658327332
 11
160.8471793074
 21
30.6905916353
 12
159.575304528
 22
30.6260629858
 13
159.575304528
 23
30.6260629858
  0
SOLID
  8
0
 62
7
  6
CONTINUOUS
 10
160.8471793074
 20
30.6905916353
 11
160.615929528
 21
30.6260629858
 12
159.575304528
 22
30.6260629858
 13
159.575304528
 23
30.6260629858
  0
SOLID
  8
0
 62
7
  6
CONTINUOUS
 10
159.922179528
 20
30.5938006049
 11
159.575304528
 21
30.6260629858
 12
160.615929528
 22
30.6260629858
 13
160.615929528
 23
30.6260629858
  0
SOLID
  8
0
 62
7
  6
CONTINUOUS
 10
160.615929528
 20
30.6260629858
 11
160.269054528
 21
30.5938006049
 12
159.922179528
 22
30.5938006049
 13
159.922179528
 23
30.5938006049
  0
SOLID
  8
0
 62
7
  6
CONTINUOUS
 10
149.5737418074
 20
31.1100184796
 11
149.9206168074
 21
31.2713369632
 12
149.8628043005
 22
31.1422827828
 13
149.8628043005
 23
31.1422827828
  0
SOLID
  8
0
 62
7
  6
CONTINUOUS
 10
149.8628043005
 20
31.1422827828
 11
149.8628043005
 21
31.0454914852
 12
149.5737418074
 22
31.1100184796
 13
149.5737418074
 23
31.1100184796
  0
SOLID
  8
0
 62
7
  6
CONTINUOUS
 10
149.6315543091
 20
30.9164372091
 11
149.5737418074
 21
31.1100184796
 12
149.8628043005
 22
31.0454914852
 13
149.8628043005
 23
31.0454914852
  0
SOLID
  8
0
 62
7
  6
CONTINUOUS
 10
149.8628043005
 20
31.0454914852
 11
149.9784292936
 21
30.8841729058
 12
149.6315543091
 22
30.9164372091
 13
149.6315543091
 23
30.9164372091
  0
SOLID
  8
0
 62
7
  6
CONTINUOUS
 10
149.7471793074
 20
30.7873813202
 11
149.6315543091
 21
30.9164372091
 12
149.9784292936
 22
30.8841729058
 13
149.9784292936
 23
30.8841729058
  0
SOLID
  8
0
 62
7
  6
CONTINUOUS
 10
149.9784292936
 20
30.8841729058
 11
150.1518667936
 21
30.7873813202
 12
149.7471793074
 22
30.7873813202
 13
149.7471793074
 23
30.7873813202
  0
SOLID
  8
0
 62
7
  6
CONTINUOUS
 10
149.8628043005
 20
30.7228547004
 11
149.7471793074
 21
30.7873813202
 12
150.1518667936
 22
30.7873813202
 13
150.1518667936
 23
30.7873813202
  0
SOLID
  8
0
 62
7
  6
CONTINUOUS
 10
150.1518667936
 20
30.7873813202
 11
150.498741835
 21
30.7228547004
 12
149.8628043005
 22
30.7228547004
 13
149.8628043005
 23
30.7228547004
  0
SOLID
  8
0
 62
7
  6
CONTINUOUS
 10
150.0362418212
 20
30.658327332
 11
149.8628043005
 21
30.7228547004
 12
150.498741835
 22
30.7228547004
 13
150.498741835
 23
30.7228547004
  0
SOLID
  8
0
 62
7
  6
CONTINUOUS
 10
154.0831168074
 20
31.1100184386
 11
154.1987416972
 21
31.1745462761
 12
154.7768668074
 22
31.1422827828
 13
154.7768668074
 23
31.1422827828
  0
SOLID
  8
0
 62
7
  6
CONTINUOUS
 10
154.7768668074
 20
31.1422827828
 11
154.5456166972
 21
31.1100184386
 12
154.0831168074
 22
31.1100184386
 13
154.0831168074
 23
31.1100184386
  0
SOLID
  8
0
 62
7
  6
CONTINUOUS
 10
153.9674919177
 20
30.9809642992
 11
154.0831168074
 21
31.1100184386
 12
154.5456166972
 22
31.1100184386
 13
154.5456166972
 23
31.1100184386
  0
SOLID
  8
0
 62
7
  6
CONTINUOUS
 10
154.3143669177
 20
31.0132277988
 11
153.9674919177
 21
30.9809642992
 12
154.4299918074
 22
31.0777556927
 13
154.4299918074
 23
31.0777556927
  0
SOLID
  8
0
 62
7
  6
CONTINUOUS
 10
153.9674919177
 20
30.9809642992
 11
154.5456166972
 21
31.1100184796
 12
154.4299918074
 22
31.0777556927
 13
154.4299918074
 23
31.0777556927
  0
SOLID
  8
0
 62
7
  6
CONTINUOUS
 10
154.3143669177
 20
31.0132277988
 11
154.2565543074
 21
30.9164372091
 12
153.9674919177
 22
30.9809642992
 13
153.9674919177
 23
30.9809642992
  0
SOLID
  8
0
 62
7
  6
CONTINUOUS
 10
153.9674919177
 20
30.8841729058
 11
153.9674919177
 21
30.9809642992
 12
154.2565543074
 22
30.9164372091
 13
154.2565543074
 23
30.9164372091
  0
SOLID
  8
0
 62
7
  6
CONTINUOUS
 10
154.2565543074
 20
30.9164372091
 11
154.2565543074
 21
30.8519086025
 12
153.9674919177
 22
30.8841729058
 13
153.9674919177
 23
30.8841729058
  0
SOLID
  8
0
 62
7
  6
CONTINUOUS
 10
154.0253041972
 20
30.7551187255
 11
153.9674919177
 21
30.8841729058
 12
154.2565543074
 22
30.8519086025
 13
154.2565543074
 23
30.8519086025
  0
SOLID
  8
0
 62
7
  6
CONTINUOUS
 10
155.412804528
 20
30.9487004259
 11
155.7018665869
 21
30.8519086025
 12
155.3549915869
 22
30.8841729058
 13
155.3549915869
 23
30.8841729058
  0
SOLID
  8
0
 62
7
  6
CONTINUOUS
 10
155.1815540869
 20
30.7873815123
 11
155.3549915869
 21
30.8841729058
 12
155.7018665869
 22
30.8519086025
 13
155.7018665869
 23
30.8519086025
  0
SOLID
  8
0
 62
7
  6
CONTINUOUS
 10
155.1815540869
 20
30.7873815123
 11
155.7018665869
 21
30.8519086025
 12
155.412804528
 22
30.7551187255
 13
155.412804528
 23
30.7551187255
  0
SOLID
  8
0
 62
7
  6
CONTINUOUS
 10
155.7018665869
 20
30.8519086025
 11
155.759679528
 21
30.6905916353
 12
155.412804528
 22
30.7551187255
 13
155.412804528
 23
30.7551187255
  0
SOLID
  8
0
 62
7
  6
CONTINUOUS
 10
155.4706168074
 20
30.658327332
 11
155.412804528
 21
30.7551187255
 12
155.759679528
 22
30.6905916353
 13
155.759679528
 23
30.6905916353
  0
SOLID
  8
0
 62
7
  6
CONTINUOUS
 10
155.4706168074
 20
30.658327332
 11
155.759679528
 21
30.6905916353
 12
155.5284290869
 22
30.5938002079
 13
155.5284290869
 23
30.5938002079
  0
SOLID
  8
0
 62
7
  6
CONTINUOUS
 10
155.759679528
 20
30.6905916353
 11
155.8174918074
 21
30.5938002079
 12
155.5284290869
 22
30.5938002079
 13
155.5284290869
 23
30.5938002079
  0
SOLID
  8
0
 62
7
  6
CONTINUOUS
 10
151.0768668626
 20
30.8196456577
 11
151.1346793074
 21
30.9164373395
 12
151.4237418626
 22
30.9164373395
 13
151.4237418626
 23
30.9164373395
  0
SOLID
  8
0
 62
7
  6
CONTINUOUS
 10
151.4237418626
 20
30.9164373395
 11
151.3659292523
 21
30.7873815123
 12
151.0768668626
 22
30.8196456577
 13
151.0768668626
 23
30.8196456577
  0
SOLID
  8
0
 62
7
  6
CONTINUOUS
 10
150.9034292799
 20
30.7551187255
 11
151.0768668626
 21
30.8196456577
 12
151.3659292523
 22
30.7873815123
 13
151.3659292523
 23
30.7873815123
  0
SOLID
  8
0
 62
7
  6
CONTINUOUS
 10
150.9034292799
 20
30.7551187255
 11
151.3659292523
 21
30.7873815123
 12
150.498741835
 22
30.7228544222
 13
150.498741835
 23
30.7228544222
  0
SOLID
  8
0
 62
7
  6
CONTINUOUS
 10
151.3659292523
 20
30.7873815123
 11
151.1924917523
 21
30.6905916353
 12
150.498741835
 22
30.7228544222
 13
150.498741835
 23
30.7228544222
  0
SOLID
  8
0
 62
7
  6
CONTINUOUS
 10
150.0362418212
 20
30.658327332
 11
150.498741835
 21
30.7228544222
 12
151.1924917523
 22
30.6905916353
 13
151.1924917523
 23
30.6905916353
  0
SOLID
  8
0
 62
7
  6
CONTINUOUS
 10
150.0362418212
 20
30.658327332
 11
151.1924917523
 21
30.6905916353
 12
150.2096793212
 22
30.6260631011
 13
150.2096793212
 23
30.6260631011
  0
SOLID
  8
0
 62
7
  6
CONTINUOUS
 10
151.1924917523
 20
30.6905916353
 11
150.9612418074
 21
30.6260631011
 12
150.2096793212
 22
30.6260631011
 13
150.2096793212
 23
30.6260631011
  0
SOLID
  8
0
 62
7
  6
CONTINUOUS
 10
150.5565542799
 20
30.5938002419
 11
150.2096793212
 21
30.6260631011
 12
150.9612418074
 22
30.6260631011
 13
150.9612418074
 23
30.6260631011
  0
SOLID
  8
0
 62
7
  6
CONTINUOUS
 10
154.0253041972
 20
30.7551187255
 11
154.2565543074
 21
30.8519086025
 12
154.3143669177
 22
30.7873815123
 13
154.3143669177
 23
30.7873815123
  0
SOLID
  8
0
 62
7
  6
CONTINUOUS
 10
154.3143669177
 20
30.7873815123
 11
154.5456166972
 21
30.7228544222
 12
154.0253041972
 22
30.7551187255
 13
154.0253041972
 23
30.7551187255
  0
SOLID
  8
0
 62
7
  6
CONTINUOUS
 10
154.1987416972
 20
30.658327332
 11
154.0253041972
 21
30.7551187255
 12
154.5456166972
 22
30.7228544222
 13
154.5456166972
 23
30.7228544222
  0
SOLID
  8
0
 62
7
  6
CONTINUOUS
 10
154.8924916972
 20
30.7228544637
 11
155.1815540869
 21
30.7873815123
 12
155.412804528
 22
30.7551187255
 13
155.412804528
 23
30.7551187255
  0
SOLID
  8
0
 62
7
  6
CONTINUOUS
 10
155.412804528
 20
30.7551187255
 11
155.3549915869
 21
30.6905916353
 12
154.8924916972
 22
30.7228544637
 13
154.8924916972
 23
30.7228544637
  0
SOLID
  8
0
 62
7
  6
CONTINUOUS
 10
155.3549915869
 20
30.6905916353
 11
154.1987416972
 21
30.658327332
 12
154.8924916972
 22
30.7228544637
 13
154.8924916972
 23
30.7228544637
  0
SOLID
  8
0
 62
7
  6
CONTINUOUS
 10
154.1987416972
 20
30.658327332
 11
154.5456166972
 21
30.7228544637
 12
154.8924916972
 22
30.7228544637
 13
154.8924916972
 23
30.7228544637
  0
SOLID
  8
0
 62
7
  6
CONTINUOUS
 10
154.1987416972
 20
30.658327332
 11
155.3549915869
 21
30.6905916353
 12
154.3143669177
 22
30.6260630541
 13
154.3143669177
 23
30.6260630541
  0
SOLID
  8
0
 62
7
  6
CONTINUOUS
 10
155.3549915869
 20
30.6905916353
 11
155.1815540869
 21
30.6260630541
 12
154.3143669177
 22
30.6260630541
 13
154.3143669177
 23
30.6260630541
  0
SOLID
  8
0
 62
7
  6
CONTINUOUS
 10
154.5456166972
 20
30.5938002188
 11
154.3143669177
 21
30.6260630541
 12
155.1815540869
 22
30.6260630541
 13
155.1815540869
 23
30.6260630541
  0
SOLID
  8
0
 62
7
  6
CONTINUOUS
 10
155.1815540869
 20
30.6260630541
 11
154.8924916972
 21
30.5938002188
 12
154.5456166972
 22
30.5938002188
 13
154.5456166972
 23
30.5938002188
  0
SOLID
  8
0
 62
7
  6
CONTINUOUS
 10
159.575304528
 20
30.7551187255
 11
159.228429528
 21
30.7228544637
 12
159.4596793074
 22
30.7873815123
 13
159.4596793074
 23
30.7873815123
  0
SOLID
  8
0
 62
7
  6
CONTINUOUS
 10
159.4596793074
 20
30.7873815123
 11
159.228429528
 21
30.7228544637
 12
159.401867028
 22
30.851908644
 13
159.401867028
 23
30.851908644
  0
SOLID
  8
0
 62
7
  6
CONTINUOUS
 10
159.228429528
 20
30.7228544637
 11
159.1128043074
 21
30.851908644
 12
159.401867028
 22
30.851908644
 13
159.401867028
 23
30.851908644
  0
SOLID
  8
0
 62
7
  6
CONTINUOUS
 10
159.575304528
 20
30.7551187255
 11
159.922179528
 21
30.7228544637
 12
159.228429528
 22
30.7228544637
 13
159.228429528
 23
30.7228544637
  0
SOLID
  8
0
 62
7
  6
CONTINUOUS
 10
156.279992028
 20
30.5938002419
 11
156.279992028
 21
31.6262382337
 12
156.5690540869
 22
30.5938002419
 13
156.5690540869
 23
31.6262382337
  0
ENDBLK
  8
0
  6
BYBLOCK
 62
0
  0
BLOCK
  8
0
 62
2
  6
CONTINUOUS
  2
SYMBOL_3_BL0
 70
64
 10
32.1213064866
 20
19.8534310916
  0
TEXT
  8
0
 62
7
  6
CONTINUOUS
 10
18.3860103289
 20
19.2268451992
  7
TEXTSTYLE_3
 40
2.7338706658
  1
Ammeraal Beltech
 41
1.0
 51
15.0
 72
0
  0
TEXT
  8
0
 62
7
  6
CONTINUOUS
 10
29.1868111546
 20
16.9533085264
  7
TEXTSTYLE_4
 40
1.0935482663
  1
Innovation & Service in Belting
 41
1.0
 72
0
  0
LINE
  8
0
 62
7
  6
CONTINUOUS
 10
12.3614696776
 20
19.9934385078
 11
13.1396216709
 21
23.6543558055
  0
LINE
  8
0
 62
7
  6
CONTINUOUS
 10
23.2347899607
 20
27.3177497171
 11
13.6274394139
 21
24.1961322958
  0
LINE
  8
0
 62
7
  6
CONTINUOUS
 10
12.5867530099
 20
19.3000877048
 11
20.093828271
 21
12.5406867788
  0
LINE
  8
0
 62
7
  6
CONTINUOUS
 10
12.8492874206
 20
20.5352149982
 11
23.6575567857
 21
24.0470345971
  0
LINE
  8
0
 62
7
  6
CONTINUOUS
 10
23.6533516486
 20
13.6972460334
 11
15.2078919798
 21
21.3015720751
  0
LINE
  8
0
 62
7
  6
CONTINUOUS
 10
24.1731743684
 20
26.4728246013
 11
23.1966148312
 21
21.8784731989
  0
LINE
  8
0
 62
7
  6
CONTINUOUS
 10
22.4968128835
 20
18.5861638851
 11
21.810364672
 21
15.3566789607
  0
LINE
  8
0
 62
7
  6
CONTINUOUS
 10
24.8542704669
 20
14.087448211
 11
25.8105020025
 21
18.5861638851
  0
LINE
  8
0
 62
7
  6
CONTINUOUS
 10
26.5103039502
 20
21.8784731989
 11
26.9545457526
 21
23.9684665583
  0
LINE
  8
0
 62
7
  6
CONTINUOUS
 10
20.8069293463
 20
12.3891124661
 11
24.3664527239
 21
13.5456717207
  0
LINE
  8
0
 62
7
  6
CONTINUOUS
 10
23.9478910361
 20
27.1661754044
 11
26.7292624203
 21
24.6618173613
  0
ARC
  8
0
 62
7
  6
CONTINUOUS
 10
13.8527227462
 20
23.5027814928
 40
0.7290321776
 50
108.0
 51
168.0
  0
ARC
  8
0
 62
7
  6
CONTINUOUS
 10
23.4600732931
 20
26.624398914
 40
0.7290321776
 50
348.0
 51
108.0
  0
ARC
  8
0
 62
7
  6
CONTINUOUS
 10
26.2414446773
 20
24.120040871
 40
0.7290321776
 50
348.0
 51
48.0
  0
ARC
  8
0
 62
7
  6
CONTINUOUS
 10
20.581646014
 20
13.0824632691
 40
0.7290321776
 50
228.0
 51
288.0
  0
ARC
  8
0
 62
7
  6
CONTINUOUS
 10
13.0745707529
 20
19.8418641951
 40
0.7290321776
 50
108.0
 51
228.0
  0
ARC
  8
0
 62
7
  6
CONTINUOUS
 10
24.1411693916
 20
14.2390225237
 40
0.7290321776
 50
228.0
 51
348.0
  0
ENDBLK
  8
0
  6
BYBLOCK
 62
0
  0
ENDSEC
  0
SECTION
  2
ENTITIES
  0
TEXT
  8
0
 62
5
  6
CONTINUOUS
 10
96.0
 20
25.636
  7
TEXTSTYLE_2
 40
2.8
  1
Scale :
 41
0.6
 51
0.000019
 72
0
  0
TEXT
  8
0
 62
5
  6
CONTINUOUS
 10
116.0
 20
25.636
  7
TEXTSTYLE_2
 40
2.8
  1
Belt type:
 41
0.6
 51
0.000019
 72
0
  0
INSERT
  8
0
 62
2
  6
CONTINUOUS
  2
SYMBOL_3_BL0
 10
32.1213064866
 20
19.8534310916
  0
INSERT
  8
0
 62
2
  6
CONTINUOUS
  2
SYMBOL_8_BL1
 10
173.5956734183
 20
35.5937998301
  0
LINE
  8
0
 62
2
  6
CONTINUOUS
 10
10.0
 20
30.0
 11
200.0
 21
30.0
  0
LINE
  8
0
 62
2
  6
CONTINUOUS
 10
10.0
 20
30.0
 11
10.0
 21
10.0
  0
LINE
  8
0
 62
2
  6
CONTINUOUS
 10
10.0
 20
10.0
 11
200.0
 21
10.0
  0
LINE
  8
0
 62
2
  6
CONTINUOUS
 10
95.0
 20
30.0
 11
95.0
 21
10.0
  0
LINE
  8
0
 62
2
  6
CONTINUOUS
 10
115.0
 20
30.0
 11
115.0
 21
10.0
  0
LINE
  8
0
 62
2
  6
CONTINUOUS
 10
200.0
 20
30.0
 11
200.0
 21
10.0
  0
TEXT
  8
0
 62
5
  6
CONTINUOUS
 10
13.0
 20
23.303
  7
TEXTSTYLE_5
 40
1.52
  1
                                                                     Ammeraal Beltech Modular A/S
 41
1.0
 72
0
  0
TEXT
  8
0
 62
5
  6
CONTINUOUS
 10
13.0
 20
20.595
  7
TEXTSTYLE_5
 40
1.5
  1
                                                                      Hjulmagervej 21,  7100 Vejle,  DK
 41
1.0
 72
0
  0
TEXT
  8
0
 62
5
  6
CONTINUOUS
 10
13.0
 20
17.881
  7
TEXTSTYLE_5
 40
1.495
  1
                                                                      tel: 
 41
1.0
 72
0
  0
TEXT
  8
0
 62
5
  6
CONTINUOUS
 10
57.9869465649
 20
17.881
  7
TEXTSTYLE_5
 40
1.51
  1
+45 75723100     fax: +45 75723348
 41
1.0
 72
0
  0
TEXT
  8
0
 62
5
  6
CONTINUOUS
 10
13.0
 20
15.177
  7
TEXTSTYLE_5
 40
1.5
  1
                                                                      admin@unichains.dk  www.unichains.com
 41
1.0
 72
0
  0
TEXT
  8
0
 62
5
  6
CONTINUOUS
 10
99.75
 20
13.75
  7
TEXTSTYLE_6
 40
5.0
  1
1:1
 41
0.7
 72
1
 11
105.0
 21
13.75
  0
TEXT
  8
0
 62
5
  6
CONTINUOUS
 10
118.0
 20
13.75
  7
TEXTSTYLE_7
 40
7.5
  1
uni SSB K600
 41
0.6847222222
 72
0
  0
LINE
  8
0
 62
7
  6
CONTINUOUS
 10
210.0
 20
0.0
 11
0.0
 21
0.0
  0
LINE
  8
0
 62
7
  6
CONTINUOUS
 10
10.0
 20
10.0
 11
200.0
 21
10.0
  0
LINE
  8
0
 62
7
  6
CONTINUOUS
 10
10.0
 20
30.0
 11
200.0
 21
30.0
  0
LINE
  8
0
 62
7
  6
CONTINUOUS
 10
0.0
 20
0.0
 11
0.0
 21
297.0
  0
LINE
  8
0
 62
7
  6
CONTINUOUS
 10
10.0
 20
10.0
 11
10.0
 21
287.0
  0
LINE
  8
0
 62
7
  6
CONTINUOUS
 10
200.0
 20
287.0
 11
200.0
 21
10.0
  0
LINE
  8
0
 62
7
  6
CONTINUOUS
 10
210.0
 20
0.0
 11
210.0
 21
297.0
  0
LINE
  8
0
 62
7
  6
CONTINUOUS
 10
10.0
 20
287.0
 11
200.0
 21
287.0
  0
LINE
  8
0
 62
7
  6
CONTINUOUS
 10
0.0
 20
297.0
 11
210.0
 21
297.0
  0
LINE
  8
4_SURFACE
 62
7
  6
CONTINUOUS
 10
15.853242861
 20
94.6110964072
 11
15.853242861
 21
133.2110956705
  0
LINE
  8
4_SURFACE
 62
7
  6
CONTINUOUS
 10
19.3952649908
 20
95.3144528234
 11
19.3700938852
 21
94.593646668
  0
LINE
  8
4_SURFACE
 62
7
  6
CONTINUOUS
 10
25.2860704696
 20
95.3821925028
 11
25.2916965569
 21
95.3673405867
  0
LINE
  8
4_SURFACE
 62
7
  6
CONTINUOUS
 10
25.2916965569
 20
95.3673405867
 11
25.2984878423
 21
95.3491715945
  0
LINE
  8
4_SURFACE
 62
7
  6
CONTINUOUS
 10
25.2984878423
 20
95.3491715945
 11
25.307299597
 21
95.3252328897
  0
LINE
  8
4_SURFACE
 62
7
  6
CONTINUOUS
 10
25.307299597
 20
95.3252328897
 11
25.3179591302
 21
95.2957871302
  0
LINE
  8
4_SURFACE
 62
7
  6
CONTINUOUS
 10
25.3179591302
 20
95.2957871302
 11
25.3303017442
 21
95.2611462944
  0
LINE
  8
4_SURFACE
 62
7
  6
CONTINUOUS
 10
25.3303017442
 20
95.2611462944
 11
25.380629121
 21
95.1176061538
  0
LINE
  8
4_SURFACE
 62
7
  6
CONTINUOUS
 10
25.3112205456
 20
95.314458137
 11
25.3363918368
 21
94.593646668
  0
LINE
  8
4_SURFACE
 62
7
  6
CONTINUOUS
 10
28.3909857738
 20
98.9514182687
 11
28.3944391645
 21
103.6110956705
  0
LINE
  8
4_SURFACE
 62
7
  6
CONTINUOUS
 10
28.848242863
 20
143.0341288915
 11
28.8383382379
 21
142.4834883262
  0
LINE
  8
4_SURFACE
 62
7
  6
CONTINUOUS
 10
28.856502244
 20
143.3956891822
 11
28.848242863
 21
143.0341288915
  0
LINE
  8
4_SURFACE
 62
7
  6
CONTINUOUS
 10
28.8627812992
 20
143.6241391652
 11
28.856502244
 21
143.3956891822
  0
LINE
  8
4_SURFACE
 62
7
  6
CONTINUOUS
 10
28.8690712534
 20
143.8187610761
 11
28.8627812992
 21
143.6241391652
  0
LINE
  8
4_SURFACE
 62
7
  6
CONTINUOUS
 10
28.873250222
 20
143.9310335007
 11
28.8690712534
 21
143.8187610761
  0
LINE
  8
4_SURFACE
 62
7
  6
CONTINUOUS
 10
28.8774089881
 20
144.0303209216
 11
28.873250222
 21
143.9310335007
  0
LINE
  8
4_SURFACE
 62
7
  6
CONTINUOUS
 10
28.8815469623
 20
144.1175241802
 11
28.8774089881
 21
144.0303209216
  0
POLYLINE
  8
4_SURFACE
 62
7
  6
CONTINUOUS
 66
1
 70
0
  0
VERTEX
  8
4_SURFACE
 62
7
  6
CONTINUOUS
 10
28.8120431646
 20
135.4110956707
  0
VERTEX
  8
4_SURFACE
 62
7
  6
CONTINUOUS
 10
28.807185585
 20
135.3230477798
  0
VERTEX
  8
4_SURFACE
 62
7
  6
CONTINUOUS
 10
28.7812298959
 20
135.1912211129
  0
VERTEX
  8
4_SURFACE
 62
7
  6
CONTINUOUS
 10
28.7335680023
 20
135.065583334
  0
VERTEX
  8
4_SURFACE
 62
7
  6
CONTINUOUS
 10
28.6655416054
 20
134.9496882422
  0
VERTEX
  8
4_SURFACE
 62
7
  6
CONTINUOUS
 10
28.5790700036
 20
134.8468093775
  0
VERTEX
  8
4_SURFACE
 62
7
  6
CONTINUOUS
 10
28.4765884381
 20
134.7598478737
  0
VERTEX
  8
4_SURFACE
 62
7
  6
CONTINUOUS
 10
28.3609849646
 20
134.6912595235
  0
VERTEX
  8
4_SURFACE
 62
7
  6
CONTINUOUS
 10
28.2355266503
 20
134.6429859986
  0
VERTEX
  8
4_SURFACE
 62
7
  6
CONTINUOUS
 10
28.1037647457
 20
134.6163906989
  0
VERTEX
  8
4_SURFACE
 62
7
  6
CONTINUOUS
 10
28.0276561922
 20
134.6112553943
  0
SEQEND
  0
POLYLINE
  8
4_SURFACE
 62
7
  6
CONTINUOUS
 66
1
 70
0
  0
VERTEX
  8
4_SURFACE
 62
7
  6
CONTINUOUS
 10
28.8121227099
 20
135.4110956705
  0
VERTEX
  8
4_SURFACE
 62
7
  6
CONTINUOUS
 10
28.8026044841
 20
135.2880777473
  0
VERTEX
  8
4_SURFACE
 62
7
  6
CONTINUOUS
 10
28.7735675079
 20
135.1657760746
  0
VERTEX
  8
4_SURFACE
 62
7
  6
CONTINUOUS
 10
28.7252619731
 20
135.0486181572
  0
VERTEX
  8
4_SURFACE
 62
7
  6
CONTINUOUS
 10
28.65921673
 20
134.9407750028
  0
VERTEX
  8
4_SURFACE
 62
7
  6
CONTINUOUS
 10
28.5777098803
 20
134.8453923025
  0
VERTEX
  8
4_SURFACE
 62
7
  6
CONTINUOUS
 10
28.4822754774
 20
134.7639093766
  0
VERTEX
  8
4_SURFACE
 62
7
  6
CONTINUOUS
 10
28.3743539339
 20
134.69787771
  0
VERTEX
  8
4_SURFACE
 62
7
  6
CONTINUOUS
 10
28.2571415431
 20
134.6496020349
  0
VERTEX
  8
4_SURFACE
 62
7
  6
CONTINUOUS
 10
28.1348312785
 20
134.6205986084
  0
VERTEX
  8
4_SURFACE
 62
7
  6
CONTINUOUS
 10
28.0276542944
 20
134.6112517166
  0
SEQEND
  0
LINE
  8
4_SURFACE
 62
7
  6
CONTINUOUS
 10
28.8154999482
 20
140.0707730724
 11
28.8120465575
 21
135.4110956705
  0
LINE
  8
4_SURFACE
 62
7
  6
CONTINUOUS
 10
28.382118154
 20
97.6729807202
 11
28.3909857738
 21
98.9514182687
  0
LINE
  8
4_SURFACE
 62
7
  6
CONTINUOUS
 10
28.8243675679
 20
141.3492106209
 11
28.8154999482
 21
140.0707730724
  0
LINE
  8
4_SURFACE
 62
7
  6
CONTINUOUS
 10
28.8345824618
 20
142.2304878732
 11
28.8243675679
 21
141.3492106209
  0
LINE
  8
4_SURFACE
 62
7
  6
CONTINUOUS
 10
28.3719032602
 20
96.7917034678
 11
28.382118154
 21
97.6729807202
  0
LINE
  8
4_SURFACE
 62
7
  6
CONTINUOUS
 10
28.8383382379
 20
142.4834883262
 11
28.8345824618
 21
142.2304878732
  0
LINE
  8
4_SURFACE
 62
7
  6
CONTINUOUS
 10
28.3622784159
 20
96.1947332503
 11
28.3719032602
 21
96.7917034678
  0
LINE
  8
4_SURFACE
 62
7
  6
CONTINUOUS
 10
28.3541371951
 20
95.7988603708
 11
28.3622784159
 21
96.1947332503
  0
LINE
  8
4_SURFACE
 62
7
  6
CONTINUOUS
 10
28.3458010275
 20
95.470314013
 11
28.3541371951
 21
95.7988603708
  0
LINE
  8
4_SURFACE
 62
7
  6
CONTINUOUS
 10
28.3395095688
 20
95.2647073141
 11
28.3458010275
 21
95.470314013
  0
LINE
  8
4_SURFACE
 62
7
  6
CONTINUOUS
 10
28.3332355
 20
95.0911578404
 11
28.3395095688
 21
95.2647073141
  0
LINE
  8
4_SURFACE
 62
7
  6
CONTINUOUS
 10
28.3290767339
 20
94.9918704194
 11
28.3332355
 21
95.0911578404
  0
LINE
  8
4_SURFACE
 62
7
  6
CONTINUOUS
 10
28.3249387597
 20
94.9046671609
 11
28.3290767339
 21
94.9918704194
  0
POLYLINE
  8
4_SURFACE
 62
7
  6
CONTINUOUS
 66
1
 70
0
  0
VERTEX
  8
4_SURFACE
 62
7
  6
CONTINUOUS
 10
28.3944425573
 20
103.6110956704
  0
VERTEX
  8
4_SURFACE
 62
7
  6
CONTINUOUS
 10
28.399300137
 20
103.6991435612
  0
VERTEX
  8
4_SURFACE
 62
7
  6
CONTINUOUS
 10
28.4252558261
 20
103.8309702282
  0
VERTEX
  8
4_SURFACE
 62
7
  6
CONTINUOUS
 10
28.4729177197
 20
103.956608007
  0
VERTEX
  8
4_SURFACE
 62
7
  6
CONTINUOUS
 10
28.5409441166
 20
104.0725030988
  0
VERTEX
  8
4_SURFACE
 62
7
  6
CONTINUOUS
 10
28.6274157183
 20
104.1753819635
  0
VERTEX
  8
4_SURFACE
 62
7
  6
CONTINUOUS
 10
28.7298972838
 20
104.2623434674
  0
VERTEX
  8
4_SURFACE
 62
7
  6
CONTINUOUS
 10
28.8455007574
 20
104.3309318175
  0
VERTEX
  8
4_SURFACE
 62
7
  6
CONTINUOUS
 10
28.9709590716
 20
104.3792053424
  0
VERTEX
  8
4_SURFACE
 62
7
  6
CONTINUOUS
 10
29.1027209762
 20
104.4058006421
  0
VERTEX
  8
4_SURFACE
 62
7
  6
CONTINUOUS
 10
29.1788295298
 20
104.4109359468
  0
SEQEND
  0
POLYLINE
  8
4_SURFACE
 62
7
  6
CONTINUOUS
 66
1
 70
0
  0
VERTEX
  8
4_SURFACE
 62
7
  6
CONTINUOUS
 10
28.3943630121
 20
103.6110956705
  0
VERTEX
  8
4_SURFACE
 62
7
  6
CONTINUOUS
 10
28.4038812379
 20
103.7341135938
  0
VERTEX
  8
4_SURFACE
 62
7
  6
CONTINUOUS
 10
28.432918214
 20
103.8564152664
  0
VERTEX
  8
4_SURFACE
 62
7
  6
CONTINUOUS
 10
28.4812237489
 20
103.9735731838
  0
VERTEX
  8
4_SURFACE
 62
7
  6
CONTINUOUS
 10
28.547268992
 20
104.0814163382
  0
VERTEX
  8
4_SURFACE
 62
7
  6
CONTINUOUS
 10
28.6287758416
 20
104.1767990386
  0
SEQEND
  0
LINE
  8
4_SURFACE
 62
7
  6
CONTINUOUS
 10
19.3258565854
 20
95.1176061059
 11
19.3774777838
 21
95.2648002182
  0
LINE
  8
4_SURFACE
 62
7
  6
CONTINUOUS
 10
19.3774777838
 20
95.2648002182
 11
19.3902660569
 21
95.3006252366
  0
LINE
  8
4_SURFACE
 62
7
  6
CONTINUOUS
 10
19.3902660569
 20
95.3006252366
 11
19.400401901
 21
95.3285587839
  0
LINE
  8
4_SURFACE
 62
7
  6
CONTINUOUS
 10
19.400401901
 20
95.3285587839
 11
19.4074631697
 21
95.347730375
  0
LINE
  8
4_SURFACE
 62
7
  6
CONTINUOUS
 10
19.4074631697
 20
95.347730375
 11
19.4147971775
 21
95.3673618774
  0
LINE
  8
4_SURFACE
 62
7
  6
CONTINUOUS
 10
19.4147971775
 20
95.3673618774
 11
19.4204151174
 21
95.3821921554
  0
POLYLINE
  8
4_SURFACE
 62
7
  6
CONTINUOUS
 66
1
 70
0
  0
VERTEX
  8
4_SURFACE
 62
7
  6
CONTINUOUS
 10
19.4204192695
 20
95.3822076319
  0
VERTEX
  8
4_SURFACE
 62
7
  6
CONTINUOUS
 10
19.4224974655
 20
95.3875792147
  0
VERTEX
  8
4_SURFACE
 62
7
  6
CONTINUOUS
 10
19.43407012
 20
95.4150687689
  0
VERTEX
  8
4_SURFACE
 62
7
  6
CONTINUOUS
 10
19.4471131583
 20
95.4424837263
  0
VERTEX
  8
4_SURFACE
 62
7
  6
CONTINUOUS
 10
19.4614440626
 20
95.4696144206
  0
VERTEX
  8
4_SURFACE
 62
7
  6
CONTINUOUS
 10
19.4769032092
 20
95.4962937572
  0
VERTEX
  8
4_SURFACE
 62
7
  6
CONTINUOUS
 10
19.4933979171
 20
95.5224654431
  0
VERTEX
  8
4_SURFACE
 62
7
  6
CONTINUOUS
 10
19.5108547084
 20
95.5480870623
  0
VERTEX
  8
4_SURFACE
 62
7
  6
CONTINUOUS
 10
19.5292027086
 20
95.573095728
  0
VERTEX
  8
4_SURFACE
 62
7
  6
CONTINUOUS
 10
19.5483858573
 20
95.5974367559
  0
VERTEX
  8
4_SURFACE
 62
7
  6
CONTINUOUS
 10
19.5684032816
 20
95.6211098602
  0
VERTEX
  8
4_SURFACE
 62
7
  6
CONTINUOUS
 10
19.5892712027
 20
95.6441080946
  0
VERTEX
  8
4_SURFACE
 62
7
  6
CONTINUOUS
 10
19.6110093487
 20
95.6663995143
  0
VERTEX
  8
4_SURFACE
 62
7
  6
CONTINUOUS
 10
19.6336828107
 20
95.6879685688
  0
VERTEX
  8
4_SURFACE
 62
7
  6
CONTINUOUS
 10
19.657331299
 20
95.7087515113
  0
VERTEX
  8
4_SURFACE
 62
7
  6
CONTINUOUS
 10
19.6819765956
 20
95.728621976
  0
VERTEX
  8
4_SURFACE
 62
7
  6
CONTINUOUS
 10
19.7077771692
 20
95.7475392274
  0
VERTEX
  8
4_SURFACE
 62
7
  6
CONTINUOUS
 10
19.7346126305
 20
95.7652100237
  0
VERTEX
  8
4_SURFACE
 62
7
  6
CONTINUOUS
 10
19.7627974375
 20
95.781561548
  0
VERTEX
  8
4_SURFACE
 62
7
  6
CONTINUOUS
 10
19.7923115054
 20
95.7962664314
  0
VERTEX
  8
4_SURFACE
 62
7
  6
CONTINUOUS
 10
19.8234827923
 20
95.8089986923
  0
VERTEX
  8
4_SURFACE
 62
7
  6
CONTINUOUS
 10
19.8562427115
 20
95.8192062121
  0
VERTEX
  8
4_SURFACE
 62
7
  6
CONTINUOUS
 10
19.890870925
 20
95.8262070777
  0
VERTEX
  8
4_SURFACE
 62
7
  6
CONTINUOUS
 10
19.9266518441
 20
95.8291205103
  0
VERTEX
  8
4_SURFACE
 62
7
  6
CONTINUOUS
 10
19.931538916
 20
95.8291601929
  0
SEQEND
  0
LINE
  8
4_SURFACE
 62
7
  6
CONTINUOUS
 10
54.2026044841
 20
103.7341135938
 11
54.2121227099
 21
103.6110956705
  0
LINE
  8
4_SURFACE
 62
7
  6
CONTINUOUS
 10
53.8038812379
 20
135.2880777473
 11
53.7943630121
 21
135.4110956705
  0
POLYLINE
  8
4_SURFACE
 62
7
  6
CONTINUOUS
 66
1
 70
0
  0
VERTEX
  8
4_SURFACE
 62
7
  6
CONTINUOUS
 10
54.2850542505
 20
94.8393161895
  0
VERTEX
  8
4_SURFACE
 62
7
  6
CONTINUOUS
 10
54.2873332382
 20
94.8008689825
  0
VERTEX
  8
4_SURFACE
 62
7
  6
CONTINUOUS
 10
54.2896277498
 20
94.7652345412
  0
VERTEX
  8
4_SURFACE
 62
7
  6
CONTINUOUS
 10
54.2919481022
 20
94.7322273955
  0
VERTEX
  8
4_SURFACE
 62
7
  6
CONTINUOUS
 10
54.2943074124
 20
94.7016667054
  0
VERTEX
  8
4_SURFACE
 62
7
  6
CONTINUOUS
 10
54.2967261933
 20
94.6733284304
  0
VERTEX
  8
4_SURFACE
 62
7
  6
CONTINUOUS
 10
54.2992390049
 20
94.6469108686
  0
VERTEX
  8
4_SURFACE
 62
7
  6
CONTINUOUS
 10
54.301903787
 20
94.6220102284
  0
VERTEX
  8
4_SURFACE
 62
7
  6
CONTINUOUS
 10
54.3048199408
 20
94.5980713528
  0
VERTEX
  8
4_SURFACE
 62
7
  6
CONTINUOUS
 10
54.3081668214
 20
94.5742859874
  0
VERTEX
  8
4_SURFACE
 62
7
  6
CONTINUOUS
 10
54.3122648539
 20
94.5495366056
  0
VERTEX
  8
4_SURFACE
 62
7
  6
CONTINUOUS
 10
54.3176698457
 20
94.5224074411
  0
VERTEX
  8
4_SURFACE
 62
7
  6
CONTINUOUS
 10
54.3254919686
 20
94.490621921
  0
VERTEX
  8
4_SURFACE
 62
7
  6
CONTINUOUS
 10
54.3378766565
 20
94.4511081494
  0
VERTEX
  8
4_SURFACE
 62
7
  6
CONTINUOUS
 10
54.3581040014
 20
94.4019282896
  0
VERTEX
  8
4_SURFACE
 62
7
  6
CONTINUOUS
 10
54.3894931672
 20
94.344918641
  0
VERTEX
  8
4_SURFACE
 62
7
  6
CONTINUOUS
 10
54.4347009214
 20
94.2843113058
  0
VERTEX
  8
4_SURFACE
 62
7
  6
CONTINUOUS
 10
54.4968305823
 20
94.2241060557
  0
VERTEX
  8
4_SURFACE
 62
7
  6
CONTINUOUS
 10
54.5768597195
 20
94.1707397855
  0
VERTEX
  8
4_SURFACE
 62
7
  6
CONTINUOUS
 10
54.6713285848
 20
94.1318537456
  0
VERTEX
  8
4_SURFACE
 62
7
  6
CONTINUOUS
 10
54.7740746162
 20
94.1127009939
  0
VERTEX
  8
4_SURFACE
 62
7
  6
CONTINUOUS
 10
54.8141661314
 20
94.1110971782
  0
SEQEND
  0
LINE
  8
4_SURFACE
 62
7
  6
CONTINUOUS
 10
54.2805188278
 20
94.9252910707
 11
54.2850542505
 21
94.8393161895
  0
LINE
  8
4_SURFACE
 62
7
  6
CONTINUOUS
 10
53.7259668942
 20
144.0969002703
 11
53.7214314715
 21
144.1828751516
  0
LINE
  8
4_SURFACE
 62
7
  6
CONTINUOUS
 10
54.2759943763
 20
95.0242985796
 11
54.2805188278
 21
94.9252910707
  0
LINE
  8
4_SURFACE
 62
7
  6
CONTINUOUS
 10
53.7304913456
 20
143.9978927614
 11
53.7259668942
 21
144.0969002703
  0
LINE
  8
4_SURFACE
 62
7
  6
CONTINUOUS
 10
54.2714747499
 20
95.1372787267
 11
54.2759943763
 21
95.0242985796
  0
LINE
  8
4_SURFACE
 62
7
  6
CONTINUOUS
 10
53.7350109721
 20
143.8849126143
 11
53.7304913456
 21
143.9978927614
  0
LINE
  8
4_SURFACE
 62
7
  6
CONTINUOUS
 10
54.2647169353
 20
95.334709699
 11
54.2714747499
 21
95.1372787267
  0
LINE
  8
4_SURFACE
 62
7
  6
CONTINUOUS
 10
53.7417687867
 20
143.687481642
 11
53.7350109721
 21
143.8849126143
  0
LINE
  8
4_SURFACE
 62
7
  6
CONTINUOUS
 10
54.2580219076
 20
95.5678298915
 11
54.2647169353
 21
95.334709699
  0
LINE
  8
4_SURFACE
 62
7
  6
CONTINUOUS
 10
53.7484638144
 20
143.4543614495
 11
53.7417687867
 21
143.687481642
  0
LINE
  8
4_SURFACE
 62
7
  6
CONTINUOUS
 10
54.2492583236
 20
95.9393980656
 11
54.2580219076
 21
95.5678298915
  0
LINE
  8
4_SURFACE
 62
7
  6
CONTINUOUS
 10
53.7572273984
 20
143.0827932754
 11
53.7484638144
 21
143.4543614495
  0
LINE
  8
4_SURFACE
 62
7
  6
CONTINUOUS
 10
54.2387523788
 20
96.5125134044
 11
54.2492583236
 21
95.9393980656
  0
LINE
  8
4_SURFACE
 62
7
  6
CONTINUOUS
 10
53.7677333431
 20
142.5096779366
 11
53.7572273984
 21
143.0827932754
  0
LINE
  8
4_SURFACE
 62
7
  6
CONTINUOUS
 10
54.2273378672
 20
97.3790828593
 11
54.2387523788
 21
96.5125134044
  0
LINE
  8
4_SURFACE
 62
7
  6
CONTINUOUS
 10
53.7791478547
 20
141.6431084817
 11
53.7677333431
 21
142.5096779366
  0
LINE
  8
4_SURFACE
 62
7
  6
CONTINUOUS
 10
53.7882940164
 20
140.5614554497
 11
53.7791478547
 21
141.6431084817
  0
LINE
  8
4_SURFACE
 62
7
  6
CONTINUOUS
 10
54.2181917056
 20
98.4607358913
 11
54.2273378672
 21
97.3790828593
  0
LINE
  8
4_SURFACE
 62
7
  6
CONTINUOUS
 10
53.7941400597
 20
139.0087801563
 11
53.7882940164
 21
140.5614554497
  0
LINE
  8
4_SURFACE
 62
7
  6
CONTINUOUS
 10
54.2123456623
 20
100.0134111847
 11
54.2181917056
 21
98.4607358913
  0
LINE
  8
4_SURFACE
 62
7
  6
CONTINUOUS
 10
53.7941400597
 20
139.0087801563
 11
53.7944391645
 21
135.4110956705
  0
LINE
  8
4_SURFACE
 62
7
  6
CONTINUOUS
 10
54.2123456623
 20
100.0134111847
 11
54.2120465575
 21
103.6110956705
  0
POLYLINE
  8
4_SURFACE
 62
7
  6
CONTINUOUS
 66
1
 70
0
  0
VERTEX
  8
4_SURFACE
 62
7
  6
CONTINUOUS
 10
54.05921673
 20
104.0814163382
  0
VERTEX
  8
4_SURFACE
 62
7
  6
CONTINUOUS
 10
54.1252619731
 20
103.9735731838
  0
VERTEX
  8
4_SURFACE
 62
7
  6
CONTINUOUS
 10
54.1735675079
 20
103.8564152664
  0
VERTEX
  8
4_SURFACE
 62
7
  6
CONTINUOUS
 10
54.2026044841
 20
103.7341135938
  0
SEQEND
  0
POLYLINE
  8
4_SURFACE
 62
7
  6
CONTINUOUS
 66
1
 70
0
  0
VERTEX
  8
4_SURFACE
 62
7
  6
CONTINUOUS
 10
53.7214314715
 20
144.1828751516
  0
VERTEX
  8
4_SURFACE
 62
7
  6
CONTINUOUS
 10
53.7191524838
 20
144.2213223585
  0
VERTEX
  8
4_SURFACE
 62
7
  6
CONTINUOUS
 10
53.7168579722
 20
144.2569567998
  0
VERTEX
  8
4_SURFACE
 62
7
  6
CONTINUOUS
 10
53.7145376198
 20
144.2899639456
  0
VERTEX
  8
4_SURFACE
 62
7
  6
CONTINUOUS
 10
53.7121783096
 20
144.3205246356
  0
VERTEX
  8
4_SURFACE
 62
7
  6
CONTINUOUS
 10
53.7097595287
 20
144.3488629106
  0
VERTEX
  8
4_SURFACE
 62
7
  6
CONTINUOUS
 10
53.7072467171
 20
144.3752804725
  0
VERTEX
  8
4_SURFACE
 62
7
  6
CONTINUOUS
 10
53.704581935
 20
144.4001811127
  0
VERTEX
  8
4_SURFACE
 62
7
  6
CONTINUOUS
 10
53.7016657812
 20
144.4241199882
  0
VERTEX
  8
4_SURFACE
 62
7
  6
CONTINUOUS
 10
53.6983189006
 20
144.4479053536
  0
VERTEX
  8
4_SURFACE
 62
7
  6
CONTINUOUS
 10
53.6942208681
 20
144.4726547355
  0
VERTEX
  8
4_SURFACE
 62
7
  6
CONTINUOUS
 10
53.6888158763
 20
144.4997838999
  0
VERTEX
  8
4_SURFACE
 62
7
  6
CONTINUOUS
 10
53.6809937534
 20
144.53156942
  0
VERTEX
  8
4_SURFACE
 62
7
  6
CONTINUOUS
 10
53.6686090655
 20
144.5710831917
  0
VERTEX
  8
4_SURFACE
 62
7
  6
CONTINUOUS
 10
53.6483817206
 20
144.6202630515
  0
VERTEX
  8
4_SURFACE
 62
7
  6
CONTINUOUS
 10
53.6169925548
 20
144.6772727
  0
VERTEX
  8
4_SURFACE
 62
7
  6
CONTINUOUS
 10
53.5717848006
 20
144.7378800352
  0
VERTEX
  8
4_SURFACE
 62
7
  6
CONTINUOUS
 10
53.5096551397
 20
144.7980852853
  0
VERTEX
  8
4_SURFACE
 62
7
  6
CONTINUOUS
 10
53.4296260025
 20
144.8514515556
  0
VERTEX
  8
4_SURFACE
 62
7
  6
CONTINUOUS
 10
53.3351571372
 20
144.8903375954
  0
VERTEX
  8
4_SURFACE
 62
7
  6
CONTINUOUS
 10
53.2324111058
 20
144.9094903471
  0
VERTEX
  8
4_SURFACE
 62
7
  6
CONTINUOUS
 10
53.1923195906
 20
144.9110941629
  0
SEQEND
  0
POLYLINE
  8
0
 62
7
  6
CONTINUOUS
 66
1
 70
0
  0
VERTEX
  8
0
 62
7
  6
CONTINUOUS
 10
129.0923194769
 20
94.1110971783
  0
VERTEX
  8
0
 62
7
  6
CONTINUOUS
 10
129.1384342354
 20
94.1132202489
  0
VERTEX
  8
0
 62
7
  6
CONTINUOUS
 10
129.2394740369
 20
94.1331564988
  0
VERTEX
  8
0
 62
7
  6
CONTINUOUS
 10
129.3307513372
 20
94.1713452611
  0
VERTEX
  8
0
 62
7
  6
CONTINUOUS
 10
129.4078979301
 20
94.2226804906
  0
VERTEX
  8
0
 62
7
  6
CONTINUOUS
 10
129.4686152137
 20
94.2806986502
  0
VERTEX
  8
0
 62
7
  6
CONTINUOUS
 10
129.5137011477
 20
94.3398121162
  0
VERTEX
  8
0
 62
7
  6
CONTINUOUS
 10
129.545187788
 20
94.395274397
  0
VERTEX
  8
0
 62
7
  6
CONTINUOUS
 10
129.5657512994
 20
94.4432394625
  0
VERTEX
  8
0
 62
7
  6
CONTINUOUS
 10
129.5788528536
 20
94.4830180581
  0
VERTEX
  8
0
 62
7
  6
CONTINUOUS
 10
129.5872845125
 20
94.5155961307
  0
VERTEX
  8
0
 62
7
  6
CONTINUOUS
 10
129.593092149
 20
94.5434162173
  0
VERTEX
  8
0
 62
7
  6
CONTINUOUS
 10
129.5974263653
 20
94.5685227838
  0
VERTEX
  8
0
 62
7
  6
CONTINUOUS
 10
129.6009446032
 20
94.5926347516
  0
VERTEX
  8
0
 62
7
  6
CONTINUOUS
 10
129.6039934697
 20
94.6169139796
  0
VERTEX
  8
0
 62
7
  6
CONTINUOUS
 10
129.6067606362
 20
94.642137895
  0
VERTEX
  8
0
 62
7
  6
CONTINUOUS
 10
129.6093592836
 20
94.6689196686
  0
VERTEX
  8
0
 62
7
  6
CONTINUOUS
 10
129.6118580327
 20
94.6977438011
  0
VERTEX
  8
0
 62
7
  6
CONTINUOUS
 10
129.6142980094
 20
94.7289878242
  0
VERTEX
  8
0
 62
7
  6
CONTINUOUS
 10
129.6167041062
 20
94.7629527395
  0
VERTEX
  8
0
 62
7
  6
CONTINUOUS
 10
129.6190915729
 20
94.7998836165
  0
VERTEX
  8
0
 62
7
  6
CONTINUOUS
 10
129.6214697354
 20
94.8399882801
  0
VERTEX
  8
0
 62
7
  6
CONTINUOUS
 10
129.6262161657
 20
94.9303937919
  0
SEQEND
  0
LINE
  8
0
 62
7
  6
CONTINUOUS
 10
156.1142099307
 20
94.1110964701
 11
156.1141631283
 21
94.1110956772
  0
LINE
  8
4_SURFACE
 62
7
  6
CONTINUOUS
 10
27.7922757912
 20
94.1110964701
 11
27.7923227295
 21
94.1110956768
  0
POLYLINE
  8
4_SURFACE
 62
7
  6
CONTINUOUS
 66
1
 70
0
  0
VERTEX
  8
4_SURFACE
 62
7
  6
CONTINUOUS
 10
24.7749473838
 20
95.8291602014
  0
VERTEX
  8
4_SURFACE
 62
7
  6
CONTINUOUS
 10
24.8128423307
 20
95.8265962764
  0
VERTEX
  8
4_SURFACE
 62
7
  6
CONTINUOUS
 10
24.8476334304
 20
95.819870859
  0
VERTEX
  8
4_SURFACE
 62
7
  6
CONTINUOUS
 10
24.8805230061
 20
95.8098884459
  0
VERTEX
  8
4_SURFACE
 62
7
  6
CONTINUOUS
 10
24.9118312939
 20
95.7973231823
  0
VERTEX
  8
4_SURFACE
 62
7
  6
CONTINUOUS
 10
24.9414463062
 20
95.7827666407
  0
VERTEX
  8
4_SURFACE
 62
7
  6
CONTINUOUS
 10
24.9697473288
 20
95.766521413
  0
VERTEX
  8
4_SURFACE
 62
7
  6
CONTINUOUS
 10
24.9966806194
 20
95.7489462041
  0
VERTEX
  8
4_SURFACE
 62
7
  6
CONTINUOUS
 10
25.0225810417
 20
95.730101308
  0
VERTEX
  8
4_SURFACE
 62
7
  6
CONTINUOUS
 10
25.0473294075
 20
95.7102849167
  0
VERTEX
  8
4_SURFACE
 62
7
  6
CONTINUOUS
 10
25.0710741184
 20
95.6895460317
  0
VERTEX
  8
4_SURFACE
 62
7
  6
CONTINUOUS
 10
25.0938441655
 20
95.6680081499
  0
VERTEX
  8
4_SURFACE
 62
7
  6
CONTINUOUS
 10
25.1156709422
 20
95.6457454362
  0
VERTEX
  8
4_SURFACE
 62
7
  6
CONTINUOUS
 10
25.1366231019
 20
95.6227720088
  0
VERTEX
  8
4_SURFACE
 62
7
  6
CONTINUOUS
 10
25.1567203239
 20
95.5991224535
  0
VERTEX
  8
4_SURFACE
 62
7
  6
CONTINUOUS
 10
25.1759794979
 20
95.5748053091
  0
VERTEX
  8
4_SURFACE
 62
7
  6
CONTINUOUS
 10
25.1944007844
 20
95.5498219399
  0
VERTEX
  8
4_SURFACE
 62
7
  6
CONTINUOUS
 10
25.2119278536
 20
95.5242296381
  0
VERTEX
  8
4_SURFACE
 62
7
  6
CONTINUOUS
 10
25.2284953098
 20
95.4980858643
  0
VERTEX
  8
4_SURFACE
 62
7
  6
CONTINUOUS
 10
25.2440319288
 20
95.4714312589
  0
VERTEX
  8
4_SURFACE
 62
7
  6
CONTINUOUS
 10
25.2584481515
 20
95.4443175156
  0
VERTEX
  8
4_SURFACE
 62
7
  6
CONTINUOUS
 10
25.27158911
 20
95.4169027127
  0
VERTEX
  8
4_SURFACE
 62
7
  6
CONTINUOUS
 10
25.2832721859
 20
95.3893943288
  0
VERTEX
  8
4_SURFACE
 62
7
  6
CONTINUOUS
 10
25.2860657445
 20
95.3822094364
  0
SEQEND
  0
POLYLINE
  8
4_SURFACE
 62
7
  6
CONTINUOUS
 66
1
 70
0
  0
VERTEX
  8
4_SURFACE
 62
7
  6
CONTINUOUS
 10
78.4923202619
 20
94.1110965824
  0
VERTEX
  8
4_SURFACE
 62
7
  6
CONTINUOUS
 10
78.5384477731
 20
94.1132208676
  0
VERTEX
  8
4_SURFACE
 62
7
  6
CONTINUOUS
 10
78.6394932275
 20
94.1331616921
  0
VERTEX
  8
4_SURFACE
 62
7
  6
CONTINUOUS
 10
78.7307706596
 20
94.1713549589
  0
VERTEX
  8
4_SURFACE
 62
7
  6
CONTINUOUS
 10
78.8079144514
 20
94.2226930914
  0
VERTEX
  8
4_SURFACE
 62
7
  6
CONTINUOUS
 10
78.8686285837
 20
94.2807130297
  0
VERTEX
  8
4_SURFACE
 62
7
  6
CONTINUOUS
 10
78.9137121792
 20
94.3398283783
  0
VERTEX
  8
4_SURFACE
 62
7
  6
CONTINUOUS
 10
78.9451963644
 20
94.3952914799
  0
VERTEX
  8
4_SURFACE
 62
7
  6
CONTINUOUS
 10
78.965757209
 20
94.443255155
  0
VERTEX
  8
4_SURFACE
 62
7
  6
CONTINUOUS
 10
78.9788563527
 20
94.4830303253
  0
VERTEX
  8
4_SURFACE
 62
7
  6
CONTINUOUS
 10
78.987286264
 20
94.5156042219
  0
VERTEX
  8
4_SURFACE
 62
7
  6
CONTINUOUS
 10
78.9930928129
 20
94.5434203871
  0
VERTEX
  8
4_SURFACE
 62
7
  6
CONTINUOUS
 10
78.9974263921
 20
94.5685233692
  0
VERTEX
  8
4_SURFACE
 62
7
  6
CONTINUOUS
 10
79.000944892
 20
94.5926368874
  0
VERTEX
  8
4_SURFACE
 62
7
  6
CONTINUOUS
 10
79.0039938521
 20
94.6169171049
  0
VERTEX
  8
4_SURFACE
 62
7
  6
CONTINUOUS
 10
79.0067610201
 20
94.642141542
  0
VERTEX
  8
4_SURFACE
 62
7
  6
CONTINUOUS
 10
79.0093596351
 20
94.6689235549
  0
VERTEX
  8
4_SURFACE
 62
7
  6
CONTINUOUS
 10
79.0118583419
 20
94.6977476593
  0
VERTEX
  8
4_SURFACE
 62
7
  6
CONTINUOUS
 10
79.0142982758
 20
94.7289912986
  0
VERTEX
  8
4_SURFACE
 62
7
  6
CONTINUOUS
 10
79.0167043925
 20
94.7629565849
  0
VERTEX
  8
4_SURFACE
 62
7
  6
CONTINUOUS
 10
79.019091866
 20
94.7998880713
  0
VERTEX
  8
4_SURFACE
 62
7
  6
CONTINUOUS
 10
79.0214700215
 20
94.8399933309
  0
VERTEX
  8
4_SURFACE
 62
7
  6
CONTINUOUS
 10
79.0238440455
 20
94.8834472962
  0
VERTEX
  8
4_SURFACE
 62
7
  6
CONTINUOUS
 10
79.0285895867
 20
94.9810168814
  0
SEQEND
  0
POLYLINE
  8
4_SURFACE
 62
7
  6
CONTINUOUS
 66
1
 70
0
  0
VERTEX
  8
4_SURFACE
 62
7
  6
CONTINUOUS
 10
27.7923195729
 20
94.1110971768
  0
VERTEX
  8
4_SURFACE
 62
7
  6
CONTINUOUS
 10
27.8342311518
 20
94.1128501929
  0
VERTEX
  8
4_SURFACE
 62
7
  6
CONTINUOUS
 10
27.9355851971
 20
94.1319810364
  0
VERTEX
  8
4_SURFACE
 62
7
  6
CONTINUOUS
 10
28.027281341
 20
94.169490071
  0
VERTEX
  8
4_SURFACE
 62
7
  6
CONTINUOUS
 10
28.1050305438
 20
94.2203821606
  0
VERTEX
  8
4_SURFACE
 62
7
  6
CONTINUOUS
 10
28.1665448986
 20
94.2783758307
  0
VERTEX
  8
4_SURFACE
 62
7
  6
CONTINUOUS
 10
28.2124326169
 20
94.3378790482
  0
VERTEX
  8
4_SURFACE
 62
7
  6
CONTINUOUS
 10
28.2444315919
 20
94.3937336115
  0
VERTEX
  8
4_SURFACE
 62
7
  6
CONTINUOUS
 10
28.2652380024
 20
94.4418650317
  0
VERTEX
  8
4_SURFACE
 62
7
  6
CONTINUOUS
 10
28.2783510945
 20
94.4812908527
  0
VERTEX
  8
4_SURFACE
 62
7
  6
CONTINUOUS
 10
28.2866788143
 20
94.5129911305
  0
VERTEX
  8
4_SURFACE
 62
7
  6
CONTINUOUS
 10
28.2923969458
 20
94.5397763188
  0
VERTEX
  8
4_SURFACE
 62
7
  6
CONTINUOUS
 10
28.2966738841
 20
94.5638342558
  0
VERTEX
  8
4_SURFACE
 62
7
  6
CONTINUOUS
 10
28.300110604
 20
94.5865683796
  0
VERTEX
  8
4_SURFACE
 62
7
  6
CONTINUOUS
 10
28.3030210728
 20
94.6087932921
  0
VERTEX
  8
4_SURFACE
 62
7
  6
CONTINUOUS
 10
28.3056027382
 20
94.6311884319
  0
VERTEX
  8
4_SURFACE
 62
7
  6
CONTINUOUS
 10
28.3079888209
 20
94.6544047188
  0
VERTEX
  8
4_SURFACE
 62
7
  6
CONTINUOUS
 10
28.3102509341
 20
94.6788484654
  0
VERTEX
  8
4_SURFACE
 62
7
  6
CONTINUOUS
 10
28.3124333976
 20
94.7048291702
  0
VERTEX
  8
4_SURFACE
 62
7
  6
CONTINUOUS
 10
28.3145647041
 20
94.7325955419
  0
VERTEX
  8
4_SURFACE
 62
7
  6
CONTINUOUS
 10
28.3166635466
 20
94.7623534758
  0
VERTEX
  8
4_SURFACE
 62
7
  6
CONTINUOUS
 10
28.3187427186
 20
94.7942819308
  0
VERTEX
  8
4_SURFACE
 62
7
  6
CONTINUOUS
 10
28.3208111746
 20
94.8285442855
  0
VERTEX
  8
4_SURFACE
 62
7
  6
CONTINUOUS
 10
28.3249387597
 20
94.9046671609
  0
SEQEND
  0
LINE
  8
4_SURFACE
 62
7
  6
CONTINUOUS
 10
54.8141629721
 20
94.1110956767
 11
54.8142099307
 21
94.1110964701
  0
LINE
  8
0
 62
7
  6
CONTINUOUS
 10
105.4141625951
 20
94.1110956757
 11
105.4142099307
 21
94.1110964701
  0
LINE
  8
0
 62
7
  6
CONTINUOUS
 10
63.5303428974
 20
94.1110958704
 11
54.8142099307
 21
94.1110964701
  0
LINE
  8
0
 62
7
  6
CONTINUOUS
 10
78.4922757912
 20
94.1110964701
 11
69.776142823
 21
94.1110958704
  0
LINE
  8
4_SURFACE
 62
7
  6
CONTINUOUS
 10
27.7922757912
 20
94.1110964701
 11
25.8360872503
 21
94.1110964701
  0
LINE
  8
4_SURFACE
 62
7
  6
CONTINUOUS
 10
18.8703984717
 20
94.1110964701
 11
16.353242861
 21
94.1110964701
  0
LINE
  8
4_SURFACE
 62
7
  6
CONTINUOUS
 10
54.8141588098
 20
94.1110956705
 11
78.4923269122
 21
94.1110956705
  0
LINE
  8
0
 62
7
  6
CONTINUOUS
 10
105.4141588097
 20
94.1110956705
 11
129.0922757912
 21
94.1110964701
  0
LINE
  8
0
 62
7
  6
CONTINUOUS
 10
156.1141588098
 20
94.1110956705
 11
158.0704026286
 21
94.1110956705
  0
LINE
  8
0
 62
7
  6
CONTINUOUS
 10
165.0360830934
 20
94.1110956705
 11
167.553242861
 21
94.1110956705
  0
LINE
  8
0
 62
7
  6
CONTINUOUS
 10
163.974946805
 20
95.8291678514
 11
159.1315383406
 21
95.8291678514
  0
LINE
  8
4_SURFACE
 62
7
  6
CONTINUOUS
 10
24.7749473814
 20
95.8291678514
 11
19.9315389169
 21
95.8291678514
  0
POLYLINE
  8
0
 62
7
  6
CONTINUOUS
 66
1
 70
0
  0
VERTEX
  8
0
 62
7
  6
CONTINUOUS
 10
163.974946806
 20
95.829160193
  0
VERTEX
  8
0
 62
7
  6
CONTINUOUS
 10
163.9810868508
 20
95.8290968574
  0
VERTEX
  8
0
 62
7
  6
CONTINUOUS
 10
164.0182310013
 20
95.8258161386
  0
VERTEX
  8
0
 62
7
  6
CONTINUOUS
 10
164.0541544451
 20
95.8181684561
  0
VERTEX
  8
0
 62
7
  6
CONTINUOUS
 10
164.0880568279
 20
95.8071286488
  0
VERTEX
  8
0
 62
7
  6
CONTINUOUS
 10
164.120193472
 20
95.7934758886
  0
VERTEX
  8
0
 62
7
  6
CONTINUOUS
 10
164.1506732212
 20
95.7777165439
  0
VERTEX
  8
0
 62
7
  6
CONTINUOUS
 10
164.1796629693
 20
95.7602933362
  0
VERTEX
  8
0
 62
7
  6
CONTINUOUS
 10
164.2073708642
 20
95.7413983587
  0
VERTEX
  8
0
 62
7
  6
CONTINUOUS
 10
164.2339303206
 20
95.7212384574
  0
VERTEX
  8
0
 62
7
  6
CONTINUOUS
 10
164.2593008787
 20
95.7000433054
  0
VERTEX
  8
0
 62
7
  6
CONTINUOUS
 10
164.2836209349
 20
95.6778839765
  0
VERTEX
  8
0
 62
7
  6
CONTINUOUS
 10
164.3068808542
 20
95.6549087542
  0
VERTEX
  8
0
 62
7
  6
CONTINUOUS
 10
164.3291550804
 20
95.6311489143
  0
VERTEX
  8
0
 62
7
  6
CONTINUOUS
 10
164.3504741361
 20
95.6066520012
  0
VERTEX
  8
0
 62
7
  6
CONTINUOUS
 10
164.3708548043
 20
95.5814455143
  0
VERTEX
  8
0
 62
7
  6
CONTINUOUS
 10
164.3903021284
 20
95.5555394822
  0
VERTEX
  8
0
 62
7
  6
CONTINUOUS
 10
164.4087776336
 20
95.528974403
  0
VERTEX
  8
0
 62
7
  6
CONTINUOUS
 10
164.426207491
 20
95.5018242042
  0
VERTEX
  8
0
 62
7
  6
CONTINUOUS
 10
164.442520109
 20
95.4741307534
  0
VERTEX
  8
0
 62
7
  6
CONTINUOUS
 10
164.4576258484
 20
95.4459380704
  0
VERTEX
  8
0
 62
7
  6
CONTINUOUS
 10
164.4713624913
 20
95.4174029649
  0
VERTEX
  8
0
 62
7
  6
CONTINUOUS
 10
164.483525362
 20
95.3887546132
  0
VERTEX
  8
0
 62
7
  6
CONTINUOUS
 10
164.4860658179
 20
95.3822092968
  0
SEQEND
  0
LINE
  8
4_SURFACE
 62
7
  6
CONTINUOUS
 10
78.4923230068
 20
94.111095676
 11
78.4922757912
 21
94.1110964701
  0
LINE
  8
0
 62
7
  6
CONTINUOUS
 10
129.0923226297
 20
94.1110956771
 11
129.0922757912
 21
94.1110964701
  0
POLYLINE
  8
4_SURFACE
 62
7
  6
CONTINUOUS
 66
1
 70
0
  0
VERTEX
  8
4_SURFACE
 62
7
  6
CONTINUOUS
 10
53.947268992
 20
134.9407750028
  0
VERTEX
  8
4_SURFACE
 62
7
  6
CONTINUOUS
 10
53.8812237489
 20
135.0486181572
  0
VERTEX
  8
4_SURFACE
 62
7
  6
CONTINUOUS
 10
53.832918214
 20
135.1657760746
  0
VERTEX
  8
4_SURFACE
 62
7
  6
CONTINUOUS
 10
53.8038812379
 20
135.2880777473
  0
SEQEND
  0
POLYLINE
  8
4_SURFACE
 62
7
  6
CONTINUOUS
 66
1
 70
0
  0
VERTEX
  8
4_SURFACE
 62
7
  6
CONTINUOUS
 10
28.7242102445
 20
104.2582819644
  0
VERTEX
  8
4_SURFACE
 62
7
  6
CONTINUOUS
 10
28.8321317881
 20
104.3243136311
  0
VERTEX
  8
4_SURFACE
 62
7
  6
CONTINUOUS
 10
28.9493441789
 20
104.3725893062
  0
VERTEX
  8
4_SURFACE
 62
7
  6
CONTINUOUS
 10
29.0716544434
 20
104.4015927327
  0
VERTEX
  8
4_SURFACE
 62
7
  6
CONTINUOUS
 10
29.1788314276
 20
104.4109396245
  0
SEQEND
  0
POLYLINE
  8
4_SURFACE
 62
7
  6
CONTINUOUS
 66
1
 70
0
  0
VERTEX
  8
4_SURFACE
 62
7
  6
CONTINUOUS
 10
79.1822754774
 20
134.7639093766
  0
VERTEX
  8
4_SURFACE
 62
7
  6
CONTINUOUS
 10
79.0743539339
 20
134.69787771
  0
VERTEX
  8
4_SURFACE
 62
7
  6
CONTINUOUS
 10
78.9571415431
 20
134.6496020349
  0
VERTEX
  8
4_SURFACE
 62
7
  6
CONTINUOUS
 10
78.8348312785
 20
134.6205986084
  0
VERTEX
  8
4_SURFACE
 62
7
  6
CONTINUOUS
 10
78.7276542944
 20
134.6112517166
  0
SEQEND
  0
POLYLINE
  8
0
 62
7
  6
CONTINUOUS
 66
1
 70
0
  0
VERTEX
  8
0
 62
7
  6
CONTINUOUS
 10
130.4787547849
 20
104.4109381073
  0
VERTEX
  8
0
 62
7
  6
CONTINUOUS
 10
130.3716544435
 20
104.4015927327
  0
VERTEX
  8
0
 62
7
  6
CONTINUOUS
 10
130.2493441789
 20
104.3725893062
  0
VERTEX
  8
0
 62
7
  6
CONTINUOUS
 10
130.1321317881
 20
104.3243136311
  0
VERTEX
  8
0
 62
7
  6
CONTINUOUS
 10
130.0242102445
 20
104.2582819644
  0
VERTEX
  8
0
 62
7
  6
CONTINUOUS
 10
129.9287758416
 20
104.1767990386
  0
SEQEND
  0
LINE
  8
0
 62
7
  6
CONTINUOUS
 10
130.494637191
 20
104.4110956705
 11
130.4787547849
 21
104.4109381073
  0
LINE
  8
1_AXIS
 62
2
  6
CENTER
 10
13.2029540481
 20
100.4610956705
 11
170.053242861
 21
100.4610956705
  0
LINE
  8
4_SURFACE
 62
7
  6
CONTINUOUS
 10
53.411848531
 20
104.4110956705
 11
53.4277309371
 21
104.4109381073
  0
POLYLINE
  8
4_SURFACE
 62
7
  6
CONTINUOUS
 66
1
 70
0
  0
VERTEX
  8
4_SURFACE
 62
7
  6
CONTINUOUS
 10
53.4277328438
 20
104.4109344328
  0
VERTEX
  8
4_SURFACE
 62
7
  6
CONTINUOUS
 10
53.4998940296
 20
104.4062384957
  0
VERTEX
  8
4_SURFACE
 62
7
  6
CONTINUOUS
 10
53.6317584242
 20
104.3802922659
  0
VERTEX
  8
4_SURFACE
 62
7
  6
CONTINUOUS
 10
53.7574512922
 20
104.3326341979
  0
VERTEX
  8
4_SURFACE
 62
7
  6
CONTINUOUS
 10
53.8734013847
 20
104.264604949
  0
VERTEX
  8
4_SURFACE
 62
7
  6
CONTINUOUS
 10
53.9763183479
 20
104.1781331146
  0
VERTEX
  8
4_SURFACE
 62
7
  6
CONTINUOUS
 10
54.0632953143
 20
104.0756675266
  0
VERTEX
  8
4_SURFACE
 62
7
  6
CONTINUOUS
 10
54.1318857447
 20
103.9600983953
  0
VERTEX
  8
4_SURFACE
 62
7
  6
CONTINUOUS
 10
54.1801576204
 20
103.8346858482
  0
VERTEX
  8
4_SURFACE
 62
7
  6
CONTINUOUS
 10
54.2067520992
 20
103.7029732
  0
VERTEX
  8
4_SURFACE
 62
7
  6
CONTINUOUS
 10
54.212043158
 20
103.6110956704
  0
SEQEND
  0
POLYLINE
  8
4_SURFACE
 62
7
  6
CONTINUOUS
 66
1
 70
0
  0
VERTEX
  8
4_SURFACE
 62
7
  6
CONTINUOUS
 10
53.4277309371
 20
104.4109381073
  0
VERTEX
  8
4_SURFACE
 62
7
  6
CONTINUOUS
 10
53.5348312785
 20
104.4015927327
  0
VERTEX
  8
4_SURFACE
 62
7
  6
CONTINUOUS
 10
53.6571415431
 20
104.3725893062
  0
VERTEX
  8
4_SURFACE
 62
7
  6
CONTINUOUS
 10
53.7743539339
 20
104.3243136311
  0
VERTEX
  8
4_SURFACE
 62
7
  6
CONTINUOUS
 10
53.8822754774
 20
104.2582819644
  0
VERTEX
  8
4_SURFACE
 62
7
  6
CONTINUOUS
 10
53.9777098803
 20
104.1767990386
  0
SEQEND
  0
LINE
  8
4_SURFACE
 62
7
  6
CONTINUOUS
 10
79.0911160941
 20
98.9796969296
 11
79.0944391645
 21
103.6110956705
  0
LINE
  8
4_SURFACE
 62
7
  6
CONTINUOUS
 10
79.5154999482
 20
140.0707730724
 11
79.5120465575
 21
135.4110956705
  0
LINE
  8
4_SURFACE
 62
7
  6
CONTINUOUS
 10
79.0825166903
 20
97.7156065702
 11
79.0911160941
 21
98.9796969296
  0
LINE
  8
4_SURFACE
 62
7
  6
CONTINUOUS
 10
79.5243675679
 20
141.3492106209
 11
79.5154999482
 21
140.0707730724
  0
LINE
  8
4_SURFACE
 62
7
  6
CONTINUOUS
 10
79.0728723284
 20
96.8619458043
 11
79.0825166903
 21
97.7156065702
  0
LINE
  8
4_SURFACE
 62
7
  6
CONTINUOUS
 10
79.5345824618
 20
142.2304878732
 11
79.5243675679
 21
141.3492106209
  0
LINE
  8
4_SURFACE
 62
7
  6
CONTINUOUS
 10
79.5442073061
 20
142.8274580907
 11
79.5345824618
 21
142.2304878732
  0
LINE
  8
4_SURFACE
 62
7
  6
CONTINUOUS
 10
79.0618701352
 20
96.1728065101
 11
79.0728723284
 21
96.8619458043
  0
LINE
  8
4_SURFACE
 62
7
  6
CONTINUOUS
 10
79.5523485269
 20
143.2233309703
 11
79.5442073061
 21
142.8274580907
  0
LINE
  8
4_SURFACE
 62
7
  6
CONTINUOUS
 10
79.0524957199
 20
95.7285770352
 11
79.0618701352
 21
96.1728065101
  0
LINE
  8
4_SURFACE
 62
7
  6
CONTINUOUS
 10
79.5606846945
 20
143.5518773281
 11
79.5523485269
 21
143.2233309703
  0
LINE
  8
4_SURFACE
 62
7
  6
CONTINUOUS
 10
79.0453184918
 20
95.4533382476
 11
79.0524957199
 21
95.7285770352
  0
LINE
  8
4_SURFACE
 62
7
  6
CONTINUOUS
 10
79.5669761532
 20
143.757484027
 11
79.5606846945
 21
143.5518773281
  0
LINE
  8
4_SURFACE
 62
7
  6
CONTINUOUS
 10
79.0381243205
 20
95.2238080979
 11
79.0453184918
 21
95.4533382476
  0
LINE
  8
4_SURFACE
 62
7
  6
CONTINUOUS
 10
79.0333469002
 20
95.0939845087
 11
79.0381243205
 21
95.2238080979
  0
LINE
  8
4_SURFACE
 62
7
  6
CONTINUOUS
 10
79.573250222
 20
143.9310335007
 11
79.5669761532
 21
143.757484027
  0
LINE
  8
4_SURFACE
 62
7
  6
CONTINUOUS
 10
79.5774089881
 20
144.0303209216
 11
79.573250222
 21
143.9310335007
  0
LINE
  8
4_SURFACE
 62
7
  6
CONTINUOUS
 10
79.0285895867
 20
94.9810168814
 11
79.0333469002
 21
95.0939845087
  0
LINE
  8
4_SURFACE
 62
7
  6
CONTINUOUS
 10
79.5815469623
 20
144.1175241802
 11
79.5774089881
 21
144.0303209216
  0
POLYLINE
  8
4_SURFACE
 62
7
  6
CONTINUOUS
 66
1
 70
0
  0
VERTEX
  8
4_SURFACE
 62
7
  6
CONTINUOUS
 10
79.5120431646
 20
135.4110956707
  0
VERTEX
  8
4_SURFACE
 62
7
  6
CONTINUOUS
 10
79.507185585
 20
135.3230477798
  0
VERTEX
  8
4_SURFACE
 62
7
  6
CONTINUOUS
 10
79.4812298959
 20
135.1912211129
  0
VERTEX
  8
4_SURFACE
 62
7
  6
CONTINUOUS
 10
79.4335680023
 20
135.0655833341
  0
VERTEX
  8
4_SURFACE
 62
7
  6
CONTINUOUS
 10
79.3655416054
 20
134.9496882422
  0
VERTEX
  8
4_SURFACE
 62
7
  6
CONTINUOUS
 10
79.2790700037
 20
134.8468093775
  0
VERTEX
  8
4_SURFACE
 62
7
  6
CONTINUOUS
 10
79.1765884382
 20
134.7598478737
  0
VERTEX
  8
4_SURFACE
 62
7
  6
CONTINUOUS
 10
79.0609849646
 20
134.6912595235
  0
VERTEX
  8
4_SURFACE
 62
7
  6
CONTINUOUS
 10
78.9355266504
 20
134.6429859986
  0
VERTEX
  8
4_SURFACE
 62
7
  6
CONTINUOUS
 10
78.8037647458
 20
134.6163906989
  0
VERTEX
  8
4_SURFACE
 62
7
  6
CONTINUOUS
 10
78.7276561922
 20
134.6112553943
  0
SEQEND
  0
POLYLINE
  8
4_SURFACE
 62
7
  6
CONTINUOUS
 66
1
 70
0
  0
VERTEX
  8
4_SURFACE
 62
7
  6
CONTINUOUS
 10
79.0944426412
 20
103.6110956704
  0
VERTEX
  8
4_SURFACE
 62
7
  6
CONTINUOUS
 10
79.0997250633
 20
103.7028989269
  0
VERTEX
  8
4_SURFACE
 62
7
  6
CONTINUOUS
 10
79.1262972878
 20
103.8345809563
  0
VERTEX
  8
4_SURFACE
 62
7
  6
CONTINUOUS
 10
79.1745485373
 20
103.9599924203
  0
VERTEX
  8
4_SURFACE
 62
7
  6
CONTINUOUS
 10
79.2431214594
 20
104.0755709259
  0
VERTEX
  8
4_SURFACE
 62
7
  6
CONTINUOUS
 10
79.3300732415
 20
104.1780393156
  0
VERTEX
  8
4_SURFACE
 62
7
  6
CONTINUOUS
 10
79.4329450545
 20
104.2645063122
  0
VERTEX
  8
4_SURFACE
 62
7
  6
CONTINUOUS
 10
79.5488465688
 20
104.3325439224
  0
VERTEX
  8
4_SURFACE
 62
7
  6
CONTINUOUS
 10
79.6644524886
 20
104.3772800484
  0
SEQEND
  0
LINE
  8
4_SURFACE
 62
7
  6
CONTINUOUS
 10
79.103857793
 20
103.7339628999
 11
79.0943630121
 21
103.6110956705
  0
POLYLINE
  8
4_SURFACE
 62
7
  6
CONTINUOUS
 66
1
 70
0
  0
VERTEX
  8
4_SURFACE
 62
7
  6
CONTINUOUS
 10
79.5121227099
 20
135.4110956705
  0
VERTEX
  8
4_SURFACE
 62
7
  6
CONTINUOUS
 10
79.5026044841
 20
135.2880777473
  0
VERTEX
  8
4_SURFACE
 62
7
  6
CONTINUOUS
 10
79.4735675079
 20
135.1657760746
  0
VERTEX
  8
4_SURFACE
 62
7
  6
CONTINUOUS
 10
79.4252619731
 20
135.0486181572
  0
VERTEX
  8
4_SURFACE
 62
7
  6
CONTINUOUS
 10
79.35921673
 20
134.9407750028
  0
VERTEX
  8
4_SURFACE
 62
7
  6
CONTINUOUS
 10
79.2777098803
 20
134.8453923025
  0
SEQEND
  0
POLYLINE
  8
4_SURFACE
 62
7
  6
CONTINUOUS
 66
1
 70
0
  0
VERTEX
  8
4_SURFACE
 62
7
  6
CONTINUOUS
 10
79.894637191
 20
104.4110956705
  0
VERTEX
  8
4_SURFACE
 62
7
  6
CONTINUOUS
 10
79.7713359181
 20
104.401543146
  0
VERTEX
  8
4_SURFACE
 62
7
  6
CONTINUOUS
 10
79.6644751951
 20
104.3772952247
  0
SEQEND
  0
LINE
  8
4_SURFACE
 62
7
  6
CONTINUOUS
 10
29.1788314276
 20
104.4109396245
 11
29.194637191
 21
104.4110956705
  0
LINE
  8
0
 62
7
  6
CONTINUOUS
 10
154.711848531
 20
104.4110956705
 11
130.494637191
 21
104.4110956705
  0
LINE
  8
0
 62
7
  6
CONTINUOUS
 10
104.011848531
 20
104.4110956705
 11
79.894637191
 21
104.4110956705
  0
LINE
  8
4_SURFACE
 62
7
  6
CONTINUOUS
 10
53.411848531
 20
104.4110956705
 11
29.194637191
 21
104.4110956705
  0
LINE
  8
0
 62
7
  6
CONTINUOUS
 10
154.7276542944
 20
104.4109396245
 11
154.711848531
 21
104.4110956705
  0
POLYLINE
  8
0
 62
7
  6
CONTINUOUS
 66
1
 70
0
  0
VERTEX
  8
0
 62
7
  6
CONTINUOUS
 10
154.7276561922
 20
104.4109359468
  0
VERTEX
  8
0
 62
7
  6
CONTINUOUS
 10
154.8037647458
 20
104.4058006421
  0
VERTEX
  8
0
 62
7
  6
CONTINUOUS
 10
154.9355266504
 20
104.3792053424
  0
VERTEX
  8
0
 62
7
  6
CONTINUOUS
 10
155.0609849646
 20
104.3309318175
  0
VERTEX
  8
0
 62
7
  6
CONTINUOUS
 10
155.1765884382
 20
104.2623434674
  0
VERTEX
  8
0
 62
7
  6
CONTINUOUS
 10
155.2790700037
 20
104.1753819635
  0
VERTEX
  8
0
 62
7
  6
CONTINUOUS
 10
155.3655416054
 20
104.0725030988
  0
VERTEX
  8
0
 62
7
  6
CONTINUOUS
 10
155.4335680023
 20
103.956608007
  0
VERTEX
  8
0
 62
7
  6
CONTINUOUS
 10
155.4812298959
 20
103.8309702282
  0
VERTEX
  8
0
 62
7
  6
CONTINUOUS
 10
155.507185585
 20
103.6991435612
  0
VERTEX
  8
0
 62
7
  6
CONTINUOUS
 10
155.5120431646
 20
103.6110956704
  0
SEQEND
  0
POLYLINE
  8
0
 62
7
  6
CONTINUOUS
 66
1
 70
0
  0
VERTEX
  8
0
 62
7
  6
CONTINUOUS
 10
104.011848531
 20
104.4110956705
  0
VERTEX
  8
0
 62
7
  6
CONTINUOUS
 10
104.1351498039
 20
104.401543146
  0
VERTEX
  8
0
 62
7
  6
CONTINUOUS
 10
104.2420105269
 20
104.3772952247
  0
SEQEND
  0
POLYLINE
  8
0
 62
7
  6
CONTINUOUS
 66
1
 70
0
  0
VERTEX
  8
0
 62
7
  6
CONTINUOUS
 10
104.2420105269
 20
104.3772952247
  0
VERTEX
  8
0
 62
7
  6
CONTINUOUS
 10
104.2571878415
 20
104.3725744016
  0
VERTEX
  8
0
 62
7
  6
CONTINUOUS
 10
104.3745069919
 20
104.324235869
  0
VERTEX
  8
0
 62
7
  6
CONTINUOUS
 10
104.4823465631
 20
104.2582303219
  0
VERTEX
  8
0
 62
7
  6
CONTINUOUS
 10
104.5777441232
 20
104.1767648052
  0
SEQEND
  0
LINE
  8
4_SURFACE
 62
7
  6
CONTINUOUS
 10
79.1328498908
 20
103.8562031674
 11
79.103857793
 21
103.7339628999
  0
LINE
  8
4_SURFACE
 62
7
  6
CONTINUOUS
 10
79.1811363983
 20
103.9734013301
 11
79.1328498908
 21
103.8562031674
  0
POLYLINE
  8
0
 62
7
  6
CONTINUOUS
 66
1
 70
0
  0
VERTEX
  8
0
 62
7
  6
CONTINUOUS
 10
104.2420332334
 20
104.3772800484
  0
VERTEX
  8
0
 62
7
  6
CONTINUOUS
 10
104.3576391532
 20
104.3325439224
  0
VERTEX
  8
0
 62
7
  6
CONTINUOUS
 10
104.4735406675
 20
104.2645063122
  0
VERTEX
  8
0
 62
7
  6
CONTINUOUS
 10
104.5764124805
 20
104.1780393156
  0
VERTEX
  8
0
 62
7
  6
CONTINUOUS
 10
104.6633642625
 20
104.0755709259
  0
VERTEX
  8
0
 62
7
  6
CONTINUOUS
 10
104.7319371847
 20
103.9599924203
  0
VERTEX
  8
0
 62
7
  6
CONTINUOUS
 10
104.7801884341
 20
103.8345809563
  0
VERTEX
  8
0
 62
7
  6
CONTINUOUS
 10
104.8067606587
 20
103.7028989269
  0
VERTEX
  8
0
 62
7
  6
CONTINUOUS
 10
104.8120430808
 20
103.6110956704
  0
SEQEND
  0
LINE
  8
4_SURFACE
 62
7
  6
CONTINUOUS
 10
79.2472149639
 20
104.0813420121
 11
79.1811363983
 21
103.9734013301
  0
LINE
  8
0
 62
7
  6
CONTINUOUS
 10
104.6592707581
 20
104.0813420121
 11
104.7253493237
 21
103.9734013301
  0
LINE
  8
0
 62
7
  6
CONTINUOUS
 10
104.7253493237
 20
103.9734013301
 11
104.7736358312
 21
103.8562031674
  0
POLYLINE
  8
4_SURFACE
 62
7
  6
CONTINUOUS
 66
1
 70
0
  0
VERTEX
  8
4_SURFACE
 62
7
  6
CONTINUOUS
 10
79.6644751951
 20
104.3772952247
  0
VERTEX
  8
4_SURFACE
 62
7
  6
CONTINUOUS
 10
79.6492978805
 20
104.3725744016
  0
VERTEX
  8
4_SURFACE
 62
7
  6
CONTINUOUS
 10
79.5319787301
 20
104.324235869
  0
VERTEX
  8
4_SURFACE
 62
7
  6
CONTINUOUS
 10
79.4241391589
 20
104.2582303219
  0
VERTEX
  8
4_SURFACE
 62
7
  6
CONTINUOUS
 10
79.3287415987
 20
104.1767648052
  0
SEQEND
  0
LINE
  8
0
 62
7
  6
CONTINUOUS
 10
104.7736358312
 20
103.8562031674
 11
104.802627929
 21
103.7339628999
  0
LINE
  8
0
 62
7
  6
CONTINUOUS
 10
104.802627929
 20
103.7339628999
 11
104.8121227099
 21
103.6110956705
  0
POLYLINE
  8
0
 62
7
  6
CONTINUOUS
 66
1
 70
0
  0
VERTEX
  8
0
 62
7
  6
CONTINUOUS
 10
104.3943630121
 20
135.4110956705
  0
VERTEX
  8
0
 62
7
  6
CONTINUOUS
 10
104.4038812379
 20
135.2880777473
  0
VERTEX
  8
0
 62
7
  6
CONTINUOUS
 10
104.432918214
 20
135.1657760746
  0
VERTEX
  8
0
 62
7
  6
CONTINUOUS
 10
104.4812237489
 20
135.0486181572
  0
VERTEX
  8
0
 62
7
  6
CONTINUOUS
 10
104.547268992
 20
134.9407750028
  0
VERTEX
  8
0
 62
7
  6
CONTINUOUS
 10
104.6287758416
 20
134.8453923025
  0
SEQEND
  0
POLYLINE
  8
0
 62
7
  6
CONTINUOUS
 66
1
 70
0
  0
VERTEX
  8
0
 62
7
  6
CONTINUOUS
 10
104.8850538581
 20
94.8393230949
  0
VERTEX
  8
0
 62
7
  6
CONTINUOUS
 10
104.8873328345
 20
94.8008752457
  0
VERTEX
  8
0
 62
7
  6
CONTINUOUS
 10
104.8896273476
 20
94.7652401316
  0
VERTEX
  8
0
 62
7
  6
CONTINUOUS
 10
104.8919477206
 20
94.7322324281
  0
VERTEX
  8
0
 62
7
  6
CONTINUOUS
 10
104.894306985
 20
94.7016720637
  0
VERTEX
  8
0
 62
7
  6
CONTINUOUS
 10
104.8967257183
 20
94.673333774
  0
VERTEX
  8
0
 62
7
  6
CONTINUOUS
 10
104.8992384874
 20
94.646915948
  0
VERTEX
  8
0
 62
7
  6
CONTINUOUS
 10
104.90190325
 20
94.6220148019
  0
VERTEX
  8
0
 62
7
  6
CONTINUOUS
 10
104.9048194516
 20
94.5980750438
  0
VERTEX
  8
0
 62
7
  6
CONTINUOUS
 10
104.9081665559
 20
94.5742880246
  0
VERTEX
  8
0
 62
7
  6
CONTINUOUS
 10
104.9122641112
 20
94.5495413593
  0
VERTEX
  8
0
 62
7
  6
CONTINUOUS
 10
104.9176679868
 20
94.5224164627
  0
VERTEX
  8
0
 62
7
  6
CONTINUOUS
 10
104.9254881413
 20
94.4906361019
  0
VERTEX
  8
0
 62
7
  6
CONTINUOUS
 10
104.9378696576
 20
94.4511277541
  0
VERTEX
  8
0
 62
7
  6
CONTINUOUS
 10
104.9580929557
 20
94.4019512884
  0
VERTEX
  8
0
 62
7
  6
CONTINUOUS
 10
104.9894786577
 20
94.3449408286
  0
VERTEX
  8
0
 62
7
  6
CONTINUOUS
 10
105.0346839331
 20
94.2843301445
  0
VERTEX
  8
0
 62
7
  6
CONTINUOUS
 10
105.0968112752
 20
94.2241210503
  0
VERTEX
  8
0
 62
7
  6
CONTINUOUS
 10
105.1768390483
 20
94.1707501438
  0
VERTEX
  8
0
 62
7
  6
CONTINUOUS
 10
105.2713095402
 20
94.1318587098
  0
VERTEX
  8
0
 62
7
  6
CONTINUOUS
 10
105.3740619443
 20
94.1127013831
  0
VERTEX
  8
0
 62
7
  6
CONTINUOUS
 10
105.4141653458
 20
94.1110965823
  0
SEQEND
  0
POLYLINE
  8
0
 62
7
  6
CONTINUOUS
 66
1
 70
0
  0
VERTEX
  8
0
 62
7
  6
CONTINUOUS
 10
104.3215483123
 20
144.1808201052
  0
VERTEX
  8
0
 62
7
  6
CONTINUOUS
 10
104.3192735418
 20
144.2193575235
  0
VERTEX
  8
0
 62
7
  6
CONTINUOUS
 10
104.316983765
 20
144.2550813661
  0
VERTEX
  8
0
 62
7
  6
CONTINUOUS
 10
104.3146688665
 20
144.2881762369
  0
VERTEX
  8
0
 62
7
  6
CONTINUOUS
 10
104.3123158292
 20
144.3188239336
  0
VERTEX
  8
0
 62
7
  6
CONTINUOUS
 10
104.3099047802
 20
144.3472436317
  0
VERTEX
  8
0
 62
7
  6
CONTINUOUS
 10
104.3074022293
 20
144.3737309503
  0
VERTEX
  8
0
 62
7
  6
CONTINUOUS
 10
104.3047521152
 20
144.3986810832
  0
VERTEX
  8
0
 62
7
  6
CONTINUOUS
 10
104.3018584646
 20
144.4226364918
  0
VERTEX
  8
0
 62
7
  6
CONTINUOUS
 10
104.2985491168
 20
144.4463817622
  0
VERTEX
  8
0
 62
7
  6
CONTINUOUS
 10
104.2945118864
 20
144.471032242
  0
VERTEX
  8
0
 62
7
  6
CONTINUOUS
 10
104.2892138303
 20
144.497957883
  0
VERTEX
  8
0
 62
7
  6
CONTINUOUS
 10
104.2815968675
 20
144.5293544724
  0
VERTEX
  8
0
 62
7
  6
CONTINUOUS
 10
104.2696025496
 20
144.5682563876
  0
VERTEX
  8
0
 62
7
  6
CONTINUOUS
 10
104.2500125557
 20
144.6167697901
  0
VERTEX
  8
0
 62
7
  6
CONTINUOUS
 10
104.2194251911
 20
144.673410914
  0
VERTEX
  8
0
 62
7
  6
CONTINUOUS
 10
104.1750771863
 20
144.7340529252
  0
VERTEX
  8
0
 62
7
  6
CONTINUOUS
 10
104.1137637537
 20
144.7947005033
  0
VERTEX
  8
0
 62
7
  6
CONTINUOUS
 10
104.0343745113
 20
144.8488714773
  0
VERTEX
  8
0
 62
7
  6
CONTINUOUS
 10
103.9402338786
 20
144.8888011525
  0
VERTEX
  8
0
 62
7
  6
CONTINUOUS
 10
103.8374210386
 20
144.9090635576
  0
VERTEX
  8
0
 62
7
  6
CONTINUOUS
 10
103.7923194413
 20
144.9110941641
  0
SEQEND
  0
LINE
  8
0
 62
7
  6
CONTINUOUS
 10
104.8805184703
 20
94.925298657
 11
104.8850538581
 21
94.8393230949
  0
LINE
  8
0
 62
7
  6
CONTINUOUS
 10
104.3260761133
 20
144.0946694459
 11
104.3215483123
 21
144.1808201052
  0
LINE
  8
0
 62
7
  6
CONTINUOUS
 10
104.8759940257
 20
95.0243065278
 11
104.8805184703
 21
94.925298657
  0
LINE
  8
0
 62
7
  6
CONTINUOUS
 10
104.3305933358
 20
143.9955018718
 11
104.3260761133
 21
144.0946694459
  0
LINE
  8
0
 62
7
  6
CONTINUOUS
 10
104.8714744184
 20
95.1372876922
 11
104.8759940257
 21
95.0243065278
  0
LINE
  8
0
 62
7
  6
CONTINUOUS
 10
104.3351057054
 20
143.8823870232
 11
104.3305933358
 21
143.9955018718
  0
LINE
  8
0
 62
7
  6
CONTINUOUS
 10
104.8647166321
 20
95.334719085
 11
104.8714744184
 21
95.1372876922
  0
LINE
  8
0
 62
7
  6
CONTINUOUS
 10
104.3418521227
 20
143.6848194676
 11
104.3351057054
 21
143.8823870232
  0
LINE
  8
0
 62
7
  6
CONTINUOUS
 10
104.8580216377
 20
95.5678403475
 11
104.8647166321
 21
95.334719085
  0
LINE
  8
0
 62
7
  6
CONTINUOUS
 10
104.3485352327
 20
143.45165429
 11
104.3418521227
 21
143.6848194676
  0
LINE
  8
0
 62
7
  6
CONTINUOUS
 10
104.8492580937
 20
95.939409154
 11
104.8580216377
 21
95.5678403475
  0
LINE
  8
0
 62
7
  6
CONTINUOUS
 10
104.3572827969
 20
143.0801711069
 11
104.3485352327
 21
143.45165429
  0
LINE
  8
0
 62
7
  6
CONTINUOUS
 10
104.8387522025
 20
96.5125246926
 11
104.8492580937
 21
95.939409154
  0
LINE
  8
0
 62
7
  6
CONTINUOUS
 10
104.367768849
 20
142.5074449903
 11
104.3572827969
 21
143.0801711069
  0
LINE
  8
0
 62
7
  6
CONTINUOUS
 10
104.8273377536
 20
97.3790932034
 11
104.8387522025
 21
96.5125246926
  0
LINE
  8
0
 62
7
  6
CONTINUOUS
 10
104.3791613529
 20
141.6418574838
 11
104.367768849
 21
142.5074449903
  0
LINE
  8
0
 62
7
  6
CONTINUOUS
 10
104.3882914328
 20
140.5618629293
 11
104.3791613529
 21
141.6418574838
  0
LINE
  8
0
 62
7
  6
CONTINUOUS
 10
104.8181916535
 20
98.4607438234
 11
104.8273377536
 21
97.3790932034
  0
LINE
  8
0
 62
7
  6
CONTINUOUS
 10
104.3941356547
 20
139.012062061
 11
104.3882914328
 21
140.5618629293
  0
LINE
  8
0
 62
7
  6
CONTINUOUS
 10
104.8123456568
 20
100.0134135869
 11
104.8181916535
 21
98.4607438234
  0
LINE
  8
0
 62
7
  6
CONTINUOUS
 10
104.3941356547
 20
139.012062061
 11
104.3944391645
 21
135.4110956705
  0
LINE
  8
0
 62
7
  6
CONTINUOUS
 10
104.8120465575
 20
103.6110956705
 11
104.8123456568
 21
100.0134135869
  0
POLYLINE
  8
0
 62
7
  6
CONTINUOUS
 66
1
 70
0
  0
VERTEX
  8
0
 62
7
  6
CONTINUOUS
 10
129.3277309371
 20
134.6112532337
  0
VERTEX
  8
0
 62
7
  6
CONTINUOUS
 10
129.4348312785
 20
134.6205986084
  0
VERTEX
  8
0
 62
7
  6
CONTINUOUS
 10
129.5571415431
 20
134.6496020349
  0
VERTEX
  8
0
 62
7
  6
CONTINUOUS
 10
129.6743539339
 20
134.69787771
  0
VERTEX
  8
0
 62
7
  6
CONTINUOUS
 10
129.7822754774
 20
134.7639093766
  0
VERTEX
  8
0
 62
7
  6
CONTINUOUS
 10
129.8777098803
 20
134.8453923025
  0
SEQEND
  0
LINE
  8
0
 62
7
  6
CONTINUOUS
 10
129.311848531
 20
134.6110956705
 11
129.3277309371
 21
134.6112532337
  0
LINE
  8
4_SURFACE
 62
7
  6
CONTINUOUS
 10
78.7276542944
 20
134.6112517166
 11
78.711848531
 21
134.6110956705
  0
LINE
  8
4_SURFACE
 62
7
  6
CONTINUOUS
 10
28.0276542944
 20
134.6112517166
 11
28.011848531
 21
134.6110956705
  0
LINE
  8
4_SURFACE
 62
7
  6
CONTINUOUS
 10
78.711848531
 20
134.6110956705
 11
54.594637191
 21
134.6110956705
  0
LINE
  8
4_SURFACE
 62
7
  6
CONTINUOUS
 10
17.253242861
 20
134.6110956705
 11
28.011848531
 21
134.6110956705
  0
LINE
  8
0
 62
7
  6
CONTINUOUS
 10
105.194637191
 20
134.6110956705
 11
129.311848531
 21
134.6110956705
  0
LINE
  8
0
 62
7
  6
CONTINUOUS
 10
155.894637191
 20
134.6110956705
 11
166.653242861
 21
134.6110956705
  0
LINE
  8
4_SURFACE
 62
7
  6
CONTINUOUS
 10
54.594637191
 20
134.6110956705
 11
54.5787547849
 21
134.6112532337
  0
LINE
  8
0
 62
7
  6
CONTINUOUS
 10
105.1788314276
 20
134.6112517166
 11
105.194637191
 21
134.6110956705
  0
LINE
  8
0
 62
7
  6
CONTINUOUS
 10
155.8788314276
 20
134.6112517166
 11
155.894637191
 21
134.6110956705
  0
POLYLINE
  8
4_SURFACE
 62
7
  6
CONTINUOUS
 66
1
 70
0
  0
VERTEX
  8
4_SURFACE
 62
7
  6
CONTINUOUS
 10
54.5787528782
 20
134.6112569083
  0
VERTEX
  8
4_SURFACE
 62
7
  6
CONTINUOUS
 10
54.5065916924
 20
134.6159528454
  0
VERTEX
  8
4_SURFACE
 62
7
  6
CONTINUOUS
 10
54.3747272978
 20
134.6418990751
  0
VERTEX
  8
4_SURFACE
 62
7
  6
CONTINUOUS
 10
54.2490344298
 20
134.6895571432
  0
VERTEX
  8
4_SURFACE
 62
7
  6
CONTINUOUS
 10
54.1330843373
 20
134.7575863921
  0
VERTEX
  8
4_SURFACE
 62
7
  6
CONTINUOUS
 10
54.0301673741
 20
134.8440582265
  0
VERTEX
  8
4_SURFACE
 62
7
  6
CONTINUOUS
 10
53.9431904077
 20
134.9465238144
  0
VERTEX
  8
4_SURFACE
 62
7
  6
CONTINUOUS
 10
53.8745999772
 20
135.0620929458
  0
VERTEX
  8
4_SURFACE
 62
7
  6
CONTINUOUS
 10
53.8263281016
 20
135.1875054929
  0
VERTEX
  8
4_SURFACE
 62
7
  6
CONTINUOUS
 10
53.7997336227
 20
135.3192181411
  0
VERTEX
  8
4_SURFACE
 62
7
  6
CONTINUOUS
 10
53.794442564
 20
135.4110956706
  0
SEQEND
  0
POLYLINE
  8
0
 62
7
  6
CONTINUOUS
 66
1
 70
0
  0
VERTEX
  8
0
 62
7
  6
CONTINUOUS
 10
105.1788295298
 20
134.6112553943
  0
VERTEX
  8
0
 62
7
  6
CONTINUOUS
 10
105.1027209762
 20
134.6163906989
  0
VERTEX
  8
0
 62
7
  6
CONTINUOUS
 10
104.9709590716
 20
134.6429859986
  0
VERTEX
  8
0
 62
7
  6
CONTINUOUS
 10
104.8455007574
 20
134.6912595235
  0
VERTEX
  8
0
 62
7
  6
CONTINUOUS
 10
104.7298972838
 20
134.7598478737
  0
VERTEX
  8
0
 62
7
  6
CONTINUOUS
 10
104.6274157183
 20
134.8468093775
  0
VERTEX
  8
0
 62
7
  6
CONTINUOUS
 10
104.5409441166
 20
134.9496882422
  0
VERTEX
  8
0
 62
7
  6
CONTINUOUS
 10
104.4729177197
 20
135.0655833341
  0
VERTEX
  8
0
 62
7
  6
CONTINUOUS
 10
104.4252558261
 20
135.1912211129
  0
VERTEX
  8
0
 62
7
  6
CONTINUOUS
 10
104.399300137
 20
135.3230477798
  0
VERTEX
  8
0
 62
7
  6
CONTINUOUS
 10
104.3944425573
 20
135.4110956707
  0
SEQEND
  0
POLYLINE
  8
4_SURFACE
 62
7
  6
CONTINUOUS
 66
1
 70
0
  0
VERTEX
  8
4_SURFACE
 62
7
  6
CONTINUOUS
 10
54.5787547849
 20
134.6112532337
  0
VERTEX
  8
4_SURFACE
 62
7
  6
CONTINUOUS
 10
54.4716544435
 20
134.6205986084
  0
VERTEX
  8
4_SURFACE
 62
7
  6
CONTINUOUS
 10
54.3493441789
 20
134.6496020349
  0
VERTEX
  8
4_SURFACE
 62
7
  6
CONTINUOUS
 10
54.2321317881
 20
134.69787771
  0
VERTEX
  8
4_SURFACE
 62
7
  6
CONTINUOUS
 10
54.1242102445
 20
134.7639093766
  0
VERTEX
  8
4_SURFACE
 62
7
  6
CONTINUOUS
 10
54.0287758416
 20
134.8453923025
  0
SEQEND
  0
LINE
  8
1_AXIS
 62
2
  6
CENTER
 10
26.8573535623
 20
138.5610956705
 11
157.0491321597
 21
138.5610956705
  0
POLYLINE
  8
0
 62
7
  6
CONTINUOUS
 66
1
 70
0
  0
VERTEX
  8
0
 62
7
  6
CONTINUOUS
 10
155.8788295298
 20
134.6112553943
  0
VERTEX
  8
0
 62
7
  6
CONTINUOUS
 10
155.8027209763
 20
134.6163906989
  0
VERTEX
  8
0
 62
7
  6
CONTINUOUS
 10
155.6709590717
 20
134.6429859986
  0
VERTEX
  8
0
 62
7
  6
CONTINUOUS
 10
155.5455007574
 20
134.6912595235
  0
VERTEX
  8
0
 62
7
  6
CONTINUOUS
 10
155.4298972839
 20
134.7598478737
  0
VERTEX
  8
0
 62
7
  6
CONTINUOUS
 10
155.3274157184
 20
134.8468093775
  0
VERTEX
  8
0
 62
7
  6
CONTINUOUS
 10
155.2409441166
 20
134.9496882422
  0
VERTEX
  8
0
 62
7
  6
CONTINUOUS
 10
155.1729177197
 20
135.065583334
  0
VERTEX
  8
0
 62
7
  6
CONTINUOUS
 10
155.1252558261
 20
135.1912211129
  0
VERTEX
  8
0
 62
7
  6
CONTINUOUS
 10
155.099300137
 20
135.3230477798
  0
VERTEX
  8
0
 62
7
  6
CONTINUOUS
 10
155.0944425573
 20
135.4110956707
  0
SEQEND
  0
POLYLINE
  8
0
 62
7
  6
CONTINUOUS
 66
1
 70
0
  0
VERTEX
  8
0
 62
7
  6
CONTINUOUS
 10
104.7242102445
 20
134.7639093766
  0
VERTEX
  8
0
 62
7
  6
CONTINUOUS
 10
104.8321317881
 20
134.69787771
  0
VERTEX
  8
0
 62
7
  6
CONTINUOUS
 10
104.9493441789
 20
134.6496020349
  0
VERTEX
  8
0
 62
7
  6
CONTINUOUS
 10
105.0716544434
 20
134.6205986084
  0
VERTEX
  8
0
 62
7
  6
CONTINUOUS
 10
105.1788314276
 20
134.6112517166
  0
SEQEND
  0
POLYLINE
  8
0
 62
7
  6
CONTINUOUS
 66
1
 70
0
  0
VERTEX
  8
0
 62
7
  6
CONTINUOUS
 10
155.1822754774
 20
104.2582819644
  0
VERTEX
  8
0
 62
7
  6
CONTINUOUS
 10
155.0743539339
 20
104.3243136311
  0
VERTEX
  8
0
 62
7
  6
CONTINUOUS
 10
154.9571415431
 20
104.3725893062
  0
VERTEX
  8
0
 62
7
  6
CONTINUOUS
 10
154.8348312785
 20
104.4015927327
  0
VERTEX
  8
0
 62
7
  6
CONTINUOUS
 10
154.7276542944
 20
104.4109396245
  0
SEQEND
  0
POLYLINE
  8
0
 62
7
  6
CONTINUOUS
 66
1
 70
0
  0
VERTEX
  8
0
 62
7
  6
CONTINUOUS
 10
129.95921673
 20
134.9407750028
  0
VERTEX
  8
0
 62
7
  6
CONTINUOUS
 10
130.0252619731
 20
135.0486181572
  0
VERTEX
  8
0
 62
7
  6
CONTINUOUS
 10
130.0735675079
 20
135.1657760746
  0
VERTEX
  8
0
 62
7
  6
CONTINUOUS
 10
130.1026044841
 20
135.2880777473
  0
SEQEND
  0
POLYLINE
  8
0
 62
7
  6
CONTINUOUS
 66
1
 70
0
  0
VERTEX
  8
0
 62
7
  6
CONTINUOUS
 10
130.714166245
 20
144.9110941627
  0
VERTEX
  8
0
 62
7
  6
CONTINUOUS
 10
130.6680514866
 20
144.9089710921
  0
VERTEX
  8
0
 62
7
  6
CONTINUOUS
 10
130.5670116851
 20
144.8890348423
  0
VERTEX
  8
0
 62
7
  6
CONTINUOUS
 10
130.4757343848
 20
144.85084608
  0
VERTEX
  8
0
 62
7
  6
CONTINUOUS
 10
130.3985877919
 20
144.7995108504
  0
VERTEX
  8
0
 62
7
  6
CONTINUOUS
 10
130.3378705083
 20
144.7414926908
  0
VERTEX
  8
0
 62
7
  6
CONTINUOUS
 10
130.2927845743
 20
144.6823792248
  0
VERTEX
  8
0
 62
7
  6
CONTINUOUS
 10
130.261297934
 20
144.6269169441
  0
VERTEX
  8
0
 62
7
  6
CONTINUOUS
 10
130.2407344226
 20
144.5789518786
  0
VERTEX
  8
0
 62
7
  6
CONTINUOUS
 10
130.2276328684
 20
144.539173283
  0
VERTEX
  8
0
 62
7
  6
CONTINUOUS
 10
130.2192012095
 20
144.5065952103
  0
VERTEX
  8
0
 62
7
  6
CONTINUOUS
 10
130.213393573
 20
144.4787751237
  0
VERTEX
  8
0
 62
7
  6
CONTINUOUS
 10
130.2090593567
 20
144.4536685572
  0
VERTEX
  8
0
 62
7
  6
CONTINUOUS
 10
130.2055411188
 20
144.4295565894
  0
VERTEX
  8
0
 62
7
  6
CONTINUOUS
 10
130.2024922523
 20
144.4052773614
  0
VERTEX
  8
0
 62
7
  6
CONTINUOUS
 10
130.1997250858
 20
144.3800534461
  0
VERTEX
  8
0
 62
7
  6
CONTINUOUS
 10
130.1971264384
 20
144.3532716724
  0
VERTEX
  8
0
 62
7
  6
CONTINUOUS
 10
130.1946276893
 20
144.32444754
  0
VERTEX
  8
0
 62
7
  6
CONTINUOUS
 10
130.1921877126
 20
144.2932035169
  0
VERTEX
  8
0
 62
7
  6
CONTINUOUS
 10
130.1897816158
 20
144.2592386015
  0
VERTEX
  8
0
 62
7
  6
CONTINUOUS
 10
130.1873941491
 20
144.2223077245
  0
VERTEX
  8
0
 62
7
  6
CONTINUOUS
 10
130.1850159866
 20
144.1822030609
  0
VERTEX
  8
0
 62
7
  6
CONTINUOUS
 10
130.1826419484
 20
144.1387495178
  0
VERTEX
  8
0
 62
7
  6
CONTINUOUS
 10
130.1778963876
 20
144.0411798759
  0
SEQEND
  0
POLYLINE
  8
4_SURFACE
 62
7
  6
CONTINUOUS
 66
1
 70
0
  0
VERTEX
  8
4_SURFACE
 62
7
  6
CONTINUOUS
 10
80.114166149
 20
144.9110941642
  0
VERTEX
  8
4_SURFACE
 62
7
  6
CONTINUOUS
 10
80.0722545702
 20
144.9093411481
  0
VERTEX
  8
4_SURFACE
 62
7
  6
CONTINUOUS
 10
79.9709005249
 20
144.8902103047
  0
VERTEX
  8
4_SURFACE
 62
7
  6
CONTINUOUS
 10
79.879204381
 20
144.85270127
  0
VERTEX
  8
4_SURFACE
 62
7
  6
CONTINUOUS
 10
79.8014551782
 20
144.8018091805
  0
VERTEX
  8
4_SURFACE
 62
7
  6
CONTINUOUS
 10
79.7399408234
 20
144.7438155103
  0
VERTEX
  8
4_SURFACE
 62
7
  6
CONTINUOUS
 10
79.6940531051
 20
144.6843122929
  0
VERTEX
  8
4_SURFACE
 62
7
  6
CONTINUOUS
 10
79.6620541301
 20
144.6284577296
  0
VERTEX
  8
4_SURFACE
 62
7
  6
CONTINUOUS
 10
79.6412477196
 20
144.5803263093
  0
VERTEX
  8
4_SURFACE
 62
7
  6
CONTINUOUS
 10
79.6281346275
 20
144.5409004884
  0
VERTEX
  8
4_SURFACE
 62
7
  6
CONTINUOUS
 10
79.6198069077
 20
144.5092002106
  0
VERTEX
  8
4_SURFACE
 62
7
  6
CONTINUOUS
 10
79.6140887762
 20
144.4824150222
  0
VERTEX
  8
4_SURFACE
 62
7
  6
CONTINUOUS
 10
79.6098118379
 20
144.4583570853
  0
VERTEX
  8
4_SURFACE
 62
7
  6
CONTINUOUS
 10
79.606375118
 20
144.4356229614
  0
VERTEX
  8
4_SURFACE
 62
7
  6
CONTINUOUS
 10
79.6034646492
 20
144.4133980489
  0
VERTEX
  8
4_SURFACE
 62
7
  6
CONTINUOUS
 10
79.6008829838
 20
144.3910029092
  0
VERTEX
  8
4_SURFACE
 62
7
  6
CONTINUOUS
 10
79.598496901
 20
144.3677866222
  0
VERTEX
  8
4_SURFACE
 62
7
  6
CONTINUOUS
 10
79.5962347878
 20
144.3433428756
  0
VERTEX
  8
4_SURFACE
 62
7
  6
CONTINUOUS
 10
79.5940523243
 20
144.3173621709
  0
VERTEX
  8
4_SURFACE
 62
7
  6
CONTINUOUS
 10
79.5919210179
 20
144.2895957991
  0
VERTEX
  8
4_SURFACE
 62
7
  6
CONTINUOUS
 10
79.5898221754
 20
144.2598378652
  0
VERTEX
  8
4_SURFACE
 62
7
  6
CONTINUOUS
 10
79.5877430034
 20
144.2279094103
  0
VERTEX
  8
4_SURFACE
 62
7
  6
CONTINUOUS
 10
79.5856745474
 20
144.1936470555
  0
VERTEX
  8
4_SURFACE
 62
7
  6
CONTINUOUS
 10
79.5815469623
 20
144.1175241802
  0
SEQEND
  0
LINE
  8
0
 62
7
  6
CONTINUOUS
 10
154.4922757912
 20
144.9110948709
 11
154.4923225937
 21
144.9110956639
  0
LINE
  8
0
 62
7
  6
CONTINUOUS
 10
103.7922757912
 20
144.9110948709
 11
103.7923225937
 21
144.9110956639
  0
LINE
  8
4_SURFACE
 62
7
  6
CONTINUOUS
 10
53.1923227499
 20
144.9110956643
 11
53.1922757912
 21
144.9110948709
  0
LINE
  8
0
 62
7
  6
CONTINUOUS
 10
53.1922757912
 20
144.9110948709
 11
52.3161428077
 21
144.9110954706
  0
LINE
  8
0
 62
7
  6
CONTINUOUS
 10
154.4923269122
 20
144.9110956705
 11
130.7141588098
 21
144.9110956705
  0
LINE
  8
0
 62
7
  6
CONTINUOUS
 10
103.7923269122
 20
144.9110956705
 11
80.1141588098
 21
144.9110956705
  0
LINE
  8
0
 62
7
  6
CONTINUOUS
 10
46.0703429158
 20
144.9110954706
 11
43.54350238
 21
144.9110954706
  0
LINE
  8
0
 62
7
  6
CONTINUOUS
 10
39.1629833528
 20
144.9110954706
 11
36.6461428077
 21
144.9110954706
  0
LINE
  8
4_SURFACE
 62
7
  6
CONTINUOUS
 10
53.1923269122
 20
144.9110956705
 11
29.4141588098
 21
144.9110956705
  0
LINE
  8
0
 62
7
  6
CONTINUOUS
 10
30.4003429158
 20
144.9110954706
 11
29.4142099307
 21
144.9110948709
  0
LINE
  8
4_SURFACE
 62
7
  6
CONTINUOUS
 10
29.4142099307
 20
144.9110948709
 11
29.4141629924
 21
144.9110956643
  0
LINE
  8
4_SURFACE
 62
7
  6
CONTINUOUS
 10
80.1142099307
 20
144.9110948709
 11
80.1141629924
 21
144.9110956643
  0
LINE
  8
0
 62
7
  6
CONTINUOUS
 10
130.7141630923
 20
144.911095664
 11
130.7142099307
 21
144.9110948709
  0
POLYLINE
  8
4_SURFACE
 62
7
  6
CONTINUOUS
 66
1
 70
0
  0
VERTEX
  8
4_SURFACE
 62
7
  6
CONTINUOUS
 10
29.414166149
 20
144.9110941642
  0
VERTEX
  8
4_SURFACE
 62
7
  6
CONTINUOUS
 10
29.3722545702
 20
144.9093411481
  0
VERTEX
  8
4_SURFACE
 62
7
  6
CONTINUOUS
 10
29.2709005249
 20
144.8902103047
  0
VERTEX
  8
4_SURFACE
 62
7
  6
CONTINUOUS
 10
29.179204381
 20
144.85270127
  0
VERTEX
  8
4_SURFACE
 62
7
  6
CONTINUOUS
 10
29.1014551782
 20
144.8018091805
  0
VERTEX
  8
4_SURFACE
 62
7
  6
CONTINUOUS
 10
29.0399408234
 20
144.7438155103
  0
VERTEX
  8
4_SURFACE
 62
7
  6
CONTINUOUS
 10
28.9940531051
 20
144.6843122929
  0
VERTEX
  8
4_SURFACE
 62
7
  6
CONTINUOUS
 10
28.9620541301
 20
144.6284577296
  0
VERTEX
  8
4_SURFACE
 62
7
  6
CONTINUOUS
 10
28.9412477196
 20
144.5803263093
  0
VERTEX
  8
4_SURFACE
 62
7
  6
CONTINUOUS
 10
28.9281346275
 20
144.5409004884
  0
VERTEX
  8
4_SURFACE
 62
7
  6
CONTINUOUS
 10
28.9198069077
 20
144.5092002106
  0
VERTEX
  8
4_SURFACE
 62
7
  6
CONTINUOUS
 10
28.9140887762
 20
144.4824150222
  0
VERTEX
  8
4_SURFACE
 62
7
  6
CONTINUOUS
 10
28.9098118379
 20
144.4583570853
  0
VERTEX
  8
4_SURFACE
 62
7
  6
CONTINUOUS
 10
28.906375118
 20
144.4356229614
  0
VERTEX
  8
4_SURFACE
 62
7
  6
CONTINUOUS
 10
28.9034646492
 20
144.4133980489
  0
VERTEX
  8
4_SURFACE
 62
7
  6
CONTINUOUS
 10
28.9008829838
 20
144.3910029092
  0
VERTEX
  8
4_SURFACE
 62
7
  6
CONTINUOUS
 10
28.898496901
 20
144.3677866222
  0
VERTEX
  8
4_SURFACE
 62
7
  6
CONTINUOUS
 10
28.8962347878
 20
144.3433428756
  0
VERTEX
  8
4_SURFACE
 62
7
  6
CONTINUOUS
 10
28.8940523243
 20
144.3173621709
  0
VERTEX
  8
4_SURFACE
 62
7
  6
CONTINUOUS
 10
28.8919210179
 20
144.2895957991
  0
VERTEX
  8
4_SURFACE
 62
7
  6
CONTINUOUS
 10
28.8898221754
 20
144.2598378652
  0
VERTEX
  8
4_SURFACE
 62
7
  6
CONTINUOUS
 10
28.8877430034
 20
144.2279094103
  0
VERTEX
  8
4_SURFACE
 62
7
  6
CONTINUOUS
 10
28.8856745474
 20
144.1936470555
  0
VERTEX
  8
4_SURFACE
 62
7
  6
CONTINUOUS
 10
28.8815469623
 20
144.1175241802
  0
SEQEND
  0
LINE
  8
0
 62
7
  6
CONTINUOUS
 10
129.6911160733
 20
98.9796920031
 11
129.6944391645
 21
103.6110956705
  0
LINE
  8
0
 62
7
  6
CONTINUOUS
 10
130.1153696487
 20
140.0424993379
 11
130.1120465727
 21
138.5610956705
  0
LINE
  8
0
 62
7
  6
CONTINUOUS
 10
129.6825166218
 20
97.7155990129
 11
129.6911160733
 21
98.9796920031
  0
LINE
  8
0
 62
7
  6
CONTINUOUS
 10
130.1239691002
 20
141.3065923281
 11
130.1153696487
 21
140.0424993379
  0
LINE
  8
0
 62
7
  6
CONTINUOUS
 10
130.1336135082
 20
142.1602539636
 11
130.1239691002
 21
141.3065923281
  0
LINE
  8
0
 62
7
  6
CONTINUOUS
 10
129.6728722138
 20
96.8619373774
 11
129.6825166218
 21
97.7155990129
  0
LINE
  8
0
 62
7
  6
CONTINUOUS
 10
130.1446157483
 20
142.849393183
 11
130.1336135082
 21
142.1602539636
  0
POLYLINE
  8
0
 62
7
  6
CONTINUOUS
 66
1
 70
0
  0
VERTEX
  8
0
 62
7
  6
CONTINUOUS
 10
129.6595600972
 20
96.0531274779
  0
VERTEX
  8
0
 62
7
  6
CONTINUOUS
 10
129.6618699737
 20
96.1727981581
  0
VERTEX
  8
0
 62
7
  6
CONTINUOUS
 10
129.6728722138
 20
96.8619373774
  0
SEQEND
  0
LINE
  8
0
 62
7
  6
CONTINUOUS
 10
130.1539901971
 20
143.2936222134
 11
130.1446157483
 21
142.849393183
  0
LINE
  8
0
 62
7
  6
CONTINUOUS
 10
130.1611674444
 20
143.5688606446
 11
130.1539901971
 21
143.2936222134
  0
LINE
  8
0
 62
7
  6
CONTINUOUS
 10
130.1683616313
 20
143.7983900521
 11
130.1611674444
 21
143.5688606446
  0
LINE
  8
0
 62
7
  6
CONTINUOUS
 10
130.1731390695
 20
143.928213092
 11
130.1683616313
 21
143.7983900521
  0
LINE
  8
0
 62
7
  6
CONTINUOUS
 10
130.1778963876
 20
144.0411798759
 11
130.1731390695
 21
143.928213092
  0
POLYLINE
  8
0
 62
7
  6
CONTINUOUS
 66
1
 70
0
  0
VERTEX
  8
0
 62
7
  6
CONTINUOUS
 10
130.112043158
 20
135.4110956706
  0
VERTEX
  8
0
 62
7
  6
CONTINUOUS
 10
130.1067520992
 20
135.3192181411
  0
VERTEX
  8
0
 62
7
  6
CONTINUOUS
 10
130.0801576204
 20
135.1875054929
  0
VERTEX
  8
0
 62
7
  6
CONTINUOUS
 10
130.0318857447
 20
135.0620929458
  0
VERTEX
  8
0
 62
7
  6
CONTINUOUS
 10
129.9632953143
 20
134.9465238144
  0
VERTEX
  8
0
 62
7
  6
CONTINUOUS
 10
129.8763183479
 20
134.8440582265
  0
VERTEX
  8
0
 62
7
  6
CONTINUOUS
 10
129.7734013847
 20
134.7575863921
  0
VERTEX
  8
0
 62
7
  6
CONTINUOUS
 10
129.6574512922
 20
134.6895571432
  0
VERTEX
  8
0
 62
7
  6
CONTINUOUS
 10
129.5317584242
 20
134.6418990751
  0
VERTEX
  8
0
 62
7
  6
CONTINUOUS
 10
129.3998940296
 20
134.6159528454
  0
VERTEX
  8
0
 62
7
  6
CONTINUOUS
 10
129.3277328438
 20
134.6112569083
  0
SEQEND
  0
LINE
  8
0
 62
7
  6
CONTINUOUS
 10
130.1026044841
 20
135.2880777473
 11
130.1121227099
 21
135.4110956705
  0
LINE
  8
0
 62
7
  6
CONTINUOUS
 10
130.1120465575
 20
135.4110956705
 11
130.1120465575
 21
138.5610956705
  0
LINE
  8
0
 62
7
  6
CONTINUOUS
 10
129.6501103866
 20
95.631504701
 11
129.6595600972
 21
96.0531274779
  0
LINE
  8
0
 62
7
  6
CONTINUOUS
 10
129.6429183124
 20
95.3719443945
 11
129.6501103866
 21
95.631504701
  0
LINE
  8
0
 62
7
  6
CONTINUOUS
 10
129.6357328356
 20
95.1566912552
 11
129.6429183124
 21
95.3719443945
  0
LINE
  8
0
 62
7
  6
CONTINUOUS
 10
129.6309656789
 20
95.0354790098
 11
129.6357328356
 21
95.1566912552
  0
LINE
  8
0
 62
7
  6
CONTINUOUS
 10
129.6262161657
 20
94.9303937919
 11
129.6309656789
 21
95.0354790098
  0
POLYLINE
  8
0
 62
7
  6
CONTINUOUS
 66
1
 70
0
  0
VERTEX
  8
0
 62
7
  6
CONTINUOUS
 10
129.694442564
 20
103.6110956704
  0
VERTEX
  8
0
 62
7
  6
CONTINUOUS
 10
129.6997336227
 20
103.7029732
  0
VERTEX
  8
0
 62
7
  6
CONTINUOUS
 10
129.7263281016
 20
103.8346858482
  0
VERTEX
  8
0
 62
7
  6
CONTINUOUS
 10
129.7745999772
 20
103.9600983953
  0
VERTEX
  8
0
 62
7
  6
CONTINUOUS
 10
129.8431904077
 20
104.0756675266
  0
VERTEX
  8
0
 62
7
  6
CONTINUOUS
 10
129.9301673741
 20
104.1781331146
  0
VERTEX
  8
0
 62
7
  6
CONTINUOUS
 10
130.0330843373
 20
104.264604949
  0
VERTEX
  8
0
 62
7
  6
CONTINUOUS
 10
130.1490344298
 20
104.3326341979
  0
VERTEX
  8
0
 62
7
  6
CONTINUOUS
 10
130.2747272978
 20
104.3802922659
  0
VERTEX
  8
0
 62
7
  6
CONTINUOUS
 10
130.4065916924
 20
104.4062384957
  0
VERTEX
  8
0
 62
7
  6
CONTINUOUS
 10
130.4787528782
 20
104.4109344328
  0
SEQEND
  0
LINE
  8
0
 62
7
  6
CONTINUOUS
 10
129.7038812379
 20
103.7341135938
 11
129.6943630121
 21
103.6110956705
  0
POLYLINE
  8
0
 62
7
  6
CONTINUOUS
 66
1
 70
0
  0
VERTEX
  8
0
 62
7
  6
CONTINUOUS
 10
129.847268992
 20
104.0814163382
  0
VERTEX
  8
0
 62
7
  6
CONTINUOUS
 10
129.7812237489
 20
103.9735731838
  0
VERTEX
  8
0
 62
7
  6
CONTINUOUS
 10
129.732918214
 20
103.8564152664
  0
VERTEX
  8
0
 62
7
  6
CONTINUOUS
 10
129.7038812379
 20
103.7341135938
  0
SEQEND
  0
POLYLINE
  8
0
 62
7
  6
CONTINUOUS
 66
1
 70
0
  0
VERTEX
  8
0
 62
7
  6
CONTINUOUS
 10
155.4242102445
 20
134.7639093766
  0
VERTEX
  8
0
 62
7
  6
CONTINUOUS
 10
155.5321317881
 20
134.69787771
  0
VERTEX
  8
0
 62
7
  6
CONTINUOUS
 10
155.6493441789
 20
134.6496020349
  0
VERTEX
  8
0
 62
7
  6
CONTINUOUS
 10
155.7716544434
 20
134.6205986084
  0
VERTEX
  8
0
 62
7
  6
CONTINUOUS
 10
155.8788314276
 20
134.6112517166
  0
SEQEND
  0
LINE
  8
0
 62
7
  6
CONTINUOUS
 10
164.4860706046
 20
95.3821921553
 11
164.4925631486
 21
95.3650365564
  0
LINE
  8
0
 62
7
  6
CONTINUOUS
 10
164.4925631486
 20
95.3650365564
 11
164.4970976599
 21
95.3529115451
  0
POLYLINE
  8
0
 62
7
  6
CONTINUOUS
 66
1
 70
0
  0
VERTEX
  8
0
 62
7
  6
CONTINUOUS
 10
155.5121227099
 20
103.6110956705
  0
VERTEX
  8
0
 62
7
  6
CONTINUOUS
 10
155.5026044841
 20
103.7341135938
  0
VERTEX
  8
0
 62
7
  6
CONTINUOUS
 10
155.4735675079
 20
103.8564152664
  0
VERTEX
  8
0
 62
7
  6
CONTINUOUS
 10
155.4252619731
 20
103.9735731838
  0
VERTEX
  8
0
 62
7
  6
CONTINUOUS
 10
155.35921673
 20
104.0814163382
  0
VERTEX
  8
0
 62
7
  6
CONTINUOUS
 10
155.2777098803
 20
104.1767990386
  0
SEQEND
  0
POLYLINE
  8
0
 62
7
  6
CONTINUOUS
 66
1
 70
0
  0
VERTEX
  8
0
 62
7
  6
CONTINUOUS
 10
155.0943630121
 20
135.4110956705
  0
VERTEX
  8
0
 62
7
  6
CONTINUOUS
 10
155.1038812379
 20
135.2880777473
  0
VERTEX
  8
0
 62
7
  6
CONTINUOUS
 10
155.132918214
 20
135.1657760746
  0
VERTEX
  8
0
 62
7
  6
CONTINUOUS
 10
155.1812237489
 20
135.0486181572
  0
VERTEX
  8
0
 62
7
  6
CONTINUOUS
 10
155.247268992
 20
134.9407750028
  0
VERTEX
  8
0
 62
7
  6
CONTINUOUS
 10
155.3287758416
 20
134.8453923025
  0
SEQEND
  0
POLYLINE
  8
0
 62
7
  6
CONTINUOUS
 66
1
 70
0
  0
VERTEX
  8
0
 62
7
  6
CONTINUOUS
 10
155.5849374097
 20
94.8413712358
  0
VERTEX
  8
0
 62
7
  6
CONTINUOUS
 10
155.5872121802
 20
94.8028338176
  0
VERTEX
  8
0
 62
7
  6
CONTINUOUS
 10
155.589501957
 20
94.7671099749
  0
VERTEX
  8
0
 62
7
  6
CONTINUOUS
 10
155.5918168555
 20
94.7340151042
  0
VERTEX
  8
0
 62
7
  6
CONTINUOUS
 10
155.5941698928
 20
94.7033674074
  0
VERTEX
  8
0
 62
7
  6
CONTINUOUS
 10
155.5965809418
 20
94.6749477094
  0
VERTEX
  8
0
 62
7
  6
CONTINUOUS
 10
155.5990834926
 20
94.6484603907
  0
VERTEX
  8
0
 62
7
  6
CONTINUOUS
 10
155.6017336068
 20
94.6235102578
  0
VERTEX
  8
0
 62
7
  6
CONTINUOUS
 10
155.6046272574
 20
94.5995548492
  0
VERTEX
  8
0
 62
7
  6
CONTINUOUS
 10
155.6079366052
 20
94.5758095789
  0
VERTEX
  8
0
 62
7
  6
CONTINUOUS
 10
155.6119738355
 20
94.5511590991
  0
VERTEX
  8
0
 62
7
  6
CONTINUOUS
 10
155.6172718917
 20
94.5242334581
  0
VERTEX
  8
0
 62
7
  6
CONTINUOUS
 10
155.6248888545
 20
94.4928368687
  0
VERTEX
  8
0
 62
7
  6
CONTINUOUS
 10
155.6368831724
 20
94.4539349535
  0
VERTEX
  8
0
 62
7
  6
CONTINUOUS
 10
155.6564731663
 20
94.4054215509
  0
VERTEX
  8
0
 62
7
  6
CONTINUOUS
 10
155.6870605309
 20
94.348780427
  0
VERTEX
  8
0
 62
7
  6
CONTINUOUS
 10
155.7314085357
 20
94.2881384158
  0
VERTEX
  8
0
 62
7
  6
CONTINUOUS
 10
155.7927219683
 20
94.2274908378
  0
VERTEX
  8
0
 62
7
  6
CONTINUOUS
 10
155.8721112106
 20
94.1733198638
  0
VERTEX
  8
0
 62
7
  6
CONTINUOUS
 10
155.9662518434
 20
94.1333901886
  0
VERTEX
  8
0
 62
7
  6
CONTINUOUS
 10
156.0690646834
 20
94.1131277834
  0
VERTEX
  8
0
 62
7
  6
CONTINUOUS
 10
156.1141662807
 20
94.111097177
  0
SEQEND
  0
POLYLINE
  8
0
 62
7
  6
CONTINUOUS
 66
1
 70
0
  0
VERTEX
  8
0
 62
7
  6
CONTINUOUS
 10
155.0215483123
 20
144.1808201052
  0
VERTEX
  8
0
 62
7
  6
CONTINUOUS
 10
155.0192735418
 20
144.2193575235
  0
VERTEX
  8
0
 62
7
  6
CONTINUOUS
 10
155.016983765
 20
144.2550813661
  0
VERTEX
  8
0
 62
7
  6
CONTINUOUS
 10
155.0146688665
 20
144.2881762369
  0
VERTEX
  8
0
 62
7
  6
CONTINUOUS
 10
155.0123158292
 20
144.3188239336
  0
VERTEX
  8
0
 62
7
  6
CONTINUOUS
 10
155.0099047802
 20
144.3472436317
  0
VERTEX
  8
0
 62
7
  6
CONTINUOUS
 10
155.0074022293
 20
144.3737309503
  0
VERTEX
  8
0
 62
7
  6
CONTINUOUS
 10
155.0047521152
 20
144.3986810832
  0
VERTEX
  8
0
 62
7
  6
CONTINUOUS
 10
155.0018584646
 20
144.4226364918
  0
VERTEX
  8
0
 62
7
  6
CONTINUOUS
 10
154.9985491168
 20
144.4463817622
  0
VERTEX
  8
0
 62
7
  6
CONTINUOUS
 10
154.9945118864
 20
144.471032242
  0
VERTEX
  8
0
 62
7
  6
CONTINUOUS
 10
154.9892138303
 20
144.497957883
  0
VERTEX
  8
0
 62
7
  6
CONTINUOUS
 10
154.9815968675
 20
144.5293544724
  0
VERTEX
  8
0
 62
7
  6
CONTINUOUS
 10
154.9696025496
 20
144.5682563876
  0
VERTEX
  8
0
 62
7
  6
CONTINUOUS
 10
154.9500125557
 20
144.6167697901
  0
VERTEX
  8
0
 62
7
  6
CONTINUOUS
 10
154.9194251911
 20
144.673410914
  0
VERTEX
  8
0
 62
7
  6
CONTINUOUS
 10
154.8750771863
 20
144.7340529252
  0
VERTEX
  8
0
 62
7
  6
CONTINUOUS
 10
154.8137637537
 20
144.7947005033
  0
VERTEX
  8
0
 62
7
  6
CONTINUOUS
 10
154.7343745113
 20
144.8488714773
  0
VERTEX
  8
0
 62
7
  6
CONTINUOUS
 10
154.6402338786
 20
144.8888011525
  0
VERTEX
  8
0
 62
7
  6
CONTINUOUS
 10
154.5374210386
 20
144.9090635576
  0
VERTEX
  8
0
 62
7
  6
CONTINUOUS
 10
154.4923194413
 20
144.9110941641
  0
SEQEND
  0
LINE
  8
0
 62
7
  6
CONTINUOUS
 10
155.5804096087
 20
94.9275218952
 11
155.5849374097
 21
94.8413712358
  0
LINE
  8
0
 62
7
  6
CONTINUOUS
 10
155.0260761133
 20
144.0946694459
 11
155.0215483123
 21
144.1808201052
  0
LINE
  8
0
 62
7
  6
CONTINUOUS
 10
155.5758923862
 20
95.0266894692
 11
155.5804096087
 21
94.9275218952
  0
LINE
  8
0
 62
7
  6
CONTINUOUS
 10
155.0305933358
 20
143.9955018718
 11
155.0260761133
 21
144.0946694459
  0
LINE
  8
0
 62
7
  6
CONTINUOUS
 10
155.5713800166
 20
95.1398043179
 11
155.5758923862
 21
95.0266894692
  0
LINE
  8
0
 62
7
  6
CONTINUOUS
 10
155.0351057054
 20
143.8823870232
 11
155.0305933358
 21
143.9955018718
  0
LINE
  8
0
 62
7
  6
CONTINUOUS
 10
155.5646335993
 20
95.3373718735
 11
155.5713800166
 21
95.1398043179
  0
LINE
  8
0
 62
7
  6
CONTINUOUS
 10
155.0418521227
 20
143.6848194676
 11
155.0351057054
 21
143.8823870232
  0
LINE
  8
0
 62
7
  6
CONTINUOUS
 10
155.5579504893
 20
95.570537051
 11
155.5646335993
 21
95.3373718735
  0
LINE
  8
0
 62
7
  6
CONTINUOUS
 10
155.0485352327
 20
143.45165429
 11
155.0418521227
 21
143.6848194676
  0
LINE
  8
0
 62
7
  6
CONTINUOUS
 10
155.5492029251
 20
95.9420202341
 11
155.5579504893
 21
95.570537051
  0
LINE
  8
0
 62
7
  6
CONTINUOUS
 10
155.0572827969
 20
143.0801711069
 11
155.0485352327
 21
143.45165429
  0
LINE
  8
0
 62
7
  6
CONTINUOUS
 10
155.5387168729
 20
96.5147463507
 11
155.5492029251
 21
95.9420202341
  0
LINE
  8
0
 62
7
  6
CONTINUOUS
 10
155.067768849
 20
142.5074449903
 11
155.0572827969
 21
143.0801711069
  0
LINE
  8
0
 62
7
  6
CONTINUOUS
 10
155.5273243691
 20
97.3803338572
 11
155.5387168729
 21
96.5147463507
  0
LINE
  8
0
 62
7
  6
CONTINUOUS
 10
155.0791613529
 20
141.6418574838
 11
155.067768849
 21
142.5074449903
  0
LINE
  8
0
 62
7
  6
CONTINUOUS
 10
155.0882914328
 20
140.5618629293
 11
155.0791613529
 21
141.6418574838
  0
LINE
  8
0
 62
7
  6
CONTINUOUS
 10
155.5181942892
 20
98.4603284117
 11
155.5273243691
 21
97.3803338572
  0
LINE
  8
0
 62
7
  6
CONTINUOUS
 10
155.0941356547
 20
139.012062061
 11
155.0882914328
 21
140.5618629293
  0
LINE
  8
0
 62
7
  6
CONTINUOUS
 10
155.5123500673
 20
100.01012928
 11
155.5181942892
 21
98.4603284117
  0
LINE
  8
0
 62
7
  6
CONTINUOUS
 10
155.0941356547
 20
139.012062061
 11
155.0944391645
 21
135.4110956705
  0
LINE
  8
0
 62
7
  6
CONTINUOUS
 10
155.5123500673
 20
100.01012928
 11
155.5120465575
 21
103.6110956705
  0
LINE
  8
0
 62
7
  6
CONTINUOUS
 10
164.4970976599
 20
95.3529115451
 11
164.5059573464
 21
95.3289043577
  0
LINE
  8
0
 62
7
  6
CONTINUOUS
 10
164.5059573464
 20
95.3289043577
 11
164.514559071
 21
95.3052324995
  0
LINE
  8
0
 62
7
  6
CONTINUOUS
 10
164.514559071
 20
95.3052324995
 11
164.5270380716
 21
95.2703541564
  0
LINE
  8
0
 62
7
  6
CONTINUOUS
 10
164.5270380716
 20
95.2703541564
 11
164.5468917238
 21
95.2139543832
  0
LINE
  8
0
 62
7
  6
CONTINUOUS
 10
164.5620969924
 20
95.1704212446
 11
164.5806291532
 21
95.1176060591
  0
LINE
  8
0
 62
7
  6
CONTINUOUS
 10
164.5468917238
 20
95.2139543832
 11
164.5526535272
 21
95.1974679921
  0
LINE
  8
0
 62
7
  6
CONTINUOUS
 10
164.5526535272
 20
95.1974679921
 11
164.5620969924
 21
95.1704212446
  0
LINE
  8
0
 62
7
  6
CONTINUOUS
 10
158.5952650395
 20
95.3144542162
 11
158.5700938852
 21
94.593646668
  0
LINE
  8
0
 62
7
  6
CONTINUOUS
 10
164.5112205824
 20
95.3144570847
 11
164.5363918368
 21
94.593646668
  0
LINE
  8
0
 62
7
  6
CONTINUOUS
 10
168.053242861
 20
94.6110957136
 11
168.053242861
 21
133.2110956705
  0
LINE
  8
0
 62
7
  6
CONTINUOUS
 10
158.5258566218
 20
95.1176062128
 11
158.5751125614
 21
95.2581169055
  0
LINE
  8
0
 62
7
  6
CONTINUOUS
 10
158.5751125614
 20
95.2581169055
 11
158.5877453098
 21
95.2936102184
  0
LINE
  8
0
 62
7
  6
CONTINUOUS
 10
158.5877453098
 20
95.2936102184
 11
158.5977431389
 21
95.3212763933
  0
LINE
  8
0
 62
7
  6
CONTINUOUS
 10
158.5977431389
 20
95.3212763933
 11
158.6082774637
 21
95.349924578
  0
LINE
  8
0
 62
7
  6
CONTINUOUS
 10
158.6082774637
 20
95.349924578
 11
158.6156404143
 21
95.3695996359
  0
LINE
  8
0
 62
7
  6
CONTINUOUS
 10
158.6156404143
 20
95.3695996359
 11
158.6204152501
 21
95.3821924966
  0
POLYLINE
  8
0
 62
7
  6
CONTINUOUS
 66
1
 70
0
  0
VERTEX
  8
0
 62
7
  6
CONTINUOUS
 10
158.6204206248
 20
95.3822111349
  0
VERTEX
  8
0
 62
7
  6
CONTINUOUS
 10
158.6236808549
 20
95.3905695752
  0
VERTEX
  8
0
 62
7
  6
CONTINUOUS
 10
158.6359575595
 20
95.4192354735
  0
VERTEX
  8
0
 62
7
  6
CONTINUOUS
 10
158.6497947455
 20
95.4477686044
  0
VERTEX
  8
0
 62
7
  6
CONTINUOUS
 10
158.6649878741
 20
95.4759421562
  0
VERTEX
  8
0
 62
7
  6
CONTINUOUS
 10
158.6813804495
 20
95.5036097517
  0
VERTEX
  8
0
 62
7
  6
CONTINUOUS
 10
158.6988860095
 20
95.5307314981
  0
VERTEX
  8
0
 62
7
  6
CONTINUOUS
 10
158.7174356115
 20
95.5572672076
  0
VERTEX
  8
0
 62
7
  6
CONTINUOUS
 10
158.7369609037
 20
95.5831481254
  0
VERTEX
  8
0
 62
7
  6
CONTINUOUS
 10
158.757422609
 20
95.6083300436
  0
VERTEX
  8
0
 62
7
  6
CONTINUOUS
 10
158.7788273149
 20
95.6328021862
  0
VERTEX
  8
0
 62
7
  6
CONTINUOUS
 10
158.8011918067
 20
95.6565343177
  0
VERTEX
  8
0
 62
7
  6
CONTINUOUS
 10
158.8245492408
 20
95.6794786871
  0
VERTEX
  8
0
 62
7
  6
CONTINUOUS
 10
158.8489704115
 20
95.7015983068
  0
VERTEX
  8
0
 62
7
  6
CONTINUOUS
 10
158.8744426024
 20
95.7227383558
  0
VERTEX
  8
0
 62
7
  6
CONTINUOUS
 10
158.901112516
 20
95.7428333121
  0
VERTEX
  8
0
 62
7
  6
CONTINUOUS
 10
158.9289150591
 20
95.7616312133
  0
VERTEX
  8
0
 62
7
  6
CONTINUOUS
 10
158.958027347
 20
95.7789505311
  0
VERTEX
  8
0
 62
7
  6
CONTINUOUS
 10
158.9886028644
 20
95.7945601093
  0
VERTEX
  8
0
 62
7
  6
CONTINUOUS
 10
159.0208846802
 20
95.8080468204
  0
VERTEX
  8
0
 62
7
  6
CONTINUOUS
 10
159.0549145648
 20
95.8188594623
  0
VERTEX
  8
0
 62
7
  6
CONTINUOUS
 10
159.0910261841
 20
95.8262295087
  0
VERTEX
  8
0
 62
7
  6
CONTINUOUS
 10
159.1315383382
 20
95.8291602015
  0
SEQEND
  0
LINE
  8
4_SURFACE
 62
7
  6
CONTINUOUS
 10
15.853242861
 20
194.3682311033
 11
15.853242861
 21
182.9289448205
  0
POLYLINE
  8
4_SURFACE
 62
7
  6
CONTINUOUS
 66
1
 70
0
  0
VERTEX
  8
4_SURFACE
 62
7
  6
CONTINUOUS
 10
19.4614972185
 20
188.7789448205
  0
VERTEX
  8
4_SURFACE
 62
7
  6
CONTINUOUS
 10
19.4626515538
 20
189.2412977822
  0
VERTEX
  8
4_SURFACE
 62
7
  6
CONTINUOUS
 10
19.4660912153
 20
189.6942589093
  0
VERTEX
  8
4_SURFACE
 62
7
  6
CONTINUOUS
 10
19.4717466157
 20
190.1286238088
  0
VERTEX
  8
4_SURFACE
 62
7
  6
CONTINUOUS
 10
19.4795032647
 20
190.5355600846
  0
VERTEX
  8
4_SURFACE
 62
7
  6
CONTINUOUS
 10
19.4892039855
 20
190.9067852441
  0
VERTEX
  8
4_SURFACE
 62
7
  6
CONTINUOUS
 10
19.5006519767
 20
191.2347348342
  0
VERTEX
  8
4_SURFACE
 62
7
  6
CONTINUOUS
 10
19.5136147098
 20
191.5127181972
  0
VERTEX
  8
4_SURFACE
 62
7
  6
CONTINUOUS
 10
19.5278285519
 20
191.7350568046
  0
VERTEX
  8
4_SURFACE
 62
7
  6
CONTINUOUS
 10
19.5430041006
 20
191.8972037499
  0
VERTEX
  8
4_SURFACE
 62
7
  6
CONTINUOUS
 10
19.5588320789
 20
191.9958399071
  0
VERTEX
  8
4_SURFACE
 62
7
  6
CONTINUOUS
 10
19.5749897192
 20
192.0289448205
  0
SEQEND
  0
POLYLINE
  8
4_SURFACE
 62
7
  6
CONTINUOUS
 66
1
 70
0
  0
VERTEX
  8
4_SURFACE
 62
7
  6
CONTINUOUS
 10
19.6884822202
 20
188.7789448205
  0
VERTEX
  8
4_SURFACE
 62
7
  6
CONTINUOUS
 10
19.6873278849
 20
188.3165918588
  0
VERTEX
  8
4_SURFACE
 62
7
  6
CONTINUOUS
 10
19.6838882234
 20
187.8636307317
  0
VERTEX
  8
4_SURFACE
 62
7
  6
CONTINUOUS
 10
19.678232823
 20
187.4292658322
  0
VERTEX
  8
4_SURFACE
 62
7
  6
CONTINUOUS
 10
19.670476174
 20
187.0223295564
  0
VERTEX
  8
4_SURFACE
 62
7
  6
CONTINUOUS
 10
19.6607754532
 20
186.6511043969
  0
VERTEX
  8
4_SURFACE
 62
7
  6
CONTINUOUS
 10
19.649327462
 20
186.3231548068
  0
VERTEX
  8
4_SURFACE
 62
7
  6
CONTINUOUS
 10
19.6363647289
 20
186.0451714438
  0
VERTEX
  8
4_SURFACE
 62
7
  6
CONTINUOUS
 10
19.6221508868
 20
185.8228328364
  0
VERTEX
  8
4_SURFACE
 62
7
  6
CONTINUOUS
 10
19.606975338
 20
185.6606858911
  0
VERTEX
  8
4_SURFACE
 62
7
  6
CONTINUOUS
 10
19.5911473598
 20
185.5620497339
  0
VERTEX
  8
4_SURFACE
 62
7
  6
CONTINUOUS
 10
19.5749897194
 20
185.5289448205
  0
SEQEND
  0
LINE
  8
4_SURFACE
 62
7
  6
CONTINUOUS
 10
19.4063427298
 20
192.045712028
 11
19.4063471995
 21
192.0457526131
  0
POLYLINE
  8
4_SURFACE
 62
7
  6
CONTINUOUS
 66
1
 70
0
  0
VERTEX
  8
4_SURFACE
 62
7
  6
CONTINUOUS
 10
19.4063471995
 20
192.0457526131
  0
VERTEX
  8
4_SURFACE
 62
7
  6
CONTINUOUS
 10
19.408200898
 20
192.0593104952
  0
VERTEX
  8
4_SURFACE
 62
7
  6
CONTINUOUS
 10
19.4122489053
 20
192.0791081158
  0
SEQEND
  0
LINE
  8
4_SURFACE
 62
7
  6
CONTINUOUS
 10
19.4122389331
 20
192.0790676907
 11
19.4184730672
 21
192.1040562899
  0
POLYLINE
  8
4_SURFACE
 62
7
  6
CONTINUOUS
 66
1
 70
0
  0
VERTEX
  8
4_SURFACE
 62
7
  6
CONTINUOUS
 10
19.4184730672
 20
192.1040562899
  0
VERTEX
  8
4_SURFACE
 62
7
  6
CONTINUOUS
 10
19.4267260365
 20
192.1362314087
  0
VERTEX
  8
4_SURFACE
 62
7
  6
CONTINUOUS
 10
19.4301355243
 20
192.1492208422
  0
SEQEND
  0
POLYLINE
  8
4_SURFACE
 62
7
  6
CONTINUOUS
 66
1
 70
0
  0
VERTEX
  8
4_SURFACE
 62
7
  6
CONTINUOUS
 10
19.4301347095
 20
192.1492245207
  0
VERTEX
  8
4_SURFACE
 62
7
  6
CONTINUOUS
 10
19.4331407939
 20
192.1603646557
  0
VERTEX
  8
4_SURFACE
 62
7
  6
CONTINUOUS
 10
19.4476823228
 20
192.2087583308
  0
VERTEX
  8
4_SURFACE
 62
7
  6
CONTINUOUS
 10
19.4640356907
 20
192.2552780413
  0
VERTEX
  8
4_SURFACE
 62
7
  6
CONTINUOUS
 10
19.4820608778
 20
192.299892325
  0
VERTEX
  8
4_SURFACE
 62
7
  6
CONTINUOUS
 10
19.5016445358
 20
192.3425668502
  0
VERTEX
  8
4_SURFACE
 62
7
  6
CONTINUOUS
 10
19.5226944732
 20
192.383298935
  0
VERTEX
  8
4_SURFACE
 62
7
  6
CONTINUOUS
 10
19.5450887383
 20
192.4219979645
  0
VERTEX
  8
4_SURFACE
 62
7
  6
CONTINUOUS
 10
19.5687326013
 20
192.4586025538
  0
VERTEX
  8
4_SURFACE
 62
7
  6
CONTINUOUS
 10
19.5936101787
 20
192.4931629322
  0
VERTEX
  8
4_SURFACE
 62
7
  6
CONTINUOUS
 10
19.6197377831
 20
192.5256859133
  0
VERTEX
  8
4_SURFACE
 62
7
  6
CONTINUOUS
 10
19.6471414221
 20
192.5561578948
  0
VERTEX
  8
4_SURFACE
 62
7
  6
CONTINUOUS
 10
19.6758118261
 20
192.5844481257
  0
VERTEX
  8
4_SURFACE
 62
7
  6
CONTINUOUS
 10
19.7057704013
 20
192.6104358509
  0
VERTEX
  8
4_SURFACE
 62
7
  6
CONTINUOUS
 10
19.7369480798
 20
192.6338557091
  0
VERTEX
  8
4_SURFACE
 62
7
  6
CONTINUOUS
 10
19.7695444313
 20
192.6545985775
  0
VERTEX
  8
4_SURFACE
 62
7
  6
CONTINUOUS
 10
19.8039619881
 20
192.6724615988
  0
VERTEX
  8
4_SURFACE
 62
7
  6
CONTINUOUS
 10
19.84043645
 20
192.6869179539
  0
VERTEX
  8
4_SURFACE
 62
7
  6
CONTINUOUS
 10
19.8799679405
 20
192.6973096716
  0
VERTEX
  8
4_SURFACE
 62
7
  6
CONTINUOUS
 10
19.9207939176
 20
192.7020900642
  0
VERTEX
  8
4_SURFACE
 62
7
  6
CONTINUOUS
 10
19.9315389216
 20
192.702312406
  0
SEQEND
  0
POLYLINE
  8
4_SURFACE
 62
7
  6
CONTINUOUS
 66
1
 70
0
  0
VERTEX
  8
4_SURFACE
 62
7
  6
CONTINUOUS
 10
25.0180035018
 20
188.7789448205
  0
VERTEX
  8
4_SURFACE
 62
7
  6
CONTINUOUS
 10
25.0191578371
 20
188.3165918588
  0
VERTEX
  8
4_SURFACE
 62
7
  6
CONTINUOUS
 10
25.0225974986
 20
187.8636307317
  0
VERTEX
  8
4_SURFACE
 62
7
  6
CONTINUOUS
 10
25.028252899
 20
187.4292658322
  0
VERTEX
  8
4_SURFACE
 62
7
  6
CONTINUOUS
 10
25.036009548
 20
187.0223295564
  0
VERTEX
  8
4_SURFACE
 62
7
  6
CONTINUOUS
 10
25.0457102688
 20
186.6511043969
  0
VERTEX
  8
4_SURFACE
 62
7
  6
CONTINUOUS
 10
25.05715826
 20
186.3231548068
  0
VERTEX
  8
4_SURFACE
 62
7
  6
CONTINUOUS
 10
25.0701209931
 20
186.0451714438
  0
VERTEX
  8
4_SURFACE
 62
7
  6
CONTINUOUS
 10
25.0843348352
 20
185.8228328364
  0
VERTEX
  8
4_SURFACE
 62
7
  6
CONTINUOUS
 10
25.0995103839
 20
185.6606858911
  0
VERTEX
  8
4_SURFACE
 62
7
  6
CONTINUOUS
 10
25.1153383622
 20
185.5620497339
  0
VERTEX
  8
4_SURFACE
 62
7
  6
CONTINUOUS
 10
25.1314960025
 20
185.5289448205
  0
SEQEND
  0
POLYLINE
  8
4_SURFACE
 62
7
  6
CONTINUOUS
 66
1
 70
0
  0
VERTEX
  8
4_SURFACE
 62
7
  6
CONTINUOUS
 10
25.2449885035
 20
188.7789448205
  0
VERTEX
  8
4_SURFACE
 62
7
  6
CONTINUOUS
 10
25.2438341682
 20
189.2412977822
  0
VERTEX
  8
4_SURFACE
 62
7
  6
CONTINUOUS
 10
25.2403945067
 20
189.6942589093
  0
VERTEX
  8
4_SURFACE
 62
7
  6
CONTINUOUS
 10
25.2347391063
 20
190.1286238088
  0
VERTEX
  8
4_SURFACE
 62
7
  6
CONTINUOUS
 10
25.2269824573
 20
190.5355600846
  0
VERTEX
  8
4_SURFACE
 62
7
  6
CONTINUOUS
 10
25.2172817365
 20
190.9067852441
  0
VERTEX
  8
4_SURFACE
 62
7
  6
CONTINUOUS
 10
25.2058337453
 20
191.2347348342
  0
VERTEX
  8
4_SURFACE
 62
7
  6
CONTINUOUS
 10
25.1928710122
 20
191.5127181972
  0
VERTEX
  8
4_SURFACE
 62
7
  6
CONTINUOUS
 10
25.1786571701
 20
191.7350568046
  0
VERTEX
  8
4_SURFACE
 62
7
  6
CONTINUOUS
 10
25.1634816213
 20
191.8972037499
  0
VERTEX
  8
4_SURFACE
 62
7
  6
CONTINUOUS
 10
25.1476536431
 20
191.9958399071
  0
VERTEX
  8
4_SURFACE
 62
7
  6
CONTINUOUS
 10
25.1314960027
 20
192.0289448205
  0
SEQEND
  0
POLYLINE
  8
4_SURFACE
 62
7
  6
CONTINUOUS
 66
1
 70
0
  0
VERTEX
  8
4_SURFACE
 62
7
  6
CONTINUOUS
 10
19.5749897194
 20
185.5289448205
  0
VERTEX
  8
4_SURFACE
 62
7
  6
CONTINUOUS
 10
19.5588321349
 20
185.5620495031
  0
VERTEX
  8
4_SURFACE
 62
7
  6
CONTINUOUS
 10
19.5430041517
 20
185.6606854617
  0
VERTEX
  8
4_SURFACE
 62
7
  6
CONTINUOUS
 10
19.5278285954
 20
185.8228322673
  0
VERTEX
  8
4_SURFACE
 62
7
  6
CONTINUOUS
 10
19.5136147442
 20
186.0451708098
  0
VERTEX
  8
4_SURFACE
 62
7
  6
CONTINUOUS
 10
19.5006520017
 20
186.3231541871
  0
VERTEX
  8
4_SURFACE
 62
7
  6
CONTINUOUS
 10
19.4892040018
 20
186.6511038594
  0
VERTEX
  8
4_SURFACE
 62
7
  6
CONTINUOUS
 10
19.4795032739
 20
187.0223291473
  0
VERTEX
  8
4_SURFACE
 62
7
  6
CONTINUOUS
 10
19.4717466198
 20
187.4292655705
  0
VERTEX
  8
4_SURFACE
 62
7
  6
CONTINUOUS
 10
19.4660912166
 20
187.8636306065
  0
VERTEX
  8
4_SURFACE
 62
7
  6
CONTINUOUS
 10
19.462651554
 20
188.3165918296
  0
VERTEX
  8
4_SURFACE
 62
7
  6
CONTINUOUS
 10
19.4614972185
 20
188.7789448205
  0
SEQEND
  0
LINE
  8
4_SURFACE
 62
7
  6
CONTINUOUS
 10
25.3001452504
 20
192.0457112842
 11
25.3001407912
 21
192.045751773
  0
LINE
  8
4_SURFACE
 62
7
  6
CONTINUOUS
 10
28.1901387524
 20
182.9202186173
 11
28.3943630121
 21
194.6202186173
  0
LINE
  8
4_SURFACE
 62
7
  6
CONTINUOUS
 10
31.2748473853
 20
190.6376710237
 11
31.1401387524
 21
182.9202186173
  0
POLYLINE
  8
4_SURFACE
 62
7
  6
CONTINUOUS
 66
1
 70
0
  0
VERTEX
  8
4_SURFACE
 62
7
  6
CONTINUOUS
 10
28.3445105003
 20
191.4482646914
  0
VERTEX
  8
4_SURFACE
 62
7
  6
CONTINUOUS
 10
28.3429348679
 20
191.4115232874
  0
VERTEX
  8
4_SURFACE
 62
7
  6
CONTINUOUS
 10
28.3403598234
 20
191.3458034612
  0
SEQEND
  0
POLYLINE
  8
4_SURFACE
 62
7
  6
CONTINUOUS
 66
1
 70
0
  0
VERTEX
  8
4_SURFACE
 62
7
  6
CONTINUOUS
 10
28.360363329
 20
191.6074583261
  0
VERTEX
  8
4_SURFACE
 62
7
  6
CONTINUOUS
 10
28.3556597308
 20
191.5776089797
  0
VERTEX
  8
4_SURFACE
 62
7
  6
CONTINUOUS
 10
28.348377673
 20
191.5107650151
  0
VERTEX
  8
4_SURFACE
 62
7
  6
CONTINUOUS
 10
28.3445123315
 20
191.4481391894
  0
SEQEND
  0
POLYLINE
  8
4_SURFACE
 62
7
  6
CONTINUOUS
 66
1
 70
0
  0
VERTEX
  8
4_SURFACE
 62
7
  6
CONTINUOUS
 10
25.1314960027
 20
192.0289448205
  0
VERTEX
  8
4_SURFACE
 62
7
  6
CONTINUOUS
 10
25.1153384182
 20
191.9958401379
  0
VERTEX
  8
4_SURFACE
 62
7
  6
CONTINUOUS
 10
25.099510435
 20
191.8972041792
  0
VERTEX
  8
4_SURFACE
 62
7
  6
CONTINUOUS
 10
25.0843348787
 20
191.7350573737
  0
VERTEX
  8
4_SURFACE
 62
7
  6
CONTINUOUS
 10
25.0701210275
 20
191.5127188311
  0
VERTEX
  8
4_SURFACE
 62
7
  6
CONTINUOUS
 10
25.057158285
 20
191.2347354539
  0
VERTEX
  8
4_SURFACE
 62
7
  6
CONTINUOUS
 10
25.0457102851
 20
190.9067857816
  0
VERTEX
  8
4_SURFACE
 62
7
  6
CONTINUOUS
 10
25.0360095572
 20
190.5355604937
  0
VERTEX
  8
4_SURFACE
 62
7
  6
CONTINUOUS
 10
25.0282529031
 20
190.1286240705
  0
VERTEX
  8
4_SURFACE
 62
7
  6
CONTINUOUS
 10
25.0225974999
 20
189.6942590345
  0
VERTEX
  8
4_SURFACE
 62
7
  6
CONTINUOUS
 10
25.0191578373
 20
189.2412978114
  0
VERTEX
  8
4_SURFACE
 62
7
  6
CONTINUOUS
 10
25.0180035018
 20
188.7789448205
  0
SEQEND
  0
POLYLINE
  8
4_SURFACE
 62
7
  6
CONTINUOUS
 66
1
 70
0
  0
VERTEX
  8
4_SURFACE
 62
7
  6
CONTINUOUS
 10
19.5749897192
 20
192.0289448205
  0
VERTEX
  8
4_SURFACE
 62
7
  6
CONTINUOUS
 10
19.5911473038
 20
191.9958401379
  0
VERTEX
  8
4_SURFACE
 62
7
  6
CONTINUOUS
 10
19.606975287
 20
191.8972041792
  0
VERTEX
  8
4_SURFACE
 62
7
  6
CONTINUOUS
 10
19.6221508433
 20
191.7350573737
  0
VERTEX
  8
4_SURFACE
 62
7
  6
CONTINUOUS
 10
19.6363646945
 20
191.5127188311
  0
VERTEX
  8
4_SURFACE
 62
7
  6
CONTINUOUS
 10
19.649327437
 20
191.2347354539
  0
VERTEX
  8
4_SURFACE
 62
7
  6
CONTINUOUS
 10
19.6607754369
 20
190.9067857816
  0
VERTEX
  8
4_SURFACE
 62
7
  6
CONTINUOUS
 10
19.6704761648
 20
190.5355604937
  0
VERTEX
  8
4_SURFACE
 62
7
  6
CONTINUOUS
 10
19.6782328189
 20
190.1286240705
  0
VERTEX
  8
4_SURFACE
 62
7
  6
CONTINUOUS
 10
19.6838882221
 20
189.6942590345
  0
VERTEX
  8
4_SURFACE
 62
7
  6
CONTINUOUS
 10
19.6873278847
 20
189.2412978114
  0
VERTEX
  8
4_SURFACE
 62
7
  6
CONTINUOUS
 10
19.6884822202
 20
188.7789448205
  0
SEQEND
  0
LINE
  8
4_SURFACE
 62
7
  6
CONTINUOUS
 10
25.2763500445
 20
192.1492214091
 11
25.2815124676
 21
192.1294846741
  0
LINE
  8
4_SURFACE
 62
7
  6
CONTINUOUS
 10
25.2815124676
 20
192.1294846741
 11
25.2866940406
 21
192.1092664773
  0
LINE
  8
4_SURFACE
 62
7
  6
CONTINUOUS
 10
25.2866940406
 20
192.1092664773
 11
25.2942538504
 21
192.0790395034
  0
POLYLINE
  8
4_SURFACE
 62
7
  6
CONTINUOUS
 66
1
 70
0
  0
VERTEX
  8
4_SURFACE
 62
7
  6
CONTINUOUS
 10
25.2942368681
 20
192.079107911
  0
VERTEX
  8
4_SURFACE
 62
7
  6
CONTINUOUS
 10
25.298179095
 20
192.0599517867
  0
VERTEX
  8
4_SURFACE
 62
7
  6
CONTINUOUS
 10
25.3001386474
 20
192.045751403
  0
SEQEND
  0
POLYLINE
  8
4_SURFACE
 62
7
  6
CONTINUOUS
 66
1
 70
0
  0
VERTEX
  8
4_SURFACE
 62
7
  6
CONTINUOUS
 10
25.1314960025
 20
185.5289448205
  0
VERTEX
  8
4_SURFACE
 62
7
  6
CONTINUOUS
 10
25.1476535871
 20
185.5620495031
  0
VERTEX
  8
4_SURFACE
 62
7
  6
CONTINUOUS
 10
25.1634815703
 20
185.6606854617
  0
VERTEX
  8
4_SURFACE
 62
7
  6
CONTINUOUS
 10
25.1786571266
 20
185.8228322673
  0
VERTEX
  8
4_SURFACE
 62
7
  6
CONTINUOUS
 10
25.1928709778
 20
186.0451708098
  0
VERTEX
  8
4_SURFACE
 62
7
  6
CONTINUOUS
 10
25.2058337203
 20
186.3231541871
  0
VERTEX
  8
4_SURFACE
 62
7
  6
CONTINUOUS
 10
25.2172817202
 20
186.6511038594
  0
VERTEX
  8
4_SURFACE
 62
7
  6
CONTINUOUS
 10
25.2269824481
 20
187.0223291473
  0
VERTEX
  8
4_SURFACE
 62
7
  6
CONTINUOUS
 10
25.2347391022
 20
187.4292655705
  0
VERTEX
  8
4_SURFACE
 62
7
  6
CONTINUOUS
 10
25.2403945054
 20
187.8636306065
  0
VERTEX
  8
4_SURFACE
 62
7
  6
CONTINUOUS
 10
25.243834168
 20
188.3165918296
  0
VERTEX
  8
4_SURFACE
 62
7
  6
CONTINUOUS
 10
25.2449885035
 20
188.7789448205
  0
SEQEND
  0
POLYLINE
  8
4_SURFACE
 62
7
  6
CONTINUOUS
 66
1
 70
0
  0
VERTEX
  8
4_SURFACE
 62
7
  6
CONTINUOUS
 10
28.4728136549
 20
191.8589742913
  0
VERTEX
  8
4_SURFACE
 62
7
  6
CONTINUOUS
 10
28.4238211551
 20
191.7906582998
  0
VERTEX
  8
4_SURFACE
 62
7
  6
CONTINUOUS
 10
28.3902668462
 20
191.7198510091
  0
VERTEX
  8
4_SURFACE
 62
7
  6
CONTINUOUS
 10
28.3686535555
 20
191.6480971061
  0
VERTEX
  8
4_SURFACE
 62
7
  6
CONTINUOUS
 10
28.360363329
 20
191.6074583261
  0
SEQEND
  0
LINE
  8
4_SURFACE
 62
7
  6
CONTINUOUS
 10
51.4316383367
 20
190.6376710237
 11
51.5663469696
 21
182.9202186173
  0
POLYLINE
  8
4_SURFACE
 62
7
  6
CONTINUOUS
 66
1
 70
0
  0
VERTEX
  8
4_SURFACE
 62
7
  6
CONTINUOUS
 10
54.2619734228
 20
191.4481424284
  0
VERTEX
  8
4_SURFACE
 62
7
  6
CONTINUOUS
 10
54.2581441339
 20
191.5103212488
  0
VERTEX
  8
4_SURFACE
 62
7
  6
CONTINUOUS
 10
54.2508711385
 20
191.5772871276
  0
VERTEX
  8
4_SURFACE
 62
7
  6
CONTINUOUS
 10
54.2461204046
 20
191.6074695738
  0
SEQEND
  0
LINE
  8
4_SURFACE
 62
7
  6
CONTINUOUS
 10
54.2619754387
 20
191.4482597764
 11
54.2649237674
 21
191.3774531136
  0
LINE
  8
4_SURFACE
 62
7
  6
CONTINUOUS
 10
54.2649237674
 20
191.3774531136
 11
54.2661259812
 21
191.3458012239
  0
LINE
  8
4_SURFACE
 62
7
  6
CONTINUOUS
 10
54.2121227099
 20
194.6202186173
 11
54.4163469696
 21
182.9202186173
  0
POLYLINE
  8
4_SURFACE
 62
7
  6
CONTINUOUS
 66
1
 70
0
  0
VERTEX
  8
4_SURFACE
 62
7
  6
CONTINUOUS
 10
54.2461204046
 20
191.6074695738
  0
VERTEX
  8
4_SURFACE
 62
7
  6
CONTINUOUS
 10
54.2379561359
 20
191.6475676297
  0
VERTEX
  8
4_SURFACE
 62
7
  6
CONTINUOUS
 10
54.216332098
 20
191.7195504874
  0
VERTEX
  8
4_SURFACE
 62
7
  6
CONTINUOUS
 10
54.1827368712
 20
191.7905341427
  0
VERTEX
  8
4_SURFACE
 62
7
  6
CONTINUOUS
 10
54.1336720742
 20
191.85897431
  0
SEQEND
  0
LINE
  8
4_SURFACE
 62
7
  6
CONTINUOUS
 10
79.0943630121
 20
194.6202186173
 11
78.8901387524
 21
182.9202186173
  0
LINE
  8
4_SURFACE
 62
7
  6
CONTINUOUS
 10
81.8748473853
 20
190.6376710237
 11
81.7401387524
 21
182.9202186173
  0
POLYLINE
  8
4_SURFACE
 62
7
  6
CONTINUOUS
 66
1
 70
0
  0
VERTEX
  8
4_SURFACE
 62
7
  6
CONTINUOUS
 10
79.0445105827
 20
191.4482650475
  0
VERTEX
  8
4_SURFACE
 62
7
  6
CONTINUOUS
 10
79.042989775
 20
191.4128429007
  0
VERTEX
  8
4_SURFACE
 62
7
  6
CONTINUOUS
 10
79.0404868672
 20
191.3492353666
  0
SEQEND
  0
POLYLINE
  8
4_SURFACE
 62
7
  6
CONTINUOUS
 66
1
 70
0
  0
VERTEX
  8
4_SURFACE
 62
7
  6
CONTINUOUS
 10
79.0603633007
 20
191.6074580988
  0
VERTEX
  8
4_SURFACE
 62
7
  6
CONTINUOUS
 10
79.0556443626
 20
191.5774995327
  0
VERTEX
  8
4_SURFACE
 62
7
  6
CONTINUOUS
 10
79.0483675978
 20
191.5106413792
  0
VERTEX
  8
4_SURFACE
 62
7
  6
CONTINUOUS
 10
79.0445124127
 20
191.4481395328
  0
SEQEND
  0
POLYLINE
  8
4_SURFACE
 62
7
  6
CONTINUOUS
 66
1
 70
0
  0
VERTEX
  8
4_SURFACE
 62
7
  6
CONTINUOUS
 10
79.1728135522
 20
191.8589739634
  0
VERTEX
  8
4_SURFACE
 62
7
  6
CONTINUOUS
 10
79.1237921991
 20
191.7906084779
  0
VERTEX
  8
4_SURFACE
 62
7
  6
CONTINUOUS
 10
79.0902301556
 20
191.7197534909
  0
VERTEX
  8
4_SURFACE
 62
7
  6
CONTINUOUS
 10
79.0686245163
 20
191.6479731262
  0
VERTEX
  8
4_SURFACE
 62
7
  6
CONTINUOUS
 10
79.0603633007
 20
191.6074580988
  0
SEQEND
  0
POLYLINE
  8
0
 62
7
  6
CONTINUOUS
 66
1
 70
0
  0
VERTEX
  8
0
 62
7
  6
CONTINUOUS
 10
158.2351795191
 20
182.4289587064
  0
VERTEX
  8
0
 62
7
  6
CONTINUOUS
 10
158.3462056377
 20
182.4422951688
  0
VERTEX
  8
0
 62
7
  6
CONTINUOUS
 10
158.4514718967
 20
182.4799253771
  0
VERTEX
  8
0
 62
7
  6
CONTINUOUS
 10
158.5457474098
 20
182.5398894129
  0
VERTEX
  8
0
 62
7
  6
CONTINUOUS
 10
158.624376619
 20
182.6191188826
  0
VERTEX
  8
0
 62
7
  6
CONTINUOUS
 10
158.6835172737
 20
182.7136043112
  0
VERTEX
  8
0
 62
7
  6
CONTINUOUS
 10
158.7203247218
 20
182.8186143441
  0
VERTEX
  8
0
 62
7
  6
CONTINUOUS
 10
158.7330728005
 20
182.9289448205
  0
SEQEND
  0
POLYLINE
  8
4_SURFACE
 62
7
  6
CONTINUOUS
 66
1
 70
0
  0
VERTEX
  8
4_SURFACE
 62
7
  6
CONTINUOUS
 10
25.6713062029
 20
182.4289587064
  0
VERTEX
  8
4_SURFACE
 62
7
  6
CONTINUOUS
 10
25.5602800842
 20
182.4422951688
  0
VERTEX
  8
4_SURFACE
 62
7
  6
CONTINUOUS
 10
25.4550138253
 20
182.4799253771
  0
VERTEX
  8
4_SURFACE
 62
7
  6
CONTINUOUS
 10
25.3607383122
 20
182.5398894129
  0
VERTEX
  8
4_SURFACE
 62
7
  6
CONTINUOUS
 10
25.282109103
 20
182.6191188826
  0
VERTEX
  8
4_SURFACE
 62
7
  6
CONTINUOUS
 10
25.2229684483
 20
182.7136043112
  0
VERTEX
  8
4_SURFACE
 62
7
  6
CONTINUOUS
 10
25.1861610002
 20
182.8186143441
  0
VERTEX
  8
4_SURFACE
 62
7
  6
CONTINUOUS
 10
25.1734129215
 20
182.9289448205
  0
SEQEND
  0
LINE
  8
4_SURFACE
 62
7
  6
CONTINUOUS
 10
16.353242861
 20
182.4289448205
 11
84.1896150924
 21
182.4289448205
  0
LINE
  8
0
 62
7
  6
CONTINUOUS
 10
84.1896150924
 20
182.4289448205
 11
167.553242861
 21
182.4289448205
  0
LINE
  8
0
 62
7
  6
CONTINUOUS
 10
63.5303428362
 20
188.7789448205
 11
69.7761428843
 21
188.7789448205
  0
LINE
  8
0
 62
7
  6
CONTINUOUS
 10
114.1303428362
 20
188.7789448205
 11
120.3761428843
 21
188.7789448205
  0
LINE
  8
1_AXIS
 62
2
  6
CENTER
 10
15.1526258206
 20
188.7789448205
 11
171.4513129103
 21
188.7789448205
  0
POLYLINE
  8
4_SURFACE
 62
7
  6
CONTINUOUS
 66
1
 70
0
  0
VERTEX
  8
4_SURFACE
 62
7
  6
CONTINUOUS
 10
19.0351795191
 20
182.4289587064
  0
VERTEX
  8
4_SURFACE
 62
7
  6
CONTINUOUS
 10
19.1462056377
 20
182.4422951688
  0
VERTEX
  8
4_SURFACE
 62
7
  6
CONTINUOUS
 10
19.2514718967
 20
182.4799253771
  0
VERTEX
  8
4_SURFACE
 62
7
  6
CONTINUOUS
 10
19.3457474098
 20
182.5398894129
  0
VERTEX
  8
4_SURFACE
 62
7
  6
CONTINUOUS
 10
19.424376619
 20
182.6191188826
  0
VERTEX
  8
4_SURFACE
 62
7
  6
CONTINUOUS
 10
19.4835172737
 20
182.7136043112
  0
VERTEX
  8
4_SURFACE
 62
7
  6
CONTINUOUS
 10
19.5203247218
 20
182.8186143441
  0
VERTEX
  8
4_SURFACE
 62
7
  6
CONTINUOUS
 10
19.5330728005
 20
182.9289448205
  0
SEQEND
  0
LINE
  8
0
 62
7
  6
CONTINUOUS
 10
152.1387157392
 20
191.1289448205
 11
132.9677699828
 21
191.1289448205
  0
LINE
  8
0
 62
7
  6
CONTINUOUS
 10
101.5387157392
 20
191.1289448205
 11
82.3677699828
 21
191.1289448205
  0
LINE
  8
4_SURFACE
 62
7
  6
CONTINUOUS
 10
50.9387157392
 20
191.1289448205
 11
31.7677699828
 21
191.1289448205
  0
LINE
  8
0
 62
7
  6
CONTINUOUS
 10
163.9749468005
 20
192.7023204099
 11
159.1315386865
 21
192.7023204099
  0
LINE
  8
4_SURFACE
 62
7
  6
CONTINUOUS
 10
24.7749470355
 20
192.7023204099
 11
19.9315389215
 21
192.7023204099
  0
POLYLINE
  8
4_SURFACE
 62
7
  6
CONTINUOUS
 66
1
 70
0
  0
VERTEX
  8
4_SURFACE
 62
7
  6
CONTINUOUS
 10
24.7749470362
 20
192.7023124066
  0
VERTEX
  8
4_SURFACE
 62
7
  6
CONTINUOUS
 10
24.7830241583
 20
192.702186431
  0
VERTEX
  8
4_SURFACE
 62
7
  6
CONTINUOUS
 10
24.8239874965
 20
192.6977848179
  0
VERTEX
  8
4_SURFACE
 62
7
  6
CONTINUOUS
 10
24.8637447366
 20
192.6876753318
  0
VERTEX
  8
4_SURFACE
 62
7
  6
CONTINUOUS
 10
24.9003918972
 20
192.6734335159
  0
VERTEX
  8
4_SURFACE
 62
7
  6
CONTINUOUS
 10
24.9349440229
 20
192.6557477031
  0
VERTEX
  8
4_SURFACE
 62
7
  6
CONTINUOUS
 10
24.9676405522
 20
192.6351661829
  0
VERTEX
  8
4_SURFACE
 62
7
  6
CONTINUOUS
 10
24.9989128247
 20
192.6118885616
  0
VERTEX
  8
4_SURFACE
 62
7
  6
CONTINUOUS
 10
25.0289528266
 20
192.5860369918
  0
VERTEX
  8
4_SURFACE
 62
7
  6
CONTINUOUS
 10
25.0576986194
 20
192.557877817
  0
VERTEX
  8
4_SURFACE
 62
7
  6
CONTINUOUS
 10
25.0851687197
 20
192.5275388615
  0
VERTEX
  8
4_SURFACE
 62
7
  6
CONTINUOUS
 10
25.1113614328
 20
192.4951481994
  0
VERTEX
  8
4_SURFACE
 62
7
  6
CONTINUOUS
 10
25.136301601
 20
192.4607243393
  0
VERTEX
  8
4_SURFACE
 62
7
  6
CONTINUOUS
 10
25.1600129356
 20
192.4242533377
  0
VERTEX
  8
4_SURFACE
 62
7
  6
CONTINUOUS
 10
25.1824792132
 20
192.3856885576
  0
VERTEX
  8
4_SURFACE
 62
7
  6
CONTINUOUS
 10
25.2036057214
 20
192.3450919473
  0
VERTEX
  8
4_SURFACE
 62
7
  6
CONTINUOUS
 10
25.2232717797
 20
192.3025559685
  0
VERTEX
  8
4_SURFACE
 62
7
  6
CONTINUOUS
 10
25.2413854591
 20
192.2580849332
  0
VERTEX
  8
4_SURFACE
 62
7
  6
CONTINUOUS
 10
25.2578364181
 20
192.2117103105
  0
VERTEX
  8
4_SURFACE
 62
7
  6
CONTINUOUS
 10
25.2724855624
 20
192.1634664511
  0
VERTEX
  8
4_SURFACE
 62
7
  6
CONTINUOUS
 10
25.2763508764
 20
192.1492249554
  0
SEQEND
  0
POLYLINE
  8
0
 62
7
  6
CONTINUOUS
 66
1
 70
0
  0
VERTEX
  8
0
 62
7
  6
CONTINUOUS
 10
163.9749468003
 20
192.702312406
  0
VERTEX
  8
0
 62
7
  6
CONTINUOUS
 10
163.9856918044
 20
192.7020900642
  0
VERTEX
  8
0
 62
7
  6
CONTINUOUS
 10
164.0265177815
 20
192.6973096715
  0
VERTEX
  8
0
 62
7
  6
CONTINUOUS
 10
164.066049272
 20
192.6869179539
  0
VERTEX
  8
0
 62
7
  6
CONTINUOUS
 10
164.1025237338
 20
192.6724615988
  0
VERTEX
  8
0
 62
7
  6
CONTINUOUS
 10
164.1369412906
 20
192.6545985776
  0
VERTEX
  8
0
 62
7
  6
CONTINUOUS
 10
164.1695376421
 20
192.6338557092
  0
VERTEX
  8
0
 62
7
  6
CONTINUOUS
 10
164.2007153206
 20
192.610435851
  0
VERTEX
  8
0
 62
7
  6
CONTINUOUS
 10
164.2306738958
 20
192.5844481258
  0
VERTEX
  8
0
 62
7
  6
CONTINUOUS
 10
164.2593442999
 20
192.5561578948
  0
VERTEX
  8
0
 62
7
  6
CONTINUOUS
 10
164.2867479389
 20
192.5256859134
  0
VERTEX
  8
0
 62
7
  6
CONTINUOUS
 10
164.3128755432
 20
192.4931629323
  0
VERTEX
  8
0
 62
7
  6
CONTINUOUS
 10
164.3377531206
 20
192.4586025539
  0
VERTEX
  8
0
 62
7
  6
CONTINUOUS
 10
164.3613969836
 20
192.4219979646
  0
VERTEX
  8
0
 62
7
  6
CONTINUOUS
 10
164.3837912488
 20
192.3832989351
  0
VERTEX
  8
0
 62
7
  6
CONTINUOUS
 10
164.4048411861
 20
192.3425668503
  0
VERTEX
  8
0
 62
7
  6
CONTINUOUS
 10
164.4244248442
 20
192.299892325
  0
VERTEX
  8
0
 62
7
  6
CONTINUOUS
 10
164.4424500313
 20
192.2552780413
  0
VERTEX
  8
0
 62
7
  6
CONTINUOUS
 10
164.4588033992
 20
192.2087583308
  0
VERTEX
  8
0
 62
7
  6
CONTINUOUS
 10
164.4733449281
 20
192.1603646557
  0
VERTEX
  8
0
 62
7
  6
CONTINUOUS
 10
164.4763510125
 20
192.1492245207
  0
SEQEND
  0
POLYLINE
  8
0
 62
7
  6
CONTINUOUS
 66
1
 70
0
  0
VERTEX
  8
0
 62
7
  6
CONTINUOUS
 10
164.8713062029
 20
182.4289587064
  0
VERTEX
  8
0
 62
7
  6
CONTINUOUS
 10
164.7602800842
 20
182.4422951688
  0
VERTEX
  8
0
 62
7
  6
CONTINUOUS
 10
164.6550138253
 20
182.4799253771
  0
VERTEX
  8
0
 62
7
  6
CONTINUOUS
 10
164.5607383122
 20
182.5398894129
  0
VERTEX
  8
0
 62
7
  6
CONTINUOUS
 10
164.482109103
 20
182.6191188826
  0
VERTEX
  8
0
 62
7
  6
CONTINUOUS
 10
164.4229684483
 20
182.7136043112
  0
VERTEX
  8
0
 62
7
  6
CONTINUOUS
 10
164.3861610002
 20
182.8186143441
  0
VERTEX
  8
0
 62
7
  6
CONTINUOUS
 10
164.3734129215
 20
182.9289448205
  0
SEQEND
  0
LINE
  8
0
 62
7
  6
CONTINUOUS
 10
102.0316383367
 20
190.6376710237
 11
102.1663469696
 21
182.9202186173
  0
LINE
  8
4_SURFACE
 62
7
  6
CONTINUOUS
 10
17.896811447
 20
195.1289448205
 11
79.894637191
 21
195.1289448205
  0
LINE
  8
0
 62
7
  6
CONTINUOUS
 10
79.894637191
 20
195.1289448205
 11
166.009674275
 21
195.1289448205
  0
LINE
  8
0
 62
7
  6
CONTINUOUS
 10
104.8619751393
 20
191.4482650475
 11
104.8648273691
 21
191.3799133019
  0
LINE
  8
0
 62
7
  6
CONTINUOUS
 10
104.8648273691
 20
191.3799133019
 11
104.8659988548
 21
191.3492353666
  0
LINE
  8
0
 62
7
  6
CONTINUOUS
 10
104.8121227099
 20
194.6202186173
 11
105.0163469696
 21
182.9202186173
  0
POLYLINE
  8
0
 62
7
  6
CONTINUOUS
 66
1
 70
0
  0
VERTEX
  8
0
 62
7
  6
CONTINUOUS
 10
104.7336721698
 20
191.8589739634
  0
VERTEX
  8
0
 62
7
  6
CONTINUOUS
 10
104.7826935229
 20
191.7906084779
  0
VERTEX
  8
0
 62
7
  6
CONTINUOUS
 10
104.8162555664
 20
191.7197534909
  0
VERTEX
  8
0
 62
7
  6
CONTINUOUS
 10
104.8378612057
 20
191.6479731262
  0
VERTEX
  8
0
 62
7
  6
CONTINUOUS
 10
104.8460737185
 20
191.6077349805
  0
SEQEND
  0
POLYLINE
  8
0
 62
7
  6
CONTINUOUS
 66
1
 70
0
  0
VERTEX
  8
0
 62
7
  6
CONTINUOUS
 10
104.8460737185
 20
191.6077349805
  0
VERTEX
  8
0
 62
7
  6
CONTINUOUS
 10
104.8508413593
 20
191.5774995327
  0
VERTEX
  8
0
 62
7
  6
CONTINUOUS
 10
104.8581181242
 20
191.5106413792
  0
VERTEX
  8
0
 62
7
  6
CONTINUOUS
 10
104.8619733093
 20
191.4481395328
  0
SEQEND
  0
LINE
  8
4_SURFACE
 62
7
  6
CONTINUOUS
 10
17.8105203475
 20
195.1204003178
 11
16.2069517615
 21
194.7996866006
  0
LINE
  8
0
 62
7
  6
CONTINUOUS
 10
166.0959653745
 20
195.1204003178
 11
167.6995339605
 21
194.7996866006
  0
LINE
  8
0
 62
7
  6
CONTINUOUS
 10
129.6943630121
 20
194.6202186173
 11
129.4901387524
 21
182.9202186173
  0
LINE
  8
0
 62
7
  6
CONTINUOUS
 10
132.4748473853
 20
190.6376710237
 11
132.3401387524
 21
182.9202186173
  0
POLYLINE
  8
0
 62
7
  6
CONTINUOUS
 66
1
 70
0
  0
VERTEX
  8
0
 62
7
  6
CONTINUOUS
 10
129.6445102833
 20
191.4482597764
  0
VERTEX
  8
0
 62
7
  6
CONTINUOUS
 10
129.6429347726
 20
191.4115209909
  0
VERTEX
  8
0
 62
7
  6
CONTINUOUS
 10
129.6403597408
 20
191.3458012239
  0
SEQEND
  0
POLYLINE
  8
0
 62
7
  6
CONTINUOUS
 66
1
 70
0
  0
VERTEX
  8
0
 62
7
  6
CONTINUOUS
 10
129.6445122992
 20
191.4481424284
  0
VERTEX
  8
0
 62
7
  6
CONTINUOUS
 10
129.6483415881
 20
191.5103212488
  0
VERTEX
  8
0
 62
7
  6
CONTINUOUS
 10
129.6556145835
 20
191.5772871276
  0
VERTEX
  8
0
 62
7
  6
CONTINUOUS
 10
129.6604121605
 20
191.6077358771
  0
SEQEND
  0
POLYLINE
  8
0
 62
7
  6
CONTINUOUS
 66
1
 70
0
  0
VERTEX
  8
0
 62
7
  6
CONTINUOUS
 10
129.6604121605
 20
191.6077358771
  0
VERTEX
  8
0
 62
7
  6
CONTINUOUS
 10
129.6685295861
 20
191.6475676297
  0
VERTEX
  8
0
 62
7
  6
CONTINUOUS
 10
129.690153624
 20
191.7195504874
  0
VERTEX
  8
0
 62
7
  6
CONTINUOUS
 10
129.7237488508
 20
191.7905341427
  0
VERTEX
  8
0
 62
7
  6
CONTINUOUS
 10
129.7728136478
 20
191.85897431
  0
SEQEND
  0
POLYLINE
  8
0
 62
7
  6
CONTINUOUS
 66
1
 70
0
  0
VERTEX
  8
0
 62
7
  6
CONTINUOUS
 10
155.4336720671
 20
191.8589742913
  0
VERTEX
  8
0
 62
7
  6
CONTINUOUS
 10
155.4826645669
 20
191.7906582998
  0
VERTEX
  8
0
 62
7
  6
CONTINUOUS
 10
155.5162188758
 20
191.7198510091
  0
VERTEX
  8
0
 62
7
  6
CONTINUOUS
 10
155.5378321665
 20
191.6480971061
  0
VERTEX
  8
0
 62
7
  6
CONTINUOUS
 10
155.5460736925
 20
191.6077351947
  0
SEQEND
  0
LINE
  8
0
 62
7
  6
CONTINUOUS
 10
152.6316383367
 20
190.6376710237
 11
152.7663469696
 21
182.9202186173
  0
POLYLINE
  8
1_AXIS
 62
7
  6
CONTINUOUS
 66
1
 70
0
  0
VERTEX
  8
1_AXIS
 62
7
  6
CONTINUOUS
 10
158.7749897194
 20
185.5289448205
  0
VERTEX
  8
1_AXIS
 62
7
  6
CONTINUOUS
 10
158.7588321349
 20
185.5620495031
  0
VERTEX
  8
1_AXIS
 62
7
  6
CONTINUOUS
 10
158.7430041517
 20
185.6606854617
  0
VERTEX
  8
1_AXIS
 62
7
  6
CONTINUOUS
 10
158.7278285954
 20
185.8228322673
  0
VERTEX
  8
1_AXIS
 62
7
  6
CONTINUOUS
 10
158.7136147442
 20
186.0451708098
  0
VERTEX
  8
1_AXIS
 62
7
  6
CONTINUOUS
 10
158.7006520017
 20
186.3231541871
  0
VERTEX
  8
1_AXIS
 62
7
  6
CONTINUOUS
 10
158.6892040018
 20
186.6511038594
  0
VERTEX
  8
1_AXIS
 62
7
  6
CONTINUOUS
 10
158.6795032739
 20
187.0223291473
  0
VERTEX
  8
1_AXIS
 62
7
  6
CONTINUOUS
 10
158.6717466198
 20
187.4292655705
  0
VERTEX
  8
1_AXIS
 62
7
  6
CONTINUOUS
 10
158.6660912166
 20
187.8636306065
  0
VERTEX
  8
1_AXIS
 62
7
  6
CONTINUOUS
 10
158.662651554
 20
188.3165918296
  0
VERTEX
  8
1_AXIS
 62
7
  6
CONTINUOUS
 10
158.6614972185
 20
188.7789448205
  0
SEQEND
  0
POLYLINE
  8
1_AXIS
 62
7
  6
CONTINUOUS
 66
1
 70
0
  0
VERTEX
  8
1_AXIS
 62
7
  6
CONTINUOUS
 10
158.7749897192
 20
192.0289448205
  0
VERTEX
  8
1_AXIS
 62
7
  6
CONTINUOUS
 10
158.7911473038
 20
191.9958401379
  0
VERTEX
  8
1_AXIS
 62
7
  6
CONTINUOUS
 10
158.806975287
 20
191.8972041792
  0
VERTEX
  8
1_AXIS
 62
7
  6
CONTINUOUS
 10
158.8221508433
 20
191.7350573737
  0
VERTEX
  8
1_AXIS
 62
7
  6
CONTINUOUS
 10
158.8363646945
 20
191.5127188311
  0
VERTEX
  8
1_AXIS
 62
7
  6
CONTINUOUS
 10
158.849327437
 20
191.2347354539
  0
VERTEX
  8
1_AXIS
 62
7
  6
CONTINUOUS
 10
158.8607754369
 20
190.9067857816
  0
VERTEX
  8
1_AXIS
 62
7
  6
CONTINUOUS
 10
158.8704761648
 20
190.5355604937
  0
VERTEX
  8
1_AXIS
 62
7
  6
CONTINUOUS
 10
158.8782328189
 20
190.1286240705
  0
VERTEX
  8
1_AXIS
 62
7
  6
CONTINUOUS
 10
158.8838882221
 20
189.6942590345
  0
VERTEX
  8
1_AXIS
 62
7
  6
CONTINUOUS
 10
158.8873278847
 20
189.2412978114
  0
VERTEX
  8
1_AXIS
 62
7
  6
CONTINUOUS
 10
158.8884822202
 20
188.7789448205
  0
SEQEND
  0
LINE
  8
0
 62
7
  6
CONTINUOUS
 10
155.5619752217
 20
191.4482646914
 11
155.5649236786
 21
191.3774553864
  0
LINE
  8
0
 62
7
  6
CONTINUOUS
 10
155.5649236786
 20
191.3774553864
 11
155.5661258986
 21
191.3458034612
  0
LINE
  8
0
 62
7
  6
CONTINUOUS
 10
155.7163469696
 20
182.9202186173
 11
155.5121227099
 21
194.6202186173
  0
POLYLINE
  8
1_AXIS
 62
7
  6
CONTINUOUS
 66
1
 70
0
  0
VERTEX
  8
1_AXIS
 62
7
  6
CONTINUOUS
 10
158.6614972185
 20
188.7789448205
  0
VERTEX
  8
1_AXIS
 62
7
  6
CONTINUOUS
 10
158.6626515538
 20
189.2412977822
  0
VERTEX
  8
1_AXIS
 62
7
  6
CONTINUOUS
 10
158.6660912153
 20
189.6942589093
  0
VERTEX
  8
1_AXIS
 62
7
  6
CONTINUOUS
 10
158.6717466157
 20
190.1286238088
  0
VERTEX
  8
1_AXIS
 62
7
  6
CONTINUOUS
 10
158.6795032647
 20
190.5355600846
  0
VERTEX
  8
1_AXIS
 62
7
  6
CONTINUOUS
 10
158.6892039855
 20
190.9067852441
  0
VERTEX
  8
1_AXIS
 62
7
  6
CONTINUOUS
 10
158.7006519767
 20
191.2347348342
  0
VERTEX
  8
1_AXIS
 62
7
  6
CONTINUOUS
 10
158.7136147098
 20
191.5127181972
  0
VERTEX
  8
1_AXIS
 62
7
  6
CONTINUOUS
 10
158.7278285519
 20
191.7350568046
  0
VERTEX
  8
1_AXIS
 62
7
  6
CONTINUOUS
 10
158.7430041006
 20
191.8972037499
  0
VERTEX
  8
1_AXIS
 62
7
  6
CONTINUOUS
 10
158.7588320789
 20
191.9958399071
  0
VERTEX
  8
1_AXIS
 62
7
  6
CONTINUOUS
 10
158.7749897192
 20
192.0289448205
  0
SEQEND
  0
LINE
  8
0
 62
7
  6
CONTINUOUS
 10
158.6063405822
 20
192.0457122891
 11
158.6063446629
 21
192.0457493415
  0
POLYLINE
  8
0
 62
7
  6
CONTINUOUS
 66
1
 70
0
  0
VERTEX
  8
0
 62
7
  6
CONTINUOUS
 10
158.6063468067
 20
192.0457489715
  0
VERTEX
  8
0
 62
7
  6
CONTINUOUS
 10
158.6081977881
 20
192.0592914621
  0
VERTEX
  8
0
 62
7
  6
CONTINUOUS
 10
158.6122490181
 20
192.079108577
  0
SEQEND
  0
LINE
  8
0
 62
7
  6
CONTINUOUS
 10
158.6122389413
 20
192.079067728
 11
158.617733764
 21
192.1011235185
  0
LINE
  8
0
 62
7
  6
CONTINUOUS
 10
158.617733764
 20
192.1011235185
 11
158.6241124356
 21
192.1261541052
  0
LINE
  8
0
 62
7
  6
CONTINUOUS
 10
158.6241124356
 20
192.1261541052
 11
158.6301356795
 21
192.1492214169
  0
POLYLINE
  8
0
 62
7
  6
CONTINUOUS
 66
1
 70
0
  0
VERTEX
  8
0
 62
7
  6
CONTINUOUS
 10
158.6301348456
 20
192.1492249554
  0
VERTEX
  8
0
 62
7
  6
CONTINUOUS
 10
158.6340001596
 20
192.1634664511
  0
VERTEX
  8
0
 62
7
  6
CONTINUOUS
 10
158.6486493038
 20
192.2117103105
  0
VERTEX
  8
0
 62
7
  6
CONTINUOUS
 10
158.6651002629
 20
192.2580849332
  0
VERTEX
  8
0
 62
7
  6
CONTINUOUS
 10
158.6832139423
 20
192.3025559685
  0
VERTEX
  8
0
 62
7
  6
CONTINUOUS
 10
158.7028800005
 20
192.3450919472
  0
VERTEX
  8
0
 62
7
  6
CONTINUOUS
 10
158.7240065087
 20
192.3856885576
  0
VERTEX
  8
0
 62
7
  6
CONTINUOUS
 10
158.7464727864
 20
192.4242533376
  0
VERTEX
  8
0
 62
7
  6
CONTINUOUS
 10
158.7701841209
 20
192.4607243393
  0
VERTEX
  8
0
 62
7
  6
CONTINUOUS
 10
158.7951242891
 20
192.4951481993
  0
VERTEX
  8
0
 62
7
  6
CONTINUOUS
 10
158.8213170023
 20
192.5275388614
  0
VERTEX
  8
0
 62
7
  6
CONTINUOUS
 10
158.8487871025
 20
192.5578778169
  0
VERTEX
  8
0
 62
7
  6
CONTINUOUS
 10
158.8775328953
 20
192.5860369917
  0
VERTEX
  8
0
 62
7
  6
CONTINUOUS
 10
158.9075728972
 20
192.6118885615
  0
VERTEX
  8
0
 62
7
  6
CONTINUOUS
 10
158.9388451697
 20
192.6351661828
  0
VERTEX
  8
0
 62
7
  6
CONTINUOUS
 10
158.971541699
 20
192.655747703
  0
VERTEX
  8
0
 62
7
  6
CONTINUOUS
 10
159.0060938248
 20
192.6734335159
  0
VERTEX
  8
0
 62
7
  6
CONTINUOUS
 10
159.0427409854
 20
192.6876753318
  0
VERTEX
  8
0
 62
7
  6
CONTINUOUS
 10
159.0824982255
 20
192.6977848179
  0
VERTEX
  8
0
 62
7
  6
CONTINUOUS
 10
159.1234615637
 20
192.702186431
  0
VERTEX
  8
0
 62
7
  6
CONTINUOUS
 10
159.1315386858
 20
192.7023124066
  0
SEQEND
  0
POLYLINE
  8
1_AXIS
 62
7
  6
CONTINUOUS
 66
1
 70
0
  0
VERTEX
  8
1_AXIS
 62
7
  6
CONTINUOUS
 10
164.3314960027
 20
192.0289448205
  0
VERTEX
  8
1_AXIS
 62
7
  6
CONTINUOUS
 10
164.3153384182
 20
191.9958401379
  0
VERTEX
  8
1_AXIS
 62
7
  6
CONTINUOUS
 10
164.299510435
 20
191.8972041792
  0
VERTEX
  8
1_AXIS
 62
7
  6
CONTINUOUS
 10
164.2843348787
 20
191.7350573737
  0
VERTEX
  8
1_AXIS
 62
7
  6
CONTINUOUS
 10
164.2701210275
 20
191.5127188311
  0
VERTEX
  8
1_AXIS
 62
7
  6
CONTINUOUS
 10
164.257158285
 20
191.2347354539
  0
VERTEX
  8
1_AXIS
 62
7
  6
CONTINUOUS
 10
164.2457102851
 20
190.9067857816
  0
VERTEX
  8
1_AXIS
 62
7
  6
CONTINUOUS
 10
164.2360095572
 20
190.5355604937
  0
VERTEX
  8
1_AXIS
 62
7
  6
CONTINUOUS
 10
164.2282529031
 20
190.1286240705
  0
VERTEX
  8
1_AXIS
 62
7
  6
CONTINUOUS
 10
164.2225974999
 20
189.6942590345
  0
VERTEX
  8
1_AXIS
 62
7
  6
CONTINUOUS
 10
164.2191578373
 20
189.2412978114
  0
VERTEX
  8
1_AXIS
 62
7
  6
CONTINUOUS
 10
164.2180035018
 20
188.7789448205
  0
SEQEND
  0
POLYLINE
  8
1_AXIS
 62
7
  6
CONTINUOUS
 66
1
 70
0
  0
VERTEX
  8
1_AXIS
 62
7
  6
CONTINUOUS
 10
164.3314960025
 20
185.5289448205
  0
VERTEX
  8
1_AXIS
 62
7
  6
CONTINUOUS
 10
164.3476535871
 20
185.5620495031
  0
VERTEX
  8
1_AXIS
 62
7
  6
CONTINUOUS
 10
164.3634815703
 20
185.6606854617
  0
VERTEX
  8
1_AXIS
 62
7
  6
CONTINUOUS
 10
164.3786571266
 20
185.8228322673
  0
VERTEX
  8
1_AXIS
 62
7
  6
CONTINUOUS
 10
164.3928709778
 20
186.0451708098
  0
VERTEX
  8
1_AXIS
 62
7
  6
CONTINUOUS
 10
164.4058337203
 20
186.3231541871
  0
VERTEX
  8
1_AXIS
 62
7
  6
CONTINUOUS
 10
164.4172817202
 20
186.6511038594
  0
VERTEX
  8
1_AXIS
 62
7
  6
CONTINUOUS
 10
164.4269824481
 20
187.0223291473
  0
VERTEX
  8
1_AXIS
 62
7
  6
CONTINUOUS
 10
164.4347391022
 20
187.4292655705
  0
VERTEX
  8
1_AXIS
 62
7
  6
CONTINUOUS
 10
164.4403945054
 20
187.8636306065
  0
VERTEX
  8
1_AXIS
 62
7
  6
CONTINUOUS
 10
164.443834168
 20
188.3165918296
  0
VERTEX
  8
1_AXIS
 62
7
  6
CONTINUOUS
 10
164.4449885035
 20
188.7789448205
  0
SEQEND
  0
POLYLINE
  8
0
 62
7
  6
CONTINUOUS
 66
1
 70
0
  0
VERTEX
  8
0
 62
7
  6
CONTINUOUS
 10
155.5460736925
 20
191.6077351947
  0
VERTEX
  8
0
 62
7
  6
CONTINUOUS
 10
155.5508259912
 20
191.5776089797
  0
VERTEX
  8
0
 62
7
  6
CONTINUOUS
 10
155.5581080489
 20
191.5107650151
  0
VERTEX
  8
0
 62
7
  6
CONTINUOUS
 10
155.5619733905
 20
191.4481391894
  0
SEQEND
  0
POLYLINE
  8
1_AXIS
 62
7
  6
CONTINUOUS
 66
1
 70
0
  0
VERTEX
  8
1_AXIS
 62
7
  6
CONTINUOUS
 10
164.2180035018
 20
188.7789448205
  0
VERTEX
  8
1_AXIS
 62
7
  6
CONTINUOUS
 10
164.2191578371
 20
188.3165918588
  0
VERTEX
  8
1_AXIS
 62
7
  6
CONTINUOUS
 10
164.2225974986
 20
187.8636307317
  0
VERTEX
  8
1_AXIS
 62
7
  6
CONTINUOUS
 10
164.228252899
 20
187.4292658322
  0
VERTEX
  8
1_AXIS
 62
7
  6
CONTINUOUS
 10
164.236009548
 20
187.0223295564
  0
VERTEX
  8
1_AXIS
 62
7
  6
CONTINUOUS
 10
164.2457102688
 20
186.6511043969
  0
VERTEX
  8
1_AXIS
 62
7
  6
CONTINUOUS
 10
164.25715826
 20
186.3231548068
  0
VERTEX
  8
1_AXIS
 62
7
  6
CONTINUOUS
 10
164.2701209931
 20
186.0451714438
  0
VERTEX
  8
1_AXIS
 62
7
  6
CONTINUOUS
 10
164.2843348352
 20
185.8228328364
  0
VERTEX
  8
1_AXIS
 62
7
  6
CONTINUOUS
 10
164.2995103839
 20
185.6606858911
  0
VERTEX
  8
1_AXIS
 62
7
  6
CONTINUOUS
 10
164.3153383622
 20
185.5620497339
  0
VERTEX
  8
1_AXIS
 62
7
  6
CONTINUOUS
 10
164.3314960025
 20
185.5289448205
  0
SEQEND
  0
POLYLINE
  8
1_AXIS
 62
7
  6
CONTINUOUS
 66
1
 70
0
  0
VERTEX
  8
1_AXIS
 62
7
  6
CONTINUOUS
 10
164.4449885035
 20
188.7789448205
  0
VERTEX
  8
1_AXIS
 62
7
  6
CONTINUOUS
 10
164.4438341682
 20
189.2412977822
  0
VERTEX
  8
1_AXIS
 62
7
  6
CONTINUOUS
 10
164.4403945067
 20
189.6942589093
  0
VERTEX
  8
1_AXIS
 62
7
  6
CONTINUOUS
 10
164.4347391063
 20
190.1286238088
  0
VERTEX
  8
1_AXIS
 62
7
  6
CONTINUOUS
 10
164.4269824573
 20
190.5355600846
  0
VERTEX
  8
1_AXIS
 62
7
  6
CONTINUOUS
 10
164.4172817365
 20
190.9067852441
  0
VERTEX
  8
1_AXIS
 62
7
  6
CONTINUOUS
 10
164.4058337453
 20
191.2347348342
  0
VERTEX
  8
1_AXIS
 62
7
  6
CONTINUOUS
 10
164.3928710122
 20
191.5127181972
  0
VERTEX
  8
1_AXIS
 62
7
  6
CONTINUOUS
 10
164.3786571701
 20
191.7350568046
  0
VERTEX
  8
1_AXIS
 62
7
  6
CONTINUOUS
 10
164.3634816213
 20
191.8972037499
  0
VERTEX
  8
1_AXIS
 62
7
  6
CONTINUOUS
 10
164.3476536431
 20
191.9958399071
  0
VERTEX
  8
1_AXIS
 62
7
  6
CONTINUOUS
 10
164.3314960027
 20
192.0289448205
  0
SEQEND
  0
LINE
  8
0
 62
7
  6
CONTINUOUS
 10
168.053242861
 20
194.3682311033
 11
168.053242861
 21
182.9289448205
  0
POLYLINE
  8
1_AXIS
 62
7
  6
CONTINUOUS
 66
1
 70
0
  0
VERTEX
  8
1_AXIS
 62
7
  6
CONTINUOUS
 10
158.8884822202
 20
188.7789448205
  0
VERTEX
  8
1_AXIS
 62
7
  6
CONTINUOUS
 10
158.8873278849
 20
188.3165918588
  0
VERTEX
  8
1_AXIS
 62
7
  6
CONTINUOUS
 10
158.8838882234
 20
187.8636307317
  0
VERTEX
  8
1_AXIS
 62
7
  6
CONTINUOUS
 10
158.878232823
 20
187.4292658322
  0
VERTEX
  8
1_AXIS
 62
7
  6
CONTINUOUS
 10
158.870476174
 20
187.0223295564
  0
VERTEX
  8
1_AXIS
 62
7
  6
CONTINUOUS
 10
158.8607754532
 20
186.6511043969
  0
VERTEX
  8
1_AXIS
 62
7
  6
CONTINUOUS
 10
158.849327462
 20
186.3231548068
  0
VERTEX
  8
1_AXIS
 62
7
  6
CONTINUOUS
 10
158.8363647289
 20
186.0451714438
  0
VERTEX
  8
1_AXIS
 62
7
  6
CONTINUOUS
 10
158.8221508868
 20
185.8228328364
  0
VERTEX
  8
1_AXIS
 62
7
  6
CONTINUOUS
 10
158.806975338
 20
185.6606858911
  0
VERTEX
  8
1_AXIS
 62
7
  6
CONTINUOUS
 10
158.7911473598
 20
185.5620497339
  0
VERTEX
  8
1_AXIS
 62
7
  6
CONTINUOUS
 10
158.7749897194
 20
185.5289448205
  0
SEQEND
  0
LINE
  8
0
 62
7
  6
CONTINUOUS
 10
164.4763502065
 20
192.1492208087
 11
164.4823472625
 21
192.1262549736
  0
LINE
  8
0
 62
7
  6
CONTINUOUS
 10
164.4823472625
 20
192.1262549736
 11
164.4875028555
 21
192.1060737781
  0
LINE
  8
0
 62
7
  6
CONTINUOUS
 10
164.4875028555
 20
192.1060737781
 11
164.4942538857
 21
192.0790394323
  0
POLYLINE
  8
0
 62
7
  6
CONTINUOUS
 66
1
 70
0
  0
VERTEX
  8
0
 62
7
  6
CONTINUOUS
 10
164.4942366752
 20
192.0791086891
  0
VERTEX
  8
0
 62
7
  6
CONTINUOUS
 10
164.4983922405
 20
192.0586484329
  0
VERTEX
  8
0
 62
7
  6
CONTINUOUS
 10
164.5001388121
 20
192.0457499851
  0
SEQEND
  0
LINE
  8
0
 62
7
  6
CONTINUOUS
 10
164.5001429919
 20
192.0457120311
 11
164.5001388121
 21
192.0457499851
  0
LINE
  8
4_SURFACE
 62
7
  6
CONTINUOUS
 10
180.6799464341
 20
99.2781968465
 11
180.1799464341
 21
99.2230956705
  0
LINE
  8
4_SURFACE
 62
7
  6
CONTINUOUS
 10
188.878378188
 20
131.9705239455
 11
181.4949221975
 21
129.2787867939
  0
LINE
  8
4_SURFACE
 62
7
  6
CONTINUOUS
 10
180.1799464341
 20
99.2230956705
 11
180.1799464341
 21
139.7990956705
  0
LINE
  8
DEFAULT_1
 62
2
  6
CENTER
 10
186.5299464341
 20
92.1110956705
 11
186.5299464341
 21
146.9110957033
  0
POLYLINE
  8
4_SURFACE
 62
7
  6
CONTINUOUS
 66
1
 70
0
  0
VERTEX
  8
4_SURFACE
 62
7
  6
CONTINUOUS
 10
191.7322057398
 20
133.2110956705
  0
VERTEX
  8
4_SURFACE
 62
7
  6
CONTINUOUS
 10
191.794357709
 20
133.6382488945
  0
VERTEX
  8
4_SURFACE
 62
7
  6
CONTINUOUS
 10
191.8296683339
 20
133.836719658
  0
VERTEX
  8
4_SURFACE
 62
7
  6
CONTINUOUS
 10
191.8739669903
 20
134.0129352203
  0
VERTEX
  8
4_SURFACE
 62
7
  6
CONTINUOUS
 10
191.9312493809
 20
134.162707018
  0
VERTEX
  8
4_SURFACE
 62
7
  6
CONTINUOUS
 10
192.0036190498
 20
134.2834762
  0
SEQEND
  0
LINE
  8
0
 62
7
  6
CONTINUOUS
 10
192.8799464341
 20
135.4110956705
 11
192.8799464341
 21
134.1110956705
  0
LINE
  8
4_SURFACE
 62
7
  6
CONTINUOUS
 10
192.8799464341
 20
138.5610956705
 11
192.8799464341
 21
100.4610956705
  0
LINE
  8
4_SURFACE
 62
7
  6
CONTINUOUS
 10
192.5478309106
 20
98.4341635631
 11
192.5489155982
 21
98.4374216667
  0
LINE
  8
0
 62
7
  6
CONTINUOUS
 10
192.5478309233
 20
98.4341636007
 11
192.5489155716
 21
98.4374215858
  0
LINE
  8
4_SURFACE
 62
7
  6
CONTINUOUS
 10
189.1992662873
 20
132.8648553913
 11
189.1625262866
 21
132.8565690788
  0
POLYLINE
  8
4_SURFACE
 62
7
  6
CONTINUOUS
 66
1
 70
0
  0
VERTEX
  8
4_SURFACE
 62
7
  6
CONTINUOUS
 10
189.6099759681
 20
132.6952036541
  0
VERTEX
  8
4_SURFACE
 62
7
  6
CONTINUOUS
 10
189.5416615047
 20
132.7553777885
  0
VERTEX
  8
4_SURFACE
 62
7
  6
CONTINUOUS
 10
189.4708550564
 20
132.8053521963
  0
VERTEX
  8
4_SURFACE
 62
7
  6
CONTINUOUS
 10
189.3991069851
 20
132.8422423797
  0
VERTEX
  8
4_SURFACE
 62
7
  6
CONTINUOUS
 10
189.328633589
 20
132.8644632051
  0
VERTEX
  8
4_SURFACE
 62
7
  6
CONTINUOUS
 10
189.261787272
 20
132.8717178441
  0
VERTEX
  8
4_SURFACE
 62
7
  6
CONTINUOUS
 10
189.1991410252
 20
132.8648305551
  0
SEQEND
  0
LINE
  8
4_SURFACE
 62
7
  6
CONTINUOUS
 10
189.1625262866
 20
132.8565690788
 11
189.0968082737
 21
132.8420357781
  0
LINE
  8
4_SURFACE
 62
7
  6
CONTINUOUS
 10
189.0968082737
 20
132.8420357781
 11
189.0400216372
 21
132.8297760048
  0
LINE
  8
4_SURFACE
 62
7
  6
CONTINUOUS
 10
189.0400216372
 20
132.8297760048
 11
188.968360662
 21
132.8146995923
  0
LINE
  8
4_SURFACE
 62
7
  6
CONTINUOUS
 10
188.968360662
 20
132.8146995923
 11
188.9096613302
 21
132.8026780068
  0
LINE
  8
4_SURFACE
 62
7
  6
CONTINUOUS
 10
188.9096613302
 20
132.8026780068
 11
188.8491167982
 21
132.7905878624
  0
LINE
  8
4_SURFACE
 62
7
  6
CONTINUOUS
 10
188.8491167982
 20
132.7905878624
 11
188.7857631954
 21
132.778273042
  0
LINE
  8
4_SURFACE
 62
7
  6
CONTINUOUS
 10
188.7857631954
 20
132.778273042
 11
188.7479995691
 21
132.7710956705
  0
LINE
  8
4_SURFACE
 62
7
  6
CONTINUOUS
 10
188.8783782576
 20
131.9710956705
 11
180.6799464341
 21
131.9710956705
  0
LINE
  8
4_SURFACE
 62
7
  6
CONTINUOUS
 10
192.2626581888
 20
134.6110956705
 11
192.3799464341
 21
134.6110956705
  0
POLYLINE
  8
4_SURFACE
 62
7
  6
CONTINUOUS
 66
1
 70
0
  0
VERTEX
  8
4_SURFACE
 62
7
  6
CONTINUOUS
 10
180.6712202309
 20
139.7439941911
  0
VERTEX
  8
4_SURFACE
 62
7
  6
CONTINUOUS
 10
180.1922814087
 20
139.7975538458
  0
VERTEX
  8
4_SURFACE
 62
7
  6
CONTINUOUS
 10
180.1799464341
 20
139.7990956705
  0
SEQEND
  0
ARC
  8
4_SURFACE
 62
7
  6
CONTINUOUS
 10
16.353242861
 20
94.6110964256
 40
0.5
 50
180.0000021144
 51
269.9999985203
  0
ARC
  8
4_SURFACE
 62
7
  6
CONTINUOUS
 10
18.8703985062
 20
94.6110974042
 40
0.5
 50
269.9999960473
 51
357.9998869914
  0
ARC
  8
4_SURFACE
 62
7
  6
CONTINUOUS
 10
25.8360872144
 20
94.6110974442
 40
0.5
 50
182.0001175982
 51
270.0000041129
  0
ARC
  8
4_SURFACE
 62
7
  6
CONTINUOUS
 10
17.253242861
 20
133.2110956705
 40
1.4
 50
90.0
 51
180.0
  0
ARC
  8
0
 62
7
  6
CONTINUOUS
 10
167.553242861
 20
94.6110964256
 40
0.5
 50
270.0000014797
 51
359.9999989428
  0
ARC
  8
0
 62
7
  6
CONTINUOUS
 10
165.0360872158
 20
94.6110974042
 40
0.5
 50
182.0001130086
 51
270.0000039527
  0
ARC
  8
0
 62
7
  6
CONTINUOUS
 10
158.0703985076
 20
94.6110974442
 40
0.5
 50
269.9999958871
 51
357.9998824018
  0
ARC
  8
0
 62
7
  6
CONTINUOUS
 10
166.653242861
 20
133.2110956705
 40
1.4
 50
0.0
 51
90.0
  0
ARC
  8
4_SURFACE
 62
7
  6
CONTINUOUS
 10
16.353242861
 20
182.9289448205
 40
0.5
 50
180.0
 51
270.0
  0
ARC
  8
4_SURFACE
 62
7
  6
CONTINUOUS
 10
78.3902149048
 20
182.9289448205
 40
0.5
 50
270.0
 51
359.0
  0
ARC
  8
4_SURFACE
 62
7
  6
CONTINUOUS
 10
52.0662728368
 20
182.9289448205
 40
0.5
 50
180.999995961
 51
269.9997685632
  0
ARC
  8
4_SURFACE
 62
7
  6
CONTINUOUS
 10
54.9162708171
 20
182.9289448205
 40
0.5
 50
181.0
 51
270.0
  0
ARC
  8
4_SURFACE
 62
7
  6
CONTINUOUS
 10
27.6902149048
 20
182.9289448205
 40
0.5
 50
270.0
 51
359.0
  0
ARC
  8
4_SURFACE
 62
7
  6
CONTINUOUS
 10
30.6402171511
 20
182.9289448205
 40
0.4999997492
 50
269.9997995795
 51
358.9998429363
  0
ARC
  8
4_SURFACE
 62
7
  6
CONTINUOUS
 10
81.2402186949
 20
182.9289448205
 40
0.4999996775
 50
269.9996707555
 51
359.0001367843
  0
ARC
  8
4_SURFACE
 62
7
  6
CONTINUOUS
 10
31.7747712328
 20
190.6289448205
 40
0.5
 50
90.7989892563
 51
179.0
  0
ARC
  8
4_SURFACE
 62
7
  6
CONTINUOUS
 10
27.8944446781
 20
194.6289448205
 40
0.4999978797
 50
358.9999889732
 51
90.0006318072
  0
ARC
  8
4_SURFACE
 62
7
  6
CONTINUOUS
 10
17.8967992889
 20
194.6889423889
 40
0.44
 50
89.9984168295
 51
101.3083179271
  0
ARC
  8
4_SURFACE
 62
7
  6
CONTINUOUS
 10
16.293242861
 20
194.3682311033
 40
0.44
 50
101.309932474
 51
180.0
  0
ARC
  8
4_SURFACE
 62
7
  6
CONTINUOUS
 10
82.3747712328
 20
190.6289448205
 40
0.5
 50
90.7989892563
 51
179.0
  0
ARC
  8
4_SURFACE
 62
7
  6
CONTINUOUS
 10
50.9317183008
 20
190.6289448205
 40
0.4999985342
 50
1.0000076229
 51
89.2014467748
  0
ARC
  8
4_SURFACE
 62
7
  6
CONTINUOUS
 10
78.5944391645
 20
194.6289448205
 40
0.5
 50
359.0
 51
90.0
  0
ARC
  8
4_SURFACE
 62
7
  6
CONTINUOUS
 10
54.7120465575
 20
194.6289448205
 40
0.5
 50
90.0
 51
181.0
  0
ARC
  8
0
 62
7
  6
CONTINUOUS
 10
131.8402149048
 20
182.9289448205
 40
0.5
 50
270.0000945483
 51
359.0000836517
  0
ARC
  8
0
 62
7
  6
CONTINUOUS
 10
128.9902149048
 20
182.9289448205
 40
0.5
 50
270.0
 51
359.0
  0
ARC
  8
0
 62
7
  6
CONTINUOUS
 10
156.2162708171
 20
182.9289448205
 40
0.5
 50
181.0
 51
270.0
  0
ARC
  8
0
 62
7
  6
CONTINUOUS
 10
105.5162708171
 20
182.9289448205
 40
0.5
 50
181.0
 51
270.0
  0
ARC
  8
0
 62
7
  6
CONTINUOUS
 10
167.553242861
 20
182.9289448205
 40
0.5
 50
270.0
 51
360.0
  0
ARC
  8
0
 62
7
  6
CONTINUOUS
 10
153.2662685709
 20
182.9289448205
 40
0.4999997492
 50
181.0001570637
 51
270.0002004205
  0
ARC
  8
0
 62
7
  6
CONTINUOUS
 10
102.6662670271
 20
182.9289448205
 40
0.4999996775
 50
180.9998632157
 51
270.0003292445
  0
ARC
  8
0
 62
7
  6
CONTINUOUS
 10
101.5317144891
 20
190.6289448205
 40
0.5
 50
1.0
 51
89.2010107437
  0
ARC
  8
0
 62
7
  6
CONTINUOUS
 10
132.9747674212
 20
190.6289448205
 40
0.4999985342
 50
90.7985532252
 51
178.9999923771
  0
ARC
  8
0
 62
7
  6
CONTINUOUS
 10
129.1944391645
 20
194.6289448205
 40
0.5
 50
359.0
 51
90.0
  0
ARC
  8
0
 62
7
  6
CONTINUOUS
 10
105.3120465736
 20
194.6289438969
 40
0.5
 50
90.0000018473
 51
180.9998941517
  0
ARC
  8
0
 62
7
  6
CONTINUOUS
 10
152.1317144891
 20
190.6289448205
 40
0.5
 50
1.0
 51
89.2010107437
  0
ARC
  8
0
 62
7
  6
CONTINUOUS
 10
156.0120410439
 20
194.6289448205
 40
0.4999978797
 50
89.9993681928
 51
181.0000110268
  0
ARC
  8
0
 62
7
  6
CONTINUOUS
 10
166.0096864331
 20
194.6889423889
 40
0.44
 50
78.6916820729
 51
90.0015831705
  0
ARC
  8
0
 62
7
  6
CONTINUOUS
 10
167.613242861
 20
194.3682311033
 40
0.44
 50
0.0
 51
78.690067526
  0
ARC
  8
4_SURFACE
 62
7
  6
CONTINUOUS
 10
182.1799464341
 20
127.3997599726
 40
2.0
 50
110.03
 51
180.0
  0
ARC
  8
4_SURFACE
 62
7
  6
CONTINUOUS
 10
180.6799464341
 20
131.4711017981
 40
0.4999976432
 50
90.0
 51
180.0007021665
  0
ARC
  8
0
 62
7
  6
CONTINUOUS
 10
186.5300217094
 20
100.6110956701
 40
6.5
 50
192.3297961702
 51
269.9712469788
  0
ARC
  8
4_SURFACE
 62
7
  6
CONTINUOUS
 10
186.5300217094
 20
100.6110956701
 40
6.5
 50
192.3297961702
 51
269.9712469788
  0
ARC
  8
0
 62
7
  6
CONTINUOUS
 10
186.5299464341
 20
100.4610956705
 40
6.35
 50
310.6969989015
 51
310.8195258871
  0
ARC
  8
0
 62
7
  6
CONTINUOUS
 10
186.5299464341
 20
100.4610956705
 40
6.35
 50
353.135785043
 51
360.0
  0
ARC
  8
0
 62
7
  6
CONTINUOUS
 10
186.5299464341
 20
100.4610956705
 40
6.35
 50
313.2693999101
 51
341.3852937102
  0
ARC
  8
0
 62
7
  6
CONTINUOUS
 10
186.5299464341
 20
100.4610956705
 40
6.35
 50
291.625133941
 51
293.5579638256
  0
ARC
  8
0
 62
7
  6
CONTINUOUS
 10
186.5299464341
 20
100.4610956705
 40
6.35
 50
277.7141675119
 51
290.0462469072
  0
ARC
  8
0
 62
7
  6
CONTINUOUS
 10
186.5299464341
 20
100.4610956705
 40
6.35
 50
269.9712469788
 51
276.7443743025
  0
ARC
  8
4_SURFACE
 62
7
  6
CONTINUOUS
 10
186.5299464341
 20
100.4610956705
 40
6.35
 50
269.9712469788
 51
360.0
  0
CIRCLE
  8
4_SURFACE
 62
7
  6
CONTINUOUS
 10
186.5299464341
 20
100.4610956705
 40
3.25
  0
ARC
  8
4_SURFACE
 62
7
  6
CONTINUOUS
 10
186.5304576865
 20
138.4108881846
 40
6.855
 50
290.03
 51
326.1143692679
  0
ARC
  8
4_SURFACE
 62
7
  6
CONTINUOUS
 10
186.5300217094
 20
138.411095671
 40
6.5
 50
90.0287530212
 51
167.6702038298
  0
ARC
  8
0
 62
7
  6
CONTINUOUS
 10
186.5300217094
 20
138.411095671
 40
6.5
 50
90.0287530212
 51
167.6702038298
  0
ARC
  8
0
 62
7
  6
CONTINUOUS
 10
186.5299464341
 20
138.5610956705
 40
6.35
 50
0.0
 51
6.9046706197
  0
ARC
  8
0
 62
7
  6
CONTINUOUS
 10
186.5299464341
 20
138.5610956705
 40
6.35
 50
83.1222184071
 51
90.0287530212
  0
ARC
  8
4_SURFACE
 62
7
  6
CONTINUOUS
 10
186.5299464341
 20
138.5610956705
 40
6.35
 50
0.0
 51
90.0287530212
  0
CIRCLE
  8
4_SURFACE
 62
7
  6
CONTINUOUS
 10
186.5299464341
 20
138.5610956705
 40
3.25
  0
ARC
  8
4_SURFACE
 62
7
  6
CONTINUOUS
 10
192.3799464341
 20
134.1111008897
 40
0.4999979926
 50
359.9994019335
 51
90.0
  0
ARC
  8
0
 62
7
  6
CONTINUOUS
 10
192.3799464341
 20
134.1111008897
 40
0.4999979926
 50
58.6722330569
 51
74.5468347706
  0
ARC
  8
0
 62
7
  6
CONTINUOUS
 10
192.3799464341
 20
134.1111008897
 40
0.4999979926
 50
40.0293424355
 51
49.6569276894
  0
ARC
  8
4_SURFACE
 62
7
  6
CONTINUOUS
 10
192.2626581888
 20
134.5610956705
 40
0.05
 50
89.9999999999
 51
146.1143692678
  0
ENDSEC
  0
EOF
