  0
SECTION
  2
HEADER
  9
$EXTMAX
 10
594.0
 20
420.0
 30
0.0
  9
$EXTMIN
 10
0.0
 20
0.0
 30
0.0
  9
$LIMMIN
 10
0.0
 20
0.0
  9
$LIMMAX
 10
594.0
 20
420.0
  9
$VIEWCTR
 10
297.0
 20
210.0
  9
$VIEWSIZE
 40
420.0
  9
$CLAYER
  8
0
  9
$LTSCALE
 40
32.67
  9
$CELTYPE
  6
BYLAYER
  9
$DIMSCALE
 40
1.0
  9
$DIMASZ
 40
3.5
  9
$DIMEXO
 40
3.7125
  9
$DIMDLI
 40
22.572
  9
$DIMEXE
 40
10.692
  9
$DIMCEN
 40
5.346
  9
$DIMLFAC
 40
1.0
  9
$DIMBLK
  1
_FILLED
  9
$DIMTXT
 40
3.5
  9
$PDMODE
 70
3
  9
$PDSIZE
 40
0.3125
  9
$TILEMODE
 70
1
  0
ENDSEC
  0
SECTION
  2
TABLES
  0
TABLE
  2
LTYPE
 70
6
  0
LTYPE
  2
BYBLOCK
 70
0
  3

 72
65
 73
0
 40
0.0
  0
LTYPE
  2
BYLAYER
 70
0
  3

 72
65
 73
0
 40
0.0
  0
LTYPE
  2
CONTINUOUS
 70
64
  3
Solid line
 72
65
 73
0
 40
0.0
  0
LTYPE
  2
CENTER
 70
64
  3
____ _ ____ _ ____ _ ____ _ ____ _ ____ _ ____
 72
65
 73
4
 40
0.6
 49
0.375
 49
-0.075
 49
0.075
 49
-0.075
  0
LTYPE
  2
HIDDEN
 70
64
  3
- - - - - - - - - - - - - - - - - - - -
 72
65
 73
2
 40
0.2
 49
0.1
 49
-0.1
  0
LTYPE
  2
PHANTOM
 70
64
  3
_____ _ _ _____ _ _ _____ _ _ _____
 72
65
 73
6
 40
0.8
 49
0.45
 49
-0.05
 49
0.1
 49
-0.05
 49
0.1
 49
-0.05
  0
LTYPE
  2
DOT
 70
64
  3
. . . . . . . . . . . . . . . . . . . .
 72
65
 73
2
 40
0.2
 49
0.1
 49
-0.1
  0
LTYPE
  2
DASHED
 70
64
  3
- - - - - - - - - - - - - - - - - - - -
 72
65
 73
2
 40
0.2
 49
0.1
 49
-0.1
  0
ENDTAB
  0
TABLE
  2
LAYER
 70
36
  0
LAYER
  2
0
 70
0
 62
7
  6
CONTINUOUS
  0
LAYER
  2
DEFAULT_1
 70
0
 62
7
  6
CENTER
  0
LAYER
  2
DEFAULT_2
 70
0
 62
8
  6
HIDDEN
  0
LAYER
  2
DEFAULT_3
 70
0
 62
7
  6
PHANTOM
  0
LAYER
  2
CURVE
 70
0
 62
7
  6
CONTINUOUS
  0
LAYER
  2
SOLID
 70
0
 62
7
  6
CONTINUOUS
  0
LAYER
  2
SURFACE
 70
0
 62
7
  6
CONTINUOUS
  0
ENDTAB
  0
TABLE
  2
STYLE
 70
1
  0
STYLE
  2
STANDARD
 70
0
 40
0.0
 41
0.8
 50
0.0
 71
0
 42
0.2
  3
txt
  4

  0
STYLE
  2
TEXTSTYLE_1
 70
0
 40
0.0
 41
0.8
 50
0.0
 71
0
 42
0.2
  3
gdt
  4

  0
STYLE
  2
TEXTSTYLE_2
 70
0
 40
0.0
 41
0.6
 50
0.0
 71
0
 42
0.2
  3
txt
  4

  0
STYLE
  2
TEXTSTYLE_3
 70
0
 40
0.0
 41
1.0
 50
0.0
 71
0
 42
0.2
  3
ftb_____.ttf
  4

  0
STYLE
  2
TEXTSTYLE_4
 70
0
 40
0.0
 41
1.0
 50
0.0
 71
0
 42
0.2
  3
fti_____.ttf
  4

  0
STYLE
  2
TEXTSTYLE_5
 70
0
 40
0.0
 41
1.0
 50
0.0
 71
0
 42
0.2
  3
frutiger light.ttf
  4

  0
STYLE
  2
TEXTSTYLE_6
 70
0
 40
0.0
 41
0.7
 50
0.0
 71
0
 42
0.2
  3
txt
  4

  0
STYLE
  2
TEXTSTYLE_7
 70
0
 40
0.0
 41
0.8
 50
0.0
 71
0
 42
0.2
  3
txt
  4

  0
ENDTAB
  0
ENDSEC
  0
SECTION
  2
BLOCKS
  0
BLOCK
  8
0
 62
2
  6
CONTINUOUS
  2
SYMBOL_3_BL1
 70
64
 10
557.4079930916
 20
35.8092573885
  0
TEXT
  8
0
 62
7
  6
CONTINUOUS
 10
548.4662781001
 20
30.9020137655
  7
TEXTSTYLE_4
 40
1.0655737705
  1
The brand for plastic modular belts and chains
 41
1.0
 72
0
  0
LINE
  8
0
 62
7
  6
CONTINUOUS
 10
533.3860614807
 20
36.3830278803
 11
533.3860614807
 21
34.2518803393
  0
LINE
  8
0
 62
7
  6
CONTINUOUS
 10
533.6751239738
 20
31.2609490436
 11
533.6751239738
 21
31.3577401029
  0
LINE
  8
0
 62
7
  6
CONTINUOUS
 10
533.3860614807
 20
31.3254764164
 11
533.4438739824
 21
31.1318942979
  0
LINE
  8
0
 62
7
  6
CONTINUOUS
 10
534.7795041036
 20
34.1699131262
 11
534.7795041036
 21
36.3830278803
  0
LINE
  8
0
 62
7
  6
CONTINUOUS
 10
535.6985614255
 20
32.3256508311
 11
535.6985614255
 21
30.8092573885
  0
LINE
  8
0
 62
7
  6
CONTINUOUS
 10
535.9876239807
 20
30.8092573885
 11
535.9876239807
 21
31.5513222666
  0
LINE
  8
0
 62
7
  6
CONTINUOUS
 10
535.9876239807
 20
31.6803770123
 11
535.9876239807
 21
32.3256508311
  0
LINE
  8
0
 62
7
  6
CONTINUOUS
 10
533.4438739824
 20
31.5190585802
 11
533.3860614807
 21
31.3254764164
  0
LINE
  8
0
 62
7
  6
CONTINUOUS
 10
533.7907489669
 20
31.0996306115
 11
533.6751239738
 21
31.2609490436
  0
LINE
  8
0
 62
7
  6
CONTINUOUS
 10
534.8891865358
 20
31.6158496394
 11
534.9469989807
 21
31.5190585802
  0
LINE
  8
0
 62
7
  6
CONTINUOUS
 10
535.2360615358
 20
31.5190585802
 11
535.1782489255
 21
31.6481133259
  0
LINE
  8
0
 62
7
  6
CONTINUOUS
 10
536.6647500053
 20
36.3830278803
 11
536.6647500053
 21
34.5797491918
  0
LINE
  8
0
 62
7
  6
CONTINUOUS
 10
536.6647500053
 20
33.2682737819
 11
536.6647500053
 21
32.612536077
  0
LINE
  8
0
 62
7
  6
CONTINUOUS
 10
537.0282489807
 20
31.4545312073
 11
537.0282489807
 21
30.8092573885
  0
LINE
  8
0
 62
7
  6
CONTINUOUS
 10
537.3173113704
 20
30.8092573885
 11
537.3173113704
 21
31.4545312073
  0
LINE
  8
0
 62
7
  6
CONTINUOUS
 10
533.6751239738
 20
31.3577401029
 11
533.7329364807
 21
31.4867948937
  0
LINE
  8
0
 62
7
  6
CONTINUOUS
 10
533.4438739824
 20
31.1318942979
 11
533.5594989807
 21
31.0028395296
  0
LINE
  8
0
 62
7
  6
CONTINUOUS
 10
536.9704363704
 20
31.583585953
 11
537.0282489807
 21
31.4545312073
  0
LINE
  8
0
 62
7
  6
CONTINUOUS
 10
537.7798115909
 20
31.0996306115
 11
537.8376238704
 21
30.9705758432
  0
LINE
  8
0
 62
7
  6
CONTINUOUS
 10
537.3173113704
 20
31.4545312073
 11
537.2594990909
 21
31.6158496394
  0
LINE
  8
0
 62
7
  6
CONTINUOUS
 10
537.7798115909
 20
31.6481133259
 11
537.7798115909
 21
31.583585953
  0
LINE
  8
0
 62
7
  6
CONTINUOUS
 10
537.7798115909
 20
31.1964216708
 11
537.7798115909
 21
31.0996306115
  0
LINE
  8
0
 62
7
  6
CONTINUOUS
 10
538.0581926282
 20
32.612536077
 11
538.0581926282
 21
36.3830278803
  0
LINE
  8
0
 62
7
  6
CONTINUOUS
 10
538.0688739807
 20
31.0673669025
 11
538.0688739807
 21
31.1318942979
  0
LINE
  8
0
 62
7
  6
CONTINUOUS
 10
538.3860614807
 20
36.3830278803
 11
538.3860614807
 21
32.612536077
  0
LINE
  8
0
 62
7
  6
CONTINUOUS
 10
535.1782489255
 20
31.0028395296
 11
535.2360615358
 21
31.1318942979
  0
LINE
  8
0
 62
7
  6
CONTINUOUS
 10
539.5719992012
 20
30.9060484591
 11
539.5141862601
 21
31.0673669025
  0
LINE
  8
0
 62
7
  6
CONTINUOUS
 10
539.2251242012
 20
31.583585953
 11
539.2251242012
 21
31.4867948937
  0
LINE
  8
0
 62
7
  6
CONTINUOUS
 10
539.2251242012
 20
31.3577401029
 11
539.2251242012
 21
31.1641579843
  0
LINE
  8
0
 62
7
  6
CONTINUOUS
 10
539.5141862601
 20
31.0673669025
 11
539.5141862601
 21
31.583585953
  0
LINE
  8
0
 62
7
  6
CONTINUOUS
 10
539.7795041036
 20
32.612536077
 11
539.7795041036
 21
34.4158147655
  0
LINE
  8
0
 62
7
  6
CONTINUOUS
 10
539.7795041036
 20
35.7272901754
 11
539.7795041036
 21
36.3830278803
  0
LINE
  8
0
 62
7
  6
CONTINUOUS
 10
540.0923117012
 20
32.3256508311
 11
540.0923117012
 21
32.164332399
  0
LINE
  8
0
 62
7
  6
CONTINUOUS
 10
540.0923117012
 20
31.8416954444
 11
540.0923117012
 21
30.8092573885
  0
LINE
  8
0
 62
7
  6
CONTINUOUS
 10
540.3813737601
 20
30.8092573885
 11
540.3813737601
 21
31.8416954444
  0
LINE
  8
0
 62
7
  6
CONTINUOUS
 10
540.3813737601
 20
32.164332399
 11
540.3813737601
 21
32.3256508311
  0
LINE
  8
0
 62
7
  6
CONTINUOUS
 10
534.9469989807
 20
31.1318942979
 11
534.8891865358
 21
31.035103216
  0
LINE
  8
0
 62
7
  6
CONTINUOUS
 10
537.2594990909
 20
31.6158496394
 11
537.2016864807
 21
31.6803770123
  0
LINE
  8
0
 62
7
  6
CONTINUOUS
 10
538.1266865909
 20
31.0028395296
 11
538.0688739807
 21
31.0673669025
  0
LINE
  8
0
 62
7
  6
CONTINUOUS
 10
539.2829364807
 20
30.873784767
 11
539.3407487601
 21
30.8092573885
  0
LINE
  8
0
 62
7
  6
CONTINUOUS
 10
539.2251242012
 20
30.9705758432
 11
539.2829364807
 21
30.873784767
  0
LINE
  8
0
 62
7
  6
CONTINUOUS
 10
539.6298114807
 20
30.8092573885
 11
539.5719992012
 21
30.9060484591
  0
LINE
  8
0
 62
7
  6
CONTINUOUS
 10
539.5141862601
 20
31.583585953
 11
539.4563739807
 21
31.6803770123
  0
LINE
  8
0
 62
7
  6
CONTINUOUS
 10
540.8438739807
 20
31.8416954444
 11
540.8438739807
 21
30.8092573885
  0
LINE
  8
0
 62
7
  6
CONTINUOUS
 10
541.1329367012
 20
30.8092573885
 11
541.1329367012
 21
31.5513222666
  0
LINE
  8
0
 62
7
  6
CONTINUOUS
 10
541.1329367012
 20
31.6803770123
 11
541.1329367012
 21
31.8416954444
  0
LINE
  8
0
 62
7
  6
CONTINUOUS
 10
541.6647500053
 20
34.8256508311
 11
541.6647500053
 21
32.612536077
  0
LINE
  8
0
 62
7
  6
CONTINUOUS
 10
533.5594989807
 20
31.6481133259
 11
533.4438739824
 21
31.5190585802
  0
LINE
  8
0
 62
7
  6
CONTINUOUS
 10
533.7329364807
 20
31.4867948937
 11
533.7907489669
 21
31.5513222666
  0
LINE
  8
0
 62
7
  6
CONTINUOUS
 10
533.5594989807
 20
31.0028395296
 11
533.6751239738
 21
30.9383121455
  0
LINE
  8
0
 62
7
  6
CONTINUOUS
 10
533.9641864669
 20
31.0028395296
 11
533.7907489669
 21
31.0996306115
  0
LINE
  8
0
 62
7
  6
CONTINUOUS
 10
539.1673112601
 20
31.6481133259
 11
539.2251242012
 21
31.583585953
  0
LINE
  8
0
 62
7
  6
CONTINUOUS
 10
542.1157487601
 20
31.583585953
 11
542.1735617012
 21
31.4222675209
  0
LINE
  8
0
 62
7
  6
CONTINUOUS
 10
542.4626237601
 20
31.4222675209
 11
542.4048114807
 21
31.583585953
  0
LINE
  8
0
 62
7
  6
CONTINUOUS
 10
542.1735617012
 20
31.4222675209
 11
542.1735617012
 21
30.8092573885
  0
LINE
  8
0
 62
7
  6
CONTINUOUS
 10
542.4626237601
 20
30.8092573885
 11
542.4626237601
 21
31.4222675209
  0
LINE
  8
0
 62
7
  6
CONTINUOUS
 10
542.9251239807
 20
31.6481133259
 11
542.9251239807
 21
31.583585953
  0
LINE
  8
0
 62
7
  6
CONTINUOUS
 10
543.0581926282
 20
32.612536077
 11
543.0581926282
 21
34.743683618
  0
LINE
  8
0
 62
7
  6
CONTINUOUS
 10
543.3860614807
 20
36.3830278803
 11
543.3860614807
 21
32.612536077
  0
LINE
  8
0
 62
7
  6
CONTINUOUS
 10
538.0688739807
 20
31.1318942979
 11
538.1266865909
 21
31.2286853572
  0
LINE
  8
0
 62
7
  6
CONTINUOUS
 10
533.6751239738
 20
30.9383121455
 11
533.8485614944
 21
30.873784767
  0
LINE
  8
0
 62
7
  6
CONTINUOUS
 10
535.1782489255
 20
31.6481133259
 11
535.0048114255
 21
31.7449043851
  0
LINE
  8
0
 62
7
  6
CONTINUOUS
 10
537.8376238704
 20
30.9705758432
 11
538.0110613704
 21
30.873784767
  0
LINE
  8
0
 62
7
  6
CONTINUOUS
 10
536.8548114807
 20
31.6481133259
 11
536.9704363704
 21
31.583585953
  0
LINE
  8
0
 62
7
  6
CONTINUOUS
 10
537.2016864807
 20
31.6803770123
 11
537.0860615909
 21
31.7449043851
  0
LINE
  8
0
 62
7
  6
CONTINUOUS
 10
542.9251239807
 20
31.0673669025
 11
543.0407492012
 21
30.9383121455
  0
LINE
  8
0
 62
7
  6
CONTINUOUS
 10
543.2719989807
 20
31.0028395296
 11
543.2141867012
 21
31.0673669025
  0
LINE
  8
0
 62
7
  6
CONTINUOUS
 10
542.9251239807
 20
31.583585953
 11
543.0407492012
 21
31.4545312073
  0
LINE
  8
0
 62
7
  6
CONTINUOUS
 10
542.4048114807
 20
31.583585953
 11
542.3469992012
 21
31.6803770123
  0
LINE
  8
0
 62
7
  6
CONTINUOUS
 10
544.7751235396
 20
31.0028395296
 11
544.7751235396
 21
31.0673669025
  0
LINE
  8
0
 62
7
  6
CONTINUOUS
 10
544.7795041036
 20
32.612536077
 11
544.7795041036
 21
36.3830278803
  0
LINE
  8
0
 62
7
  6
CONTINUOUS
 10
537.8376238704
 20
31.7126406987
 11
537.7798115909
 21
31.6481133259
  0
LINE
  8
0
 62
7
  6
CONTINUOUS
 10
534.7157489531
 20
31.6803770123
 11
534.8891865358
 21
31.6158496394
  0
LINE
  8
0
 62
7
  6
CONTINUOUS
 10
539.4563739807
 20
31.6803770123
 11
539.3407487601
 21
31.7449043851
  0
LINE
  8
0
 62
7
  6
CONTINUOUS
 10
543.2719989807
 20
31.5190585802
 11
543.2141867012
 21
31.583585953
  0
LINE
  8
0
 62
7
  6
CONTINUOUS
 10
544.4282492012
 20
31.1318942979
 11
544.4860614807
 21
31.0673669025
  0
LINE
  8
0
 62
7
  6
CONTINUOUS
 10
544.7751235396
 20
31.0673669025
 11
544.6594989807
 21
31.1964216708
  0
LINE
  8
0
 62
7
  6
CONTINUOUS
 10
544.4282492012
 20
31.6481133259
 11
544.4860614807
 21
31.583585953
  0
LINE
  8
0
 62
7
  6
CONTINUOUS
 10
544.7751235396
 20
31.583585953
 11
544.6594989807
 21
31.7126406987
  0
LINE
  8
0
 62
7
  6
CONTINUOUS
 10
538.0688739807
 20
31.583585953
 11
538.1266865909
 21
31.6481133259
  0
LINE
  8
0
 62
7
  6
CONTINUOUS
 10
537.8954364807
 20
31.3254764164
 11
537.7798115909
 21
31.1964216708
  0
LINE
  8
0
 62
7
  6
CONTINUOUS
 10
539.2251242012
 20
31.1641579843
 11
539.1673112601
 21
31.0996306115
  0
LINE
  8
0
 62
7
  6
CONTINUOUS
 10
539.1673112601
 20
30.9060484591
 11
539.2251242012
 21
30.9705758432
  0
LINE
  8
0
 62
7
  6
CONTINUOUS
 10
538.0110613704
 20
30.873784767
 11
538.1266865909
 21
30.8415210777
  0
LINE
  8
0
 62
7
  6
CONTINUOUS
 10
535.0048114255
 20
31.7449043851
 11
534.7735614807
 21
31.809431758
  0
LINE
  8
0
 62
7
  6
CONTINUOUS
 10
538.3579363704
 20
30.9383121455
 11
538.1266865909
 21
31.0028395296
  0
LINE
  8
0
 62
7
  6
CONTINUOUS
 10
537.0860615909
 20
31.7449043851
 11
536.9126240909
 21
31.809431758
  0
LINE
  8
0
 62
7
  6
CONTINUOUS
 10
539.3407487601
 20
31.7449043851
 11
539.1673112601
 21
31.809431758
  0
LINE
  8
0
 62
7
  6
CONTINUOUS
 10
542.0001242012
 20
31.6481133259
 11
542.1157487601
 21
31.583585953
  0
LINE
  8
0
 62
7
  6
CONTINUOUS
 10
542.3469992012
 20
31.6803770123
 11
542.2313739807
 21
31.7449043851
  0
LINE
  8
0
 62
7
  6
CONTINUOUS
 10
533.8485614944
 20
30.873784767
 11
534.0219989944
 21
30.8415210777
  0
LINE
  8
0
 62
7
  6
CONTINUOUS
 10
534.3110615082
 20
30.9383121455
 11
533.9641864669
 21
31.0028395296
  0
LINE
  8
0
 62
7
  6
CONTINUOUS
 10
536.7391865909
 20
31.6803770123
 11
536.8548114807
 21
31.6481133259
  0
LINE
  8
0
 62
7
  6
CONTINUOUS
 10
539.0516867012
 20
31.6803770123
 11
539.1673112601
 21
31.6481133259
  0
LINE
  8
0
 62
7
  6
CONTINUOUS
 10
543.3876242012
 20
30.9705758432
 11
543.2719989807
 21
31.0028395296
  0
LINE
  8
0
 62
7
  6
CONTINUOUS
 10
541.8844989807
 20
31.6803770123
 11
542.0001242012
 21
31.6481133259
  0
LINE
  8
0
 62
7
  6
CONTINUOUS
 10
543.0407492012
 20
30.9383121455
 11
543.2141867012
 21
30.873784767
  0
LINE
  8
0
 62
7
  6
CONTINUOUS
 10
542.2313739807
 20
31.7449043851
 11
542.0579364807
 21
31.809431758
  0
LINE
  8
0
 62
7
  6
CONTINUOUS
 10
543.4454364807
 20
31.4545312073
 11
543.2719989807
 21
31.5190585802
  0
LINE
  8
0
 62
7
  6
CONTINUOUS
 10
544.2548117012
 20
31.1964216708
 11
544.4282492012
 21
31.1318942979
  0
LINE
  8
0
 62
7
  6
CONTINUOUS
 10
544.6594989807
 20
31.7126406987
 11
544.4860614807
 21
31.7771680715
  0
LINE
  8
0
 62
7
  6
CONTINUOUS
 10
543.0407492012
 20
31.4545312073
 11
543.2719989807
 21
31.3577401029
  0
LINE
  8
0
 62
7
  6
CONTINUOUS
 10
544.6594989807
 20
31.1964216708
 11
544.4282492012
 21
31.29321273
  0
LINE
  8
0
 62
7
  6
CONTINUOUS
 10
543.2141867012
 20
31.583585953
 11
543.2719989807
 21
31.6481133259
  0
LINE
  8
0
 62
7
  6
CONTINUOUS
 10
533.6751239738
 20
31.7126406987
 11
533.5594989807
 21
31.6481133259
  0
LINE
  8
0
 62
7
  6
CONTINUOUS
 10
533.7907489669
 20
31.5513222666
 11
533.9641864669
 21
31.6481133259
  0
LINE
  8
0
 62
7
  6
CONTINUOUS
 10
536.1032490358
 20
31.7449043851
 11
535.9876239807
 21
31.6803770123
  0
LINE
  8
0
 62
7
  6
CONTINUOUS
 10
535.9876239807
 20
31.5513222666
 11
536.1032490358
 21
31.6158496394
  0
LINE
  8
0
 62
7
  6
CONTINUOUS
 10
535.0048114255
 20
30.9060484591
 11
535.1782489255
 21
31.0028395296
  0
LINE
  8
0
 62
7
  6
CONTINUOUS
 10
534.0219989944
 20
30.8415210777
 11
534.3688739531
 21
30.8092573885
  0
LINE
  8
0
 62
7
  6
CONTINUOUS
 10
538.1266865909
 20
30.8415210777
 11
538.3579363704
 21
30.8092573885
  0
LINE
  8
0
 62
7
  6
CONTINUOUS
 10
536.5079364807
 20
31.7126406987
 11
536.7391865909
 21
31.6803770123
  0
LINE
  8
0
 62
7
  6
CONTINUOUS
 10
538.8204365909
 20
31.7126406987
 11
539.0516867012
 21
31.6803770123
  0
LINE
  8
0
 62
7
  6
CONTINUOUS
 10
543.2719989807
 20
31.3577401029
 11
544.2548117012
 21
31.1964216708
  0
LINE
  8
0
 62
7
  6
CONTINUOUS
 10
544.4282492012
 20
31.29321273
 11
543.4454364807
 21
31.4545312073
  0
LINE
  8
0
 62
7
  6
CONTINUOUS
 10
536.9126240909
 20
31.809431758
 11
536.7391865909
 21
31.8416954444
  0
LINE
  8
0
 62
7
  6
CONTINUOUS
 10
543.2141867012
 20
30.873784767
 11
543.3876242012
 21
30.8415210777
  0
LINE
  8
0
 62
7
  6
CONTINUOUS
 10
542.0579364807
 20
31.809431758
 11
541.8844989807
 21
31.8416954444
  0
LINE
  8
0
 62
7
  6
CONTINUOUS
 10
544.3126239807
 20
31.6803770123
 11
544.4282492012
 21
31.6481133259
  0
LINE
  8
0
 62
7
  6
CONTINUOUS
 10
544.4860614807
 20
31.0673669025
 11
544.4282492012
 21
31.0028395296
  0
LINE
  8
0
 62
7
  6
CONTINUOUS
 10
543.0407492012
 20
31.7449043851
 11
542.9251239807
 21
31.6481133259
  0
LINE
  8
0
 62
7
  6
CONTINUOUS
 10
537.9532490909
 20
31.7771680715
 11
537.8376238704
 21
31.7126406987
  0
LINE
  8
0
 62
7
  6
CONTINUOUS
 10
538.0110613704
 20
31.3900038345
 11
537.8954364807
 21
31.3254764164
  0
LINE
  8
0
 62
7
  6
CONTINUOUS
 10
538.1266865909
 20
31.2286853572
 11
538.2423114807
 21
31.29321273
  0
LINE
  8
0
 62
7
  6
CONTINUOUS
 10
535.6985614255
 20
30.8092573885
 11
535.9876239807
 21
30.8092573885
  0
LINE
  8
0
 62
7
  6
CONTINUOUS
 10
537.0282489807
 20
30.8092573885
 11
537.3173113704
 21
30.8092573885
  0
LINE
  8
0
 62
7
  6
CONTINUOUS
 10
538.3579363704
 20
30.8092573885
 11
538.7048113704
 21
30.8092573885
  0
LINE
  8
0
 62
7
  6
CONTINUOUS
 10
539.3407487601
 20
30.8092573885
 11
539.6298114807
 21
30.8092573885
  0
LINE
  8
0
 62
7
  6
CONTINUOUS
 10
540.0923117012
 20
30.8092573885
 11
540.3813737601
 21
30.8092573885
  0
LINE
  8
0
 62
7
  6
CONTINUOUS
 10
540.8438739807
 20
30.8092573885
 11
541.1329367012
 21
30.8092573885
  0
LINE
  8
0
 62
7
  6
CONTINUOUS
 10
542.1735617012
 20
30.8092573885
 11
542.4626237601
 21
30.8092573885
  0
LINE
  8
0
 62
7
  6
CONTINUOUS
 10
543.7344992012
 20
30.8092573885
 11
544.0813742012
 21
30.8092573885
  0
LINE
  8
0
 62
7
  6
CONTINUOUS
 10
544.0813742012
 20
30.9383121455
 11
543.7344992012
 21
30.9383121455
  0
LINE
  8
0
 62
7
  6
CONTINUOUS
 10
538.7048113704
 20
30.9383121455
 11
538.3579363704
 21
30.9383121455
  0
LINE
  8
0
 62
7
  6
CONTINUOUS
 10
543.2141867012
 20
31.0673669025
 11
542.9251239807
 21
31.0673669025
  0
LINE
  8
0
 62
7
  6
CONTINUOUS
 10
535.2360615358
 20
31.1318942979
 11
534.9469989807
 21
31.1318942979
  0
LINE
  8
0
 62
7
  6
CONTINUOUS
 10
534.3110615082
 20
31.7126406987
 11
534.7157489531
 21
31.6803770123
  0
LINE
  8
0
 62
7
  6
CONTINUOUS
 10
534.7735614807
 20
31.809431758
 11
534.3688739531
 21
31.8416954444
  0
LINE
  8
0
 62
7
  6
CONTINUOUS
 10
543.3876242012
 20
30.8415210777
 11
543.7344992012
 21
30.8092573885
  0
LINE
  8
0
 62
7
  6
CONTINUOUS
 10
543.7344992012
 20
30.9383121455
 11
543.3876242012
 21
30.9705758432
  0
LINE
  8
0
 62
7
  6
CONTINUOUS
 10
539.1673112601
 20
31.809431758
 11
538.8204365909
 21
31.8416954444
  0
LINE
  8
0
 62
7
  6
CONTINUOUS
 10
543.9657489807
 20
31.7126406987
 11
544.3126239807
 21
31.6803770123
  0
LINE
  8
0
 62
7
  6
CONTINUOUS
 10
544.3126239807
 20
31.809431758
 11
543.9657489807
 21
31.8416954444
  0
LINE
  8
0
 62
7
  6
CONTINUOUS
 10
541.6532492012
 20
31.7126406987
 11
541.8844989807
 21
31.6803770123
  0
LINE
  8
0
 62
7
  6
CONTINUOUS
 10
544.4860614807
 20
31.7771680715
 11
544.3126239807
 21
31.809431758
  0
LINE
  8
0
 62
7
  6
CONTINUOUS
 10
544.6594989807
 20
30.9060484591
 11
544.7751235396
 21
31.0028395296
  0
LINE
  8
0
 62
7
  6
CONTINUOUS
 10
539.1673112601
 20
31.0996306115
 11
538.9938737601
 21
31.0028395296
  0
LINE
  8
0
 62
7
  6
CONTINUOUS
 10
541.2485612601
 20
31.7449043851
 11
541.1329367012
 21
31.6803770123
  0
LINE
  8
0
 62
7
  6
CONTINUOUS
 10
541.1329367012
 20
31.5513222666
 11
541.2485612601
 21
31.6158496394
  0
LINE
  8
0
 62
7
  6
CONTINUOUS
 10
533.8485614944
 20
31.7771680715
 11
533.6751239738
 21
31.7126406987
  0
LINE
  8
0
 62
7
  6
CONTINUOUS
 10
536.2766863704
 20
31.809431758
 11
536.1032490358
 21
31.7449043851
  0
LINE
  8
0
 62
7
  6
CONTINUOUS
 10
536.1032490358
 20
31.6158496394
 11
536.2766863704
 21
31.6803770123
  0
LINE
  8
0
 62
7
  6
CONTINUOUS
 10
534.8891865358
 20
31.035103216
 11
534.7157489531
 21
30.9705758432
  0
LINE
  8
0
 62
7
  6
CONTINUOUS
 10
544.3126239807
 20
30.9705758432
 11
544.0813742012
 21
30.9383121455
  0
LINE
  8
0
 62
7
  6
CONTINUOUS
 10
538.7048113704
 20
30.8092573885
 11
538.9938737601
 21
30.8415210777
  0
LINE
  8
0
 62
7
  6
CONTINUOUS
 10
544.0813742012
 20
30.8092573885
 11
544.4282492012
 21
30.8415210777
  0
LINE
  8
0
 62
7
  6
CONTINUOUS
 10
534.3688739531
 20
30.8092573885
 11
534.7735614807
 21
30.8415210777
  0
LINE
  8
0
 62
7
  6
CONTINUOUS
 10
534.7157489531
 20
30.9705758432
 11
534.3110615082
 21
30.9383121455
  0
LINE
  8
0
 62
7
  6
CONTINUOUS
 10
538.5891864807
 20
31.3577401029
 11
539.2251242012
 21
31.3577401029
  0
LINE
  8
0
 62
7
  6
CONTINUOUS
 10
539.2251242012
 20
31.4867948937
 11
538.5891864807
 21
31.4867948937
  0
LINE
  8
0
 62
7
  6
CONTINUOUS
 10
534.9469989807
 20
31.5190585802
 11
535.2360615358
 21
31.5190585802
  0
LINE
  8
0
 62
7
  6
CONTINUOUS
 10
537.7798115909
 20
31.583585953
 11
538.0688739807
 21
31.583585953
  0
LINE
  8
0
 62
7
  6
CONTINUOUS
 10
544.4860614807
 20
31.583585953
 11
544.7751235396
 21
31.583585953
  0
LINE
  8
0
 62
7
  6
CONTINUOUS
 10
538.4735615909
 20
31.7126406987
 11
538.8204365909
 21
31.7126406987
  0
LINE
  8
0
 62
7
  6
CONTINUOUS
 10
543.6188739807
 20
31.7126406987
 11
543.9657489807
 21
31.7126406987
  0
LINE
  8
0
 62
7
  6
CONTINUOUS
 10
543.9657489807
 20
31.8416954444
 11
543.6188739807
 21
31.8416954444
  0
LINE
  8
0
 62
7
  6
CONTINUOUS
 10
541.8844989807
 20
31.8416954444
 11
541.6532492012
 21
31.8416954444
  0
LINE
  8
0
 62
7
  6
CONTINUOUS
 10
541.1329367012
 20
31.8416954444
 11
540.8438739807
 21
31.8416954444
  0
LINE
  8
0
 62
7
  6
CONTINUOUS
 10
540.3813737601
 20
31.8416954444
 11
540.0923117012
 21
31.8416954444
  0
LINE
  8
0
 62
7
  6
CONTINUOUS
 10
538.8204365909
 20
31.8416954444
 11
538.4735615909
 21
31.8416954444
  0
LINE
  8
0
 62
7
  6
CONTINUOUS
 10
536.7391865909
 20
31.8416954444
 11
536.5079364807
 21
31.8416954444
  0
LINE
  8
0
 62
7
  6
CONTINUOUS
 10
540.0923117012
 20
32.164332399
 11
540.3813737601
 21
32.164332399
  0
LINE
  8
0
 62
7
  6
CONTINUOUS
 10
540.3813737601
 20
32.3256508311
 11
540.0923117012
 21
32.3256508311
  0
LINE
  8
0
 62
7
  6
CONTINUOUS
 10
535.9876239807
 20
32.3256508311
 11
535.6985614255
 21
32.3256508311
  0
LINE
  8
0
 62
7
  6
CONTINUOUS
 10
535.025405743
 20
32.612536077
 11
535.4379770916
 21
32.612536077
  0
LINE
  8
0
 62
7
  6
CONTINUOUS
 10
536.6647500053
 20
32.612536077
 11
538.0581926282
 21
32.612536077
  0
LINE
  8
0
 62
7
  6
CONTINUOUS
 10
538.3860614807
 20
32.612536077
 11
539.7795041036
 21
32.612536077
  0
LINE
  8
0
 62
7
  6
CONTINUOUS
 10
541.6647500053
 20
32.612536077
 11
543.0581926282
 21
32.612536077
  0
LINE
  8
0
 62
7
  6
CONTINUOUS
 10
543.3860614807
 20
32.612536077
 11
544.7795041036
 21
32.612536077
  0
LINE
  8
0
 62
7
  6
CONTINUOUS
 10
541.4219987601
 20
31.809431758
 11
541.2485612601
 21
31.7449043851
  0
LINE
  8
0
 62
7
  6
CONTINUOUS
 10
538.9938737601
 20
30.8415210777
 11
539.1673112601
 21
30.9060484591
  0
LINE
  8
0
 62
7
  6
CONTINUOUS
 10
544.4282492012
 20
30.8415210777
 11
544.6594989807
 21
30.9060484591
  0
LINE
  8
0
 62
7
  6
CONTINUOUS
 10
544.4282492012
 20
31.0028395296
 11
544.3126239807
 21
30.9705758432
  0
LINE
  8
0
 62
7
  6
CONTINUOUS
 10
543.3876242012
 20
31.6803770123
 11
543.6188739807
 21
31.7126406987
  0
LINE
  8
0
 62
7
  6
CONTINUOUS
 10
541.4219987601
 20
31.6803770123
 11
541.6532492012
 21
31.7126406987
  0
LINE
  8
0
 62
7
  6
CONTINUOUS
 10
538.3579363704
 20
31.3254764164
 11
538.5891864807
 21
31.3577401029
  0
LINE
  8
0
 62
7
  6
CONTINUOUS
 10
541.6532492012
 20
31.8416954444
 11
541.4219987601
 21
31.809431758
  0
LINE
  8
0
 62
7
  6
CONTINUOUS
 10
538.2423114807
 20
31.6803770123
 11
538.4735615909
 21
31.7126406987
  0
LINE
  8
0
 62
7
  6
CONTINUOUS
 10
543.6188739807
 20
31.8416954444
 11
543.2719989807
 21
31.809431758
  0
LINE
  8
0
 62
7
  6
CONTINUOUS
 10
538.5891864807
 20
31.4867948937
 11
538.2423114807
 21
31.4545312073
  0
LINE
  8
0
 62
7
  6
CONTINUOUS
 10
534.3688739531
 20
31.8416954444
 11
534.0219989944
 21
31.809431758
  0
LINE
  8
0
 62
7
  6
CONTINUOUS
 10
538.4735615909
 20
31.8416954444
 11
538.0688739807
 21
31.809431758
  0
LINE
  8
0
 62
7
  6
CONTINUOUS
 10
535.8450778741
 20
33.7600770606
 11
535.1893401692
 21
33.7600770606
  0
LINE
  8
0
 62
7
  6
CONTINUOUS
 10
541.2485612601
 20
31.6158496394
 11
541.4219987601
 21
31.6803770123
  0
LINE
  8
0
 62
7
  6
CONTINUOUS
 10
543.2719989807
 20
31.6481133259
 11
543.3876242012
 21
31.6803770123
  0
LINE
  8
0
 62
7
  6
CONTINUOUS
 10
543.2719989807
 20
31.809431758
 11
543.0407492012
 21
31.7449043851
  0
LINE
  8
0
 62
7
  6
CONTINUOUS
 10
538.9938737601
 20
31.0028395296
 11
538.7048113704
 21
30.9383121455
  0
LINE
  8
0
 62
7
  6
CONTINUOUS
 10
536.2766863704
 20
31.6803770123
 11
536.5079364807
 21
31.7126406987
  0
LINE
  8
0
 62
7
  6
CONTINUOUS
 10
536.5079364807
 20
31.8416954444
 11
536.2766863704
 21
31.809431758
  0
LINE
  8
0
 62
7
  6
CONTINUOUS
 10
534.0798114807
 20
31.6803770123
 11
534.3110615082
 21
31.7126406987
  0
LINE
  8
0
 62
7
  6
CONTINUOUS
 10
540.5991762348
 20
35.2354868967
 11
541.2549139397
 21
35.2354868967
  0
LINE
  8
0
 62
7
  6
CONTINUOUS
 10
538.2423114807
 20
31.29321273
 11
538.3579363704
 21
31.3254764164
  0
LINE
  8
0
 62
7
  6
CONTINUOUS
 10
538.2423114807
 20
31.4545312073
 11
538.0110613704
 21
31.3900038345
  0
LINE
  8
0
 62
7
  6
CONTINUOUS
 10
538.1266865909
 20
31.6481133259
 11
538.2423114807
 21
31.6803770123
  0
LINE
  8
0
 62
7
  6
CONTINUOUS
 10
534.7735614807
 20
30.8415210777
 11
535.0048114255
 21
30.9060484591
  0
LINE
  8
0
 62
7
  6
CONTINUOUS
 10
538.0688739807
 20
31.809431758
 11
537.9532490909
 21
31.7771680715
  0
LINE
  8
0
 62
7
  6
CONTINUOUS
 10
534.0219989944
 20
31.809431758
 11
533.8485614944
 21
31.7771680715
  0
LINE
  8
0
 62
7
  6
CONTINUOUS
 10
544.7795041036
 20
36.3830278803
 11
543.3860614807
 21
36.3830278803
  0
LINE
  8
0
 62
7
  6
CONTINUOUS
 10
541.4188483659
 20
36.3830278803
 11
541.0062770173
 21
36.3830278803
  0
LINE
  8
0
 62
7
  6
CONTINUOUS
 10
539.7795041036
 20
36.3830278803
 11
538.3860614807
 21
36.3830278803
  0
LINE
  8
0
 62
7
  6
CONTINUOUS
 10
538.0581926282
 20
36.3830278803
 11
536.6647500053
 21
36.3830278803
  0
LINE
  8
0
 62
7
  6
CONTINUOUS
 10
534.7795041036
 20
36.3830278803
 11
533.3860614807
 21
36.3830278803
  0
LINE
  8
0
 62
7
  6
CONTINUOUS
 10
533.9641864669
 20
31.6481133259
 11
534.0798114807
 21
31.6803770123
  0
CIRCLE
  8
0
 62
7
  6
CONTINUOUS
 10
544.0827827921
 20
38.7190934541
 40
2.0901639344
  0
ARC
  8
0
 62
7
  6
CONTINUOUS
 10
535.025405743
 20
34.2518803393
 40
1.6393442623
 50
180.0
 51
270.0
  0
ARC
  8
0
 62
7
  6
CONTINUOUS
 10
541.4188483659
 20
34.743683618
 40
1.6393442623
 50
0.0
 51
90.0
  0
ARC
  8
0
 62
7
  6
CONTINUOUS
 10
535.4379770916
 20
34.0879459131
 40
1.4754098361
 50
270.0
 51
326.2510114041
  0
ARC
  8
0
 62
7
  6
CONTINUOUS
 10
541.0062770173
 20
34.9076180442
 40
1.4754098361
 50
90.0
 51
146.2510114041
  0
ARC
  8
0
 62
7
  6
CONTINUOUS
 10
535.8450778741
 20
34.5797491918
 40
0.8196721311
 50
270.0
 51
360.0
  0
ARC
  8
0
 62
7
  6
CONTINUOUS
 10
540.5991762348
 20
34.4158147655
 40
0.8196721311
 50
90.0
 51
180.0
  0
ARC
  8
0
 62
7
  6
CONTINUOUS
 10
535.1893401692
 20
34.1699131262
 40
0.4098360656
 50
180.0
 51
270.0
  0
ARC
  8
0
 62
7
  6
CONTINUOUS
 10
541.2549139397
 20
34.8256508311
 40
0.4098360656
 50
0.0
 51
90.0
  0
SOLID
  8
0
 62
7
  6
CONTINUOUS
 10
540.0923117012
 20
32.1643327593
 11
540.0923117012
 21
32.3256512429
 12
540.3813737601
 22
32.1643327593
 13
540.3813737601
 23
32.3256512429
  0
SOLID
  8
0
 62
7
  6
CONTINUOUS
 10
534.3688739531
 20
31.841695792
 11
534.7735614807
 21
31.8094316148
 12
534.0219989944
 22
31.8094316148
 13
534.0219989944
 23
31.8094316148
  0
SOLID
  8
0
 62
7
  6
CONTINUOUS
 10
533.8485614944
 20
31.7771687019
 11
534.0219989944
 21
31.8094316148
 12
534.7735614807
 22
31.8094316148
 13
534.7735614807
 23
31.8094316148
  0
SOLID
  8
0
 62
7
  6
CONTINUOUS
 10
534.7735614807
 20
31.8094316148
 11
535.0048114255
 21
31.7449043986
 12
533.8485614944
 22
31.7771687019
 13
533.8485614944
 23
31.7771687019
  0
SOLID
  8
0
 62
7
  6
CONTINUOUS
 10
533.6751239738
 20
31.712640202
 11
533.8485614944
 21
31.7771687019
 12
535.0048114255
 22
31.7449043986
 13
535.0048114255
 23
31.7449043986
  0
SOLID
  8
0
 62
7
  6
CONTINUOUS
 10
533.6751239738
 20
31.712640202
 11
535.0048114255
 21
31.7449043986
 12
534.3110615082
 22
31.712640202
 13
534.3110615082
 23
31.712640202
  0
SOLID
  8
0
 62
7
  6
CONTINUOUS
 10
534.3110615082
 20
31.712640202
 11
535.0048114255
 21
31.7449043986
 12
534.7157489531
 22
31.6803773084
 13
534.7157489531
 23
31.6803773084
  0
SOLID
  8
0
 62
7
  6
CONTINUOUS
 10
535.0048114255
 20
31.7449043986
 11
535.1782489255
 21
31.6481130052
 12
534.7157489531
 22
31.6803773084
 13
534.7157489531
 23
31.6803773084
  0
SOLID
  8
0
 62
7
  6
CONTINUOUS
 10
534.8891865358
 20
31.6158502183
 11
534.7157489531
 21
31.6803773084
 12
535.1782489255
 22
31.6481130052
 13
535.1782489255
 23
31.6481130052
  0
SOLID
  8
0
 62
7
  6
CONTINUOUS
 10
534.8891865358
 20
31.6158502183
 11
535.1782489255
 21
31.6481130052
 12
534.9469989807
 22
31.5190586669
 13
534.9469989807
 23
31.5190586669
  0
SOLID
  8
0
 62
7
  6
CONTINUOUS
 10
535.1782489255
 20
31.6481130052
 11
535.2360615358
 21
31.5190586669
 12
534.9469989807
 22
31.5190586669
 13
534.9469989807
 23
31.5190586669
  0
SOLID
  8
0
 62
7
  6
CONTINUOUS
 10
536.2766863704
 20
31.8094307377
 11
536.5079364807
 21
31.841695041
 12
536.7391865909
 22
31.841695041
 13
536.7391865909
 23
31.841695041
  0
SOLID
  8
0
 62
7
  6
CONTINUOUS
 10
536.7391865909
 20
31.841695041
 11
536.9126240909
 21
31.8094307377
 12
536.2766863704
 22
31.8094307377
 13
536.2766863704
 23
31.8094307377
  0
SOLID
  8
0
 62
7
  6
CONTINUOUS
 10
536.1032490358
 20
31.7449036475
 11
536.2766863704
 21
31.8094307377
 12
536.9126240909
 22
31.8094307377
 13
536.9126240909
 23
31.8094307377
  0
SOLID
  8
0
 62
7
  6
CONTINUOUS
 10
536.9126240909
 20
31.8094307377
 11
537.0860615909
 21
31.7449036475
 12
536.1032490358
 22
31.7449036475
 13
536.1032490358
 23
31.7449036475
  0
SOLID
  8
0
 62
7
  6
CONTINUOUS
 10
537.0860615909
 20
31.7449036475
 11
536.5079364807
 21
31.7126400953
 12
536.1032490358
 22
31.7449036475
 13
536.1032490358
 23
31.7449036475
  0
SOLID
  8
0
 62
7
  6
CONTINUOUS
 10
535.9876239807
 20
31.6803765574
 11
536.1032490358
 21
31.7449036475
 12
536.5079364807
 22
31.7126400953
 13
536.5079364807
 23
31.7126400953
  0
SOLID
  8
0
 62
7
  6
CONTINUOUS
 10
536.5079364807
 20
31.7126400953
 11
536.2766863704
 21
31.6803765574
 12
535.9876239807
 22
31.6803765574
 13
535.9876239807
 23
31.6803765574
  0
SOLID
  8
0
 62
7
  6
CONTINUOUS
 10
536.5079364807
 20
31.7126400953
 11
537.0860615909
 21
31.7449036475
 12
536.7391865909
 22
31.6803765574
 13
536.7391865909
 23
31.6803765574
  0
SOLID
  8
0
 62
7
  6
CONTINUOUS
 10
537.0860615909
 20
31.7449036475
 11
537.2016864807
 21
31.6803765574
 12
536.7391865909
 22
31.6803765574
 13
536.7391865909
 23
31.6803765574
  0
SOLID
  8
0
 62
7
  6
CONTINUOUS
 10
536.8548114807
 20
31.6481130052
 11
536.7391865909
 21
31.6803765574
 12
537.2016864807
 22
31.6803765574
 13
537.2016864807
 23
31.6803765574
  0
SOLID
  8
0
 62
7
  6
CONTINUOUS
 10
537.2016864807
 20
31.6803765574
 11
537.2594990909
 21
31.6158494672
 12
536.8548114807
 22
31.6481130052
 13
536.8548114807
 23
31.6481130052
  0
SOLID
  8
0
 62
7
  6
CONTINUOUS
 10
536.9704363704
 20
31.583585915
 11
536.8548114807
 21
31.6481130052
 12
537.2594990909
 22
31.6158494672
 13
537.2594990909
 23
31.6158494672
  0
SOLID
  8
0
 62
7
  6
CONTINUOUS
 10
536.9704363704
 20
31.583585915
 11
537.2594990909
 21
31.6158494672
 12
537.0282489807
 22
31.4545309836
 13
537.0282489807
 23
31.4545309836
  0
SOLID
  8
0
 62
7
  6
CONTINUOUS
 10
537.2594990909
 20
31.6158494672
 11
537.3173113704
 21
31.4545309836
 12
537.0282489807
 22
31.4545309836
 13
537.0282489807
 23
31.4545309836
  0
SOLID
  8
0
 62
7
  6
CONTINUOUS
 10
536.2766863704
 20
31.6803765574
 11
536.1032490358
 21
31.6158494672
 12
535.9876239807
 22
31.6803765574
 13
535.9876239807
 23
31.6803765574
  0
SOLID
  8
0
 62
7
  6
CONTINUOUS
 10
536.1032490358
 20
31.6158494672
 11
535.9876239807
 21
31.5513216117
 12
535.9876239807
 22
31.6803765574
 13
535.9876239807
 23
31.6803765574
  0
SOLID
  8
0
 62
7
  6
CONTINUOUS
 10
535.9876239807
 20
31.5513216117
 11
535.6985614255
 21
30.8092570492
 12
535.9876239807
 22
31.6803765574
 13
535.9876239807
 23
31.6803765574
  0
SOLID
  8
0
 62
7
  6
CONTINUOUS
 10
535.9876239807
 20
31.6803765574
 11
535.6985614255
 21
30.8092570492
 12
535.9876239807
 22
32.3256504918
 13
535.9876239807
 23
32.3256504918
  0
SOLID
  8
0
 62
7
  6
CONTINUOUS
 10
535.6985614255
 20
30.8092570492
 11
535.6985614255
 21
32.3256504918
 12
535.9876239807
 22
32.3256504918
 13
535.9876239807
 23
32.3256504918
  0
SOLID
  8
0
 62
7
  6
CONTINUOUS
 10
535.9876239807
 20
31.5513216117
 11
535.9876239807
 21
30.8092570492
 12
535.6985614255
 22
30.8092570492
 13
535.6985614255
 23
30.8092570492
  0
SOLID
  8
0
 62
7
  6
CONTINUOUS
 10
537.0282489807
 20
30.8092570492
 11
537.0282489807
 21
31.4545309836
 12
537.3173113704
 22
31.4545309836
 13
537.3173113704
 23
31.4545309836
  0
SOLID
  8
0
 62
7
  6
CONTINUOUS
 10
537.3173113704
 20
31.4545309836
 11
537.3173113704
 21
30.8092570492
 12
537.0282489807
 22
30.8092570492
 13
537.0282489807
 23
30.8092570492
  0
SOLID
  8
0
 62
7
  6
CONTINUOUS
 10
538.0688739807
 20
31.809431823
 11
538.4735615909
 21
31.8416958158
 12
538.8204365909
 22
31.8416958158
 13
538.8204365909
 23
31.8416958158
  0
SOLID
  8
0
 62
7
  6
CONTINUOUS
 10
538.8204365909
 20
31.8416958158
 11
539.1673112601
 21
31.809431823
 12
538.0688739807
 22
31.809431823
 13
538.0688739807
 23
31.809431823
  0
SOLID
  8
0
 62
7
  6
CONTINUOUS
 10
537.9532490909
 20
31.7771687019
 11
538.0688739807
 21
31.809431823
 12
539.1673112601
 22
31.809431823
 13
539.1673112601
 23
31.809431823
  0
SOLID
  8
0
 62
7
  6
CONTINUOUS
 10
539.1673112601
 20
31.809431823
 11
539.3407487601
 21
31.7449043986
 12
537.9532490909
 22
31.7771687019
 13
537.9532490909
 23
31.7771687019
  0
SOLID
  8
0
 62
7
  6
CONTINUOUS
 10
537.8376238704
 20
31.7126398448
 11
537.9532490909
 21
31.7771687019
 12
539.3407487601
 22
31.7449043986
 13
539.3407487601
 23
31.7449043986
  0
SOLID
  8
0
 62
7
  6
CONTINUOUS
 10
537.8376238704
 20
31.7126398448
 11
539.3407487601
 21
31.7449043986
 12
538.4735615909
 22
31.7126398448
 13
538.4735615909
 23
31.7126398448
  0
SOLID
  8
0
 62
7
  6
CONTINUOUS
 10
538.4735615909
 20
31.7126398448
 11
539.3407487601
 21
31.7449043986
 12
538.8204365909
 22
31.7126398448
 13
538.8204365909
 23
31.7126398448
  0
SOLID
  8
0
 62
7
  6
CONTINUOUS
 10
538.8204365909
 20
31.7126398448
 11
539.3407487601
 21
31.7449043986
 12
539.0516867012
 22
31.6803774007
 13
539.0516867012
 23
31.6803774007
  0
SOLID
  8
0
 62
7
  6
CONTINUOUS
 10
539.3407487601
 20
31.7449043986
 11
539.4563739807
 21
31.6803774007
 12
539.0516867012
 22
31.6803774007
 13
539.0516867012
 23
31.6803774007
  0
SOLID
  8
0
 62
7
  6
CONTINUOUS
 10
537.7798115909
 20
31.6481126336
 11
537.8376238704
 21
31.7126398448
 12
538.4735615909
 22
31.7126398448
 13
538.4735615909
 23
31.7126398448
  0
SOLID
  8
0
 62
7
  6
CONTINUOUS
 10
539.1673112601
 20
31.6481126336
 11
539.0516867012
 21
31.6803774007
 12
539.4563739807
 22
31.6803774007
 13
539.4563739807
 23
31.6803774007
  0
SOLID
  8
0
 62
7
  6
CONTINUOUS
 10
539.1673112601
 20
31.6481126336
 11
539.4563739807
 21
31.6803774007
 12
539.2251242012
 22
31.5835861968
 13
539.2251242012
 23
31.5835861968
  0
SOLID
  8
0
 62
7
  6
CONTINUOUS
 10
539.4563739807
 20
31.6803774007
 11
539.5141862601
 21
31.5835861968
 12
539.2251242012
 22
31.5835861968
 13
539.2251242012
 23
31.5835861968
  0
SOLID
  8
0
 62
7
  6
CONTINUOUS
 10
539.2251242012
 20
31.4867945216
 11
539.2251242012
 21
31.5835861968
 12
539.5141862601
 22
31.5835861968
 13
539.5141862601
 23
31.5835861968
  0
SOLID
  8
0
 62
7
  6
CONTINUOUS
 10
539.2251242012
 20
31.4867945216
 11
539.5141862601
 21
31.5835861968
 12
539.2251242012
 22
31.3577403412
 13
539.2251242012
 23
31.3577403412
  0
SOLID
  8
0
 62
7
  6
CONTINUOUS
 10
539.2251242012
 20
31.3577403412
 11
539.5141862601
 21
31.5835861968
 12
539.2251242012
 22
31.1641579843
 13
539.2251242012
 23
31.1641579843
  0
SOLID
  8
0
 62
7
  6
CONTINUOUS
 10
539.5141862601
 20
31.5835861968
 11
539.5141862601
 21
31.0673661609
 12
539.2251242012
 22
31.1641579843
 13
539.2251242012
 23
31.1641579843
  0
SOLID
  8
0
 62
7
  6
CONTINUOUS
 10
541.4219987601
 20
31.8094310465
 11
541.6532492012
 21
31.8416957661
 12
541.8844989807
 22
31.8416957661
 13
541.8844989807
 23
31.8416957661
  0
SOLID
  8
0
 62
7
  6
CONTINUOUS
 10
541.8844989807
 20
31.8416957661
 11
542.0579364807
 21
31.8094310465
 12
541.4219987601
 22
31.8094310465
 13
541.4219987601
 23
31.8094310465
  0
SOLID
  8
0
 62
7
  6
CONTINUOUS
 10
541.2485612601
 20
31.7449047044
 11
541.4219987601
 21
31.8094310465
 12
542.0579364807
 22
31.8094310465
 13
542.0579364807
 23
31.8094310465
  0
SOLID
  8
0
 62
7
  6
CONTINUOUS
 10
542.0579364807
 20
31.8094310465
 11
542.2313739807
 21
31.7449047044
 12
541.2485612601
 22
31.7449047044
 13
541.2485612601
 23
31.7449047044
  0
SOLID
  8
0
 62
7
  6
CONTINUOUS
 10
542.2313739807
 20
31.7449047044
 11
541.6532492012
 21
31.7126400953
 12
541.2485612601
 22
31.7449047044
 13
541.2485612601
 23
31.7449047044
  0
SOLID
  8
0
 62
7
  6
CONTINUOUS
 10
541.1329367012
 20
31.6803773299
 11
541.2485612601
 21
31.7449047044
 12
541.6532492012
 22
31.7126400953
 13
541.6532492012
 23
31.7126400953
  0
SOLID
  8
0
 62
7
  6
CONTINUOUS
 10
541.6532492012
 20
31.7126400953
 11
541.4219987601
 21
31.6803773299
 12
541.1329367012
 22
31.6803773299
 13
541.1329367012
 23
31.6803773299
  0
SOLID
  8
0
 62
7
  6
CONTINUOUS
 10
541.6532492012
 20
31.7126400953
 11
542.2313739807
 21
31.7449047044
 12
541.8844989807
 22
31.6803773299
 13
541.8844989807
 23
31.6803773299
  0
SOLID
  8
0
 62
7
  6
CONTINUOUS
 10
542.2313739807
 20
31.7449047044
 11
542.3469992012
 21
31.6803773299
 12
541.8844989807
 22
31.6803773299
 13
541.8844989807
 23
31.6803773299
  0
SOLID
  8
0
 62
7
  6
CONTINUOUS
 10
542.0001242012
 20
31.6481130052
 11
541.8844989807
 21
31.6803773299
 12
542.3469992012
 22
31.6803773299
 13
542.3469992012
 23
31.6803773299
  0
SOLID
  8
0
 62
7
  6
CONTINUOUS
 10
542.0001242012
 20
31.6481130052
 11
542.3469992012
 21
31.6803773299
 12
542.1157487601
 22
31.5835862682
 13
542.1157487601
 23
31.5835862682
  0
SOLID
  8
0
 62
7
  6
CONTINUOUS
 10
542.3469992012
 20
31.6803773299
 11
542.4048114807
 21
31.5835862682
 12
542.1157487601
 22
31.5835862682
 13
542.1157487601
 23
31.5835862682
  0
SOLID
  8
0
 62
7
  6
CONTINUOUS
 10
542.1735617012
 20
31.422267832
 11
542.1157487601
 21
31.5835862682
 12
542.4048114807
 22
31.5835862682
 13
542.4048114807
 23
31.5835862682
  0
SOLID
  8
0
 62
7
  6
CONTINUOUS
 10
542.4048114807
 20
31.5835862682
 11
542.4626237601
 21
31.422267832
 12
542.1735617012
 22
31.422267832
 13
542.1735617012
 23
31.422267832
  0
SOLID
  8
0
 62
7
  6
CONTINUOUS
 10
541.4219987601
 20
31.6803773299
 11
541.2485612601
 21
31.6158502183
 12
541.1329367012
 22
31.6803773299
 13
541.1329367012
 23
31.6803773299
  0
SOLID
  8
0
 62
7
  6
CONTINUOUS
 10
541.2485612601
 20
31.6158502183
 11
541.1329367012
 21
31.5513216117
 12
541.1329367012
 22
31.6803773299
 13
541.1329367012
 23
31.6803773299
  0
SOLID
  8
0
 62
7
  6
CONTINUOUS
 10
541.1329367012
 20
31.5513216117
 11
540.8438739807
 21
30.8092577743
 12
541.1329367012
 22
31.6803773299
 13
541.1329367012
 23
31.6803773299
  0
SOLID
  8
0
 62
7
  6
CONTINUOUS
 10
541.1329367012
 20
31.6803773299
 11
540.8438739807
 21
30.8092577743
 12
541.1329367012
 22
31.8416957661
 13
541.1329367012
 23
31.8416957661
  0
SOLID
  8
0
 62
7
  6
CONTINUOUS
 10
540.8438739807
 20
30.8092577743
 11
540.8438739807
 21
31.8416957661
 12
541.1329367012
 22
31.8416957661
 13
541.1329367012
 23
31.8416957661
  0
SOLID
  8
0
 62
7
  6
CONTINUOUS
 10
541.1329367012
 20
31.5513216117
 11
541.1329367012
 21
30.8092577743
 12
540.8438739807
 22
30.8092577743
 13
540.8438739807
 23
30.8092577743
  0
SOLID
  8
0
 62
7
  6
CONTINUOUS
 10
542.1735617012
 20
30.8092577743
 11
542.1735617012
 21
31.422267832
 12
542.4626237601
 22
31.422267832
 13
542.4626237601
 23
31.422267832
  0
SOLID
  8
0
 62
7
  6
CONTINUOUS
 10
542.4626237601
 20
31.422267832
 11
542.4626237601
 21
30.8092577743
 12
542.1735617012
 22
30.8092577743
 13
542.1735617012
 23
30.8092577743
  0
SOLID
  8
0
 62
7
  6
CONTINUOUS
 10
543.2719989807
 20
31.8094314924
 11
543.6188739807
 21
31.8416958387
 12
543.9657489807
 22
31.8416958387
 13
543.9657489807
 23
31.8416958387
  0
SOLID
  8
0
 62
7
  6
CONTINUOUS
 10
543.9657489807
 20
31.8416958387
 11
544.3126239807
 21
31.8094314924
 12
543.2719989807
 22
31.8094314924
 13
543.2719989807
 23
31.8094314924
  0
SOLID
  8
0
 62
7
  6
CONTINUOUS
 10
543.0407492012
 20
31.7449043986
 11
543.2719989807
 21
31.8094314924
 12
544.3126239807
 22
31.8094314924
 13
544.3126239807
 23
31.8094314924
  0
SOLID
  8
0
 62
7
  6
CONTINUOUS
 10
543.0407492012
 20
31.7449043986
 11
544.3126239807
 21
31.8094314888
 12
544.4860614807
 22
31.7771687019
 13
544.4860614807
 23
31.7771687019
  0
SOLID
  8
0
 62
7
  6
CONTINUOUS
 10
543.0407492012
 20
31.7449043986
 11
544.4860614807
 21
31.7771687019
 12
543.6188739807
 22
31.7126401399
 13
543.6188739807
 23
31.7126401399
  0
SOLID
  8
0
 62
7
  6
CONTINUOUS
 10
543.6188739807
 20
31.7126401399
 11
544.4860614807
 21
31.7771687019
 12
543.9657489807
 22
31.7126401399
 13
543.9657489807
 23
31.7126401399
  0
SOLID
  8
0
 62
7
  6
CONTINUOUS
 10
544.4860614807
 20
31.7771687019
 11
544.6594989807
 21
31.7126401399
 12
543.9657489807
 22
31.7126401399
 13
543.9657489807
 23
31.7126401399
  0
SOLID
  8
0
 62
7
  6
CONTINUOUS
 10
544.3126239807
 20
31.6803773084
 11
543.9657489807
 21
31.7126401399
 12
544.6594989807
 22
31.7126401399
 13
544.6594989807
 23
31.7126401399
  0
SOLID
  8
0
 62
7
  6
CONTINUOUS
 10
542.9251239807
 20
31.6481128977
 11
543.0407492012
 21
31.7449043986
 12
543.6188739807
 22
31.7126401399
 13
543.6188739807
 23
31.7126401399
  0
SOLID
  8
0
 62
7
  6
CONTINUOUS
 10
544.3126239807
 20
31.6803773084
 11
544.6594989807
 21
31.7126401399
 12
544.4282492012
 22
31.6481128977
 13
544.4282492012
 23
31.6481128977
  0
SOLID
  8
0
 62
7
  6
CONTINUOUS
 10
544.4282492012
 20
31.6481128977
 11
544.6594989807
 21
31.7126401399
 12
544.4860614807
 22
31.5835858812
 13
544.4860614807
 23
31.5835858812
  0
SOLID
  8
0
 62
7
  6
CONTINUOUS
 10
544.6594989807
 20
31.7126401399
 11
544.7751235396
 21
31.5835858812
 12
544.4860614807
 22
31.5835858812
 13
544.4860614807
 23
31.5835858812
  0
SOLID
  8
0
 62
7
  6
CONTINUOUS
 10
534.0798114807
 20
31.6803773084
 11
533.5594989807
 21
31.6481129264
 12
534.3110615082
 22
31.7126401456
 13
534.3110615082
 23
31.7126401456
  0
SOLID
  8
0
 62
7
  6
CONTINUOUS
 10
533.5594989807
 20
31.6481129264
 11
533.6751239738
 21
31.7126401456
 12
534.3110615082
 22
31.7126401456
 13
534.3110615082
 23
31.7126401456
  0
SOLID
  8
0
 62
7
  6
CONTINUOUS
 10
534.0798114807
 20
31.6803773084
 11
533.9641864669
 21
31.6481129264
 12
533.5594989807
 22
31.6481129264
 13
533.5594989807
 23
31.6481129264
  0
SOLID
  8
0
 62
7
  6
CONTINUOUS
 10
533.4438739824
 20
31.5190588248
 11
533.5594989807
 21
31.6481129264
 12
533.9641864669
 22
31.6481129264
 13
533.9641864669
 23
31.6481129264
  0
SOLID
  8
0
 62
7
  6
CONTINUOUS
 10
537.7798115909
 20
31.6481130555
 11
538.4735615909
 21
31.7126400953
 12
538.2423114807
 22
31.6803773084
 13
538.2423114807
 23
31.6803773084
  0
SOLID
  8
0
 62
7
  6
CONTINUOUS
 10
538.2423114807
 20
31.6803773084
 11
538.1266865909
 21
31.6481130555
 12
537.7798115909
 22
31.6481130555
 13
537.7798115909
 23
31.6481130555
  0
SOLID
  8
0
 62
7
  6
CONTINUOUS
 10
537.7798115909
 20
31.5835859653
 11
537.7798115909
 21
31.6481130555
 12
538.1266865909
 22
31.6481130555
 13
538.1266865909
 23
31.6481130555
  0
SOLID
  8
0
 62
7
  6
CONTINUOUS
 10
538.1266865909
 20
31.6481130555
 11
538.0688739807
 21
31.5835859653
 12
537.7798115909
 22
31.5835859653
 13
537.7798115909
 23
31.5835859653
  0
SOLID
  8
0
 62
7
  6
CONTINUOUS
 10
542.9251239807
 20
31.6481130555
 11
543.6188739807
 21
31.7126400953
 12
543.3876242012
 22
31.6803773084
 13
543.3876242012
 23
31.6803773084
  0
SOLID
  8
0
 62
7
  6
CONTINUOUS
 10
543.3876242012
 20
31.6803773084
 11
543.2719989807
 21
31.6481130555
 12
542.9251239807
 22
31.6481130555
 13
542.9251239807
 23
31.6481130555
  0
SOLID
  8
0
 62
7
  6
CONTINUOUS
 10
542.9251239807
 20
31.5835859653
 11
542.9251239807
 21
31.6481130555
 12
543.2719989807
 22
31.6481130555
 13
543.2719989807
 23
31.6481130555
  0
SOLID
  8
0
 62
7
  6
CONTINUOUS
 10
543.2719989807
 20
31.6481130555
 11
543.2141867012
 21
31.5835859653
 12
542.9251239807
 22
31.5835859653
 13
542.9251239807
 23
31.5835859653
  0
SOLID
  8
0
 62
7
  6
CONTINUOUS
 10
543.0407492012
 20
31.4545317347
 11
542.9251239807
 21
31.5835859653
 12
543.2141867012
 22
31.5835859653
 13
543.2141867012
 23
31.5835859653
  0
SOLID
  8
0
 62
7
  6
CONTINUOUS
 10
533.4438739824
 20
31.5190588248
 11
533.9641864669
 21
31.6481130052
 12
533.7907489669
 22
31.5513216117
 13
533.7907489669
 23
31.5513216117
  0
SOLID
  8
0
 62
7
  6
CONTINUOUS
 10
533.7907489669
 20
31.5513216117
 11
533.7329364807
 21
31.4867945216
 12
533.4438739824
 22
31.5190588248
 13
533.4438739824
 23
31.5190588248
  0
SOLID
  8
0
 62
7
  6
CONTINUOUS
 10
533.3860614807
 20
31.325476038
 11
533.4438739824
 21
31.5190588248
 12
533.7329364807
 22
31.4867945216
 13
533.7329364807
 23
31.4867945216
  0
SOLID
  8
0
 62
7
  6
CONTINUOUS
 10
538.2423114807
 20
31.4545317347
 11
538.5891864807
 21
31.4867945557
 12
539.2251242012
 22
31.4867945557
 13
539.2251242012
 23
31.4867945557
  0
SOLID
  8
0
 62
7
  6
CONTINUOUS
 10
538.2423114807
 20
31.4545317347
 11
539.2251242012
 21
31.4867945557
 12
538.0110613704
 22
31.3900038345
 13
538.0110613704
 23
31.3900038345
  0
SOLID
  8
0
 62
7
  6
CONTINUOUS
 10
538.0110613704
 20
31.3900038345
 11
539.2251242012
 21
31.4867945557
 12
538.5891864807
 22
31.3577403754
 13
538.5891864807
 23
31.3577403754
  0
SOLID
  8
0
 62
7
  6
CONTINUOUS
 10
539.2251242012
 20
31.4867945557
 11
539.2251242012
 21
31.3577403754
 12
538.5891864807
 22
31.3577403754
 13
538.5891864807
 23
31.3577403754
  0
SOLID
  8
0
 62
7
  6
CONTINUOUS
 10
543.0407492012
 20
31.4545313481
 11
543.2141867012
 21
31.583585915
 12
543.2719989807
 22
31.5190588248
 13
543.2719989807
 23
31.5190588248
  0
SOLID
  8
0
 62
7
  6
CONTINUOUS
 10
543.2719989807
 20
31.5190588248
 11
543.4454364807
 21
31.4545313481
 12
543.0407492012
 22
31.4545313481
 13
543.0407492012
 23
31.4545313481
  0
SOLID
  8
0
 62
7
  6
CONTINUOUS
 10
543.2719989807
 20
31.3577403412
 11
543.0407492012
 21
31.4545313481
 12
543.4454364807
 22
31.4545313481
 13
543.4454364807
 23
31.4545313481
  0
SOLID
  8
0
 62
7
  6
CONTINUOUS
 10
543.4454364807
 20
31.4545313481
 11
544.4282492012
 21
31.2932132511
 12
543.2719989807
 22
31.3577403412
 13
543.2719989807
 23
31.3577403412
  0
SOLID
  8
0
 62
7
  6
CONTINUOUS
 10
544.2548117012
 20
31.1964222346
 11
543.2719989807
 21
31.3577403412
 12
544.4282492012
 22
31.2932132511
 13
544.4282492012
 23
31.2932132511
  0
SOLID
  8
0
 62
7
  6
CONTINUOUS
 10
544.4282492012
 20
31.2932132511
 11
544.6594989807
 21
31.1964222346
 12
544.2548117012
 22
31.1964222346
 13
544.2548117012
 23
31.1964222346
  0
SOLID
  8
0
 62
7
  6
CONTINUOUS
 10
544.4282492012
 20
31.1318947675
 11
544.2548117012
 21
31.1964222346
 12
544.6594989807
 22
31.1964222346
 13
544.6594989807
 23
31.1964222346
  0
SOLID
  8
0
 62
7
  6
CONTINUOUS
 10
544.4282492012
 20
31.1318947675
 11
544.6594989807
 21
31.1964222346
 12
544.4860614807
 22
31.0673665164
 13
544.4860614807
 23
31.0673665164
  0
SOLID
  8
0
 62
7
  6
CONTINUOUS
 10
544.6594989807
 20
31.1964222346
 11
544.7751235396
 21
31.0673665164
 12
544.4860614807
 22
31.0673665164
 13
544.4860614807
 23
31.0673665164
  0
SOLID
  8
0
 62
7
  6
CONTINUOUS
 10
544.4282492012
 20
31.0028394316
 11
544.4860614807
 21
31.0673665164
 12
544.7751235396
 22
31.0673665164
 13
544.7751235396
 23
31.0673665164
  0
SOLID
  8
0
 62
7
  6
CONTINUOUS
 10
544.7751235396
 20
31.0673665164
 11
544.7751235396
 21
31.0028394316
 12
544.4282492012
 22
31.0028394316
 13
544.4282492012
 23
31.0028394316
  0
SOLID
  8
0
 62
7
  6
CONTINUOUS
 10
544.3126239807
 20
30.9705762839
 11
544.4282492012
 21
31.0028394316
 12
544.7751235396
 22
31.0028394316
 13
544.7751235396
 23
31.0028394316
  0
SOLID
  8
0
 62
7
  6
CONTINUOUS
 10
544.3126239807
 20
30.9705762839
 11
544.7751235396
 21
31.0028394316
 12
544.0813742012
 22
30.9383123468
 13
544.0813742012
 23
30.9383123468
  0
SOLID
  8
0
 62
7
  6
CONTINUOUS
 10
544.7751235396
 20
31.0028394316
 11
544.6594989807
 21
30.9060491937
 12
544.0813742012
 22
30.9383123468
 13
544.0813742012
 23
30.9383123468
  0
SOLID
  8
0
 62
7
  6
CONTINUOUS
 10
544.6594989807
 20
30.9060491937
 11
543.2141867012
 21
30.8737848904
 12
544.0813742012
 22
30.9383123468
 13
544.0813742012
 23
30.9383123468
  0
SOLID
  8
0
 62
7
  6
CONTINUOUS
 10
544.0813742012
 20
30.9383123468
 11
543.2141867012
 21
30.8737848904
 12
543.7344992012
 22
30.9383123468
 13
543.7344992012
 23
30.9383123468
  0
SOLID
  8
0
 62
7
  6
CONTINUOUS
 10
543.2141867012
 20
30.8737848904
 11
543.0407492012
 21
30.9383123468
 12
543.7344992012
 22
30.9383123468
 13
543.7344992012
 23
30.9383123468
  0
SOLID
  8
0
 62
7
  6
CONTINUOUS
 10
543.2141867012
 20
30.8737848904
 11
544.6594989807
 21
30.9060491937
 12
543.3876242012
 22
30.8415205581
 13
543.3876242012
 23
30.8415205581
  0
SOLID
  8
0
 62
7
  6
CONTINUOUS
 10
544.6594989807
 20
30.9060491937
 11
544.4282492012
 21
30.8415205581
 12
543.3876242012
 22
30.8415205581
 13
543.3876242012
 23
30.8415205581
  0
SOLID
  8
0
 62
7
  6
CONTINUOUS
 10
543.7344992012
 20
30.8092581772
 11
543.3876242012
 21
30.8415205581
 12
544.4282492012
 22
30.8415205581
 13
544.4282492012
 23
30.8415205581
  0
SOLID
  8
0
 62
7
  6
CONTINUOUS
 10
544.4282492012
 20
30.8415205581
 11
544.0813742012
 21
30.8092581772
 12
543.7344992012
 22
30.8092581772
 13
543.7344992012
 23
30.8092581772
  0
SOLID
  8
0
 62
7
  6
CONTINUOUS
 10
533.3860614807
 20
31.325476038
 11
533.7329364807
 21
31.4867945216
 12
533.6751239738
 22
31.3577403412
 13
533.6751239738
 23
31.3577403412
  0
SOLID
  8
0
 62
7
  6
CONTINUOUS
 10
533.6751239738
 20
31.3577403412
 11
533.6751239738
 21
31.2609490436
 12
533.3860614807
 22
31.325476038
 13
533.3860614807
 23
31.325476038
  0
SOLID
  8
0
 62
7
  6
CONTINUOUS
 10
533.4438739824
 20
31.1318947675
 11
533.3860614807
 21
31.325476038
 12
533.6751239738
 22
31.2609490436
 13
533.6751239738
 23
31.2609490436
  0
SOLID
  8
0
 62
7
  6
CONTINUOUS
 10
533.6751239738
 20
31.2609490436
 11
533.7907489669
 21
31.0996304642
 12
533.4438739824
 22
31.1318947675
 13
533.4438739824
 23
31.1318947675
  0
SOLID
  8
0
 62
7
  6
CONTINUOUS
 10
533.5594989807
 20
31.0028388804
 11
533.4438739824
 21
31.1318947675
 12
533.7907489669
 22
31.0996304642
 13
533.7907489669
 23
31.0996304642
  0
SOLID
  8
0
 62
7
  6
CONTINUOUS
 10
533.7907489669
 20
31.0996304642
 11
533.9641864669
 21
31.0028388804
 12
533.5594989807
 22
31.0028388804
 13
533.5594989807
 23
31.0028388804
  0
SOLID
  8
0
 62
7
  6
CONTINUOUS
 10
533.6751239738
 20
30.9383122606
 11
533.5594989807
 21
31.0028388804
 12
533.9641864669
 22
31.0028388804
 13
533.9641864669
 23
31.0028388804
  0
SOLID
  8
0
 62
7
  6
CONTINUOUS
 10
533.9641864669
 20
31.0028388804
 11
534.3110615082
 21
30.9383122606
 12
533.6751239738
 22
30.9383122606
 13
533.6751239738
 23
30.9383122606
  0
SOLID
  8
0
 62
7
  6
CONTINUOUS
 10
533.8485614944
 20
30.8737848904
 11
533.6751239738
 21
30.9383122606
 12
534.3110615082
 22
30.9383122606
 13
534.3110615082
 23
30.9383122606
  0
SOLID
  8
0
 62
7
  6
CONTINUOUS
 10
537.8954364807
 20
31.3254759532
 11
538.0110613704
 21
31.3900038345
 12
538.5891864807
 22
31.3577403412
 13
538.5891864807
 23
31.3577403412
  0
SOLID
  8
0
 62
7
  6
CONTINUOUS
 10
538.5891864807
 20
31.3577403412
 11
538.3579363704
 21
31.3254759532
 12
537.8954364807
 22
31.3254759532
 13
537.8954364807
 23
31.3254759532
  0
SOLID
  8
0
 62
7
  6
CONTINUOUS
 10
537.7798115909
 20
31.1964218576
 11
537.8954364807
 21
31.3254759532
 12
538.3579363704
 22
31.3254759532
 13
538.3579363704
 23
31.3254759532
  0
SOLID
  8
0
 62
7
  6
CONTINUOUS
 10
538.1266865909
 20
31.2286853572
 11
537.7798115909
 21
31.1964218576
 12
538.2423114807
 22
31.2932132511
 13
538.2423114807
 23
31.2932132511
  0
SOLID
  8
0
 62
7
  6
CONTINUOUS
 10
537.7798115909
 20
31.1964218576
 11
538.3579363704
 21
31.325476038
 12
538.2423114807
 22
31.2932132511
 13
538.2423114807
 23
31.2932132511
  0
SOLID
  8
0
 62
7
  6
CONTINUOUS
 10
538.1266865909
 20
31.2286853572
 11
538.0688739807
 21
31.1318947675
 12
537.7798115909
 22
31.1964218576
 13
537.7798115909
 23
31.1964218576
  0
SOLID
  8
0
 62
7
  6
CONTINUOUS
 10
537.7798115909
 20
31.0996304642
 11
537.7798115909
 21
31.1964218576
 12
538.0688739807
 22
31.1318947675
 13
538.0688739807
 23
31.1318947675
  0
SOLID
  8
0
 62
7
  6
CONTINUOUS
 10
538.0688739807
 20
31.1318947675
 11
538.0688739807
 21
31.0673661609
 12
537.7798115909
 22
31.0996304642
 13
537.7798115909
 23
31.0996304642
  0
SOLID
  8
0
 62
7
  6
CONTINUOUS
 10
537.8376238704
 20
30.9705762839
 11
537.7798115909
 21
31.0996304642
 12
538.0688739807
 22
31.0673661609
 13
538.0688739807
 23
31.0673661609
  0
SOLID
  8
0
 62
7
  6
CONTINUOUS
 10
539.2251242012
 20
31.1641579843
 11
539.5141862601
 21
31.0673661609
 12
539.1673112601
 22
31.0996304642
 13
539.1673112601
 23
31.0996304642
  0
SOLID
  8
0
 62
7
  6
CONTINUOUS
 10
538.9938737601
 20
31.0028390707
 11
539.1673112601
 21
31.0996304642
 12
539.5141862601
 22
31.0673661609
 13
539.5141862601
 23
31.0673661609
  0
SOLID
  8
0
 62
7
  6
CONTINUOUS
 10
538.9938737601
 20
31.0028390707
 11
539.5141862601
 21
31.0673661609
 12
539.2251242012
 22
30.9705762839
 13
539.2251242012
 23
30.9705762839
  0
SOLID
  8
0
 62
7
  6
CONTINUOUS
 10
539.5141862601
 20
31.0673661609
 11
539.5719992012
 21
30.9060491937
 12
539.2251242012
 22
30.9705762839
 13
539.2251242012
 23
30.9705762839
  0
SOLID
  8
0
 62
7
  6
CONTINUOUS
 10
539.2829364807
 20
30.8737848904
 11
539.2251242012
 21
30.9705762839
 12
539.5719992012
 22
30.9060491937
 13
539.5719992012
 23
30.9060491937
  0
SOLID
  8
0
 62
7
  6
CONTINUOUS
 10
539.2829364807
 20
30.8737848904
 11
539.5719992012
 21
30.9060491937
 12
539.3407487601
 22
30.8092576254
 13
539.3407487601
 23
30.8092576254
  0
SOLID
  8
0
 62
7
  6
CONTINUOUS
 10
539.5719992012
 20
30.9060491937
 11
539.6298114807
 21
30.8092576254
 12
539.3407487601
 22
30.8092576254
 13
539.3407487601
 23
30.8092576254
  0
SOLID
  8
0
 62
7
  6
CONTINUOUS
 10
534.8891865358
 20
31.035103216
 11
534.9469989807
 21
31.1318946289
 12
535.2360615358
 22
31.1318946289
 13
535.2360615358
 23
31.1318946289
  0
SOLID
  8
0
 62
7
  6
CONTINUOUS
 10
535.2360615358
 20
31.1318946289
 11
535.1782489255
 21
31.0028390707
 12
534.8891865358
 22
31.035103216
 13
534.8891865358
 23
31.035103216
  0
SOLID
  8
0
 62
7
  6
CONTINUOUS
 10
534.7157489531
 20
30.9705762839
 11
534.8891865358
 21
31.035103216
 12
535.1782489255
 22
31.0028390707
 13
535.1782489255
 23
31.0028390707
  0
SOLID
  8
0
 62
7
  6
CONTINUOUS
 10
534.7157489531
 20
30.9705762839
 11
535.1782489255
 21
31.0028390707
 12
534.3110615082
 22
30.9383119806
 13
534.3110615082
 23
30.9383119806
  0
SOLID
  8
0
 62
7
  6
CONTINUOUS
 10
535.1782489255
 20
31.0028390707
 11
535.0048114255
 21
30.9060491937
 12
534.3110615082
 22
30.9383119806
 13
534.3110615082
 23
30.9383119806
  0
SOLID
  8
0
 62
7
  6
CONTINUOUS
 10
533.8485614944
 20
30.8737848904
 11
534.3110615082
 21
30.9383119806
 12
535.0048114255
 22
30.9060491937
 13
535.0048114255
 23
30.9060491937
  0
SOLID
  8
0
 62
7
  6
CONTINUOUS
 10
533.8485614944
 20
30.8737848904
 11
535.0048114255
 21
30.9060491937
 12
534.0219989944
 22
30.8415207131
 13
534.0219989944
 23
30.8415207131
  0
SOLID
  8
0
 62
7
  6
CONTINUOUS
 10
535.0048114255
 20
30.9060491937
 11
534.7735614807
 21
30.8415207131
 12
534.0219989944
 22
30.8415207131
 13
534.0219989944
 23
30.8415207131
  0
SOLID
  8
0
 62
7
  6
CONTINUOUS
 10
534.3688739531
 20
30.8092578002
 11
534.0219989944
 21
30.8415207131
 12
534.7735614807
 22
30.8415207131
 13
534.7735614807
 23
30.8415207131
  0
SOLID
  8
0
 62
7
  6
CONTINUOUS
 10
537.8376238704
 20
30.9705762839
 11
538.0688739807
 21
31.0673661609
 12
538.1266865909
 22
31.0028390707
 13
538.1266865909
 23
31.0028390707
  0
SOLID
  8
0
 62
7
  6
CONTINUOUS
 10
538.1266865909
 20
31.0028390707
 11
538.3579363704
 21
30.9383119806
 12
537.8376238704
 22
30.9705762839
 13
537.8376238704
 23
30.9705762839
  0
SOLID
  8
0
 62
7
  6
CONTINUOUS
 10
538.0110613704
 20
30.8737848904
 11
537.8376238704
 21
30.9705762839
 12
538.3579363704
 22
30.9383119806
 13
538.3579363704
 23
30.9383119806
  0
SOLID
  8
0
 62
7
  6
CONTINUOUS
 10
538.7048113704
 20
30.9383119664
 11
538.9938737601
 21
31.0028390707
 12
539.2251242012
 22
30.9705762839
 13
539.2251242012
 23
30.9705762839
  0
SOLID
  8
0
 62
7
  6
CONTINUOUS
 10
539.2251242012
 20
30.9705762839
 11
539.1673112601
 21
30.9060491937
 12
538.7048113704
 22
30.9383119664
 13
538.7048113704
 23
30.9383119664
  0
SOLID
  8
0
 62
7
  6
CONTINUOUS
 10
539.1673112601
 20
30.9060491937
 11
538.0110613704
 21
30.8737848904
 12
538.7048113704
 22
30.9383119664
 13
538.7048113704
 23
30.9383119664
  0
SOLID
  8
0
 62
7
  6
CONTINUOUS
 10
538.0110613704
 20
30.8737848904
 11
538.3579363704
 21
30.9383119664
 12
538.7048113704
 22
30.9383119664
 13
538.7048113704
 23
30.9383119664
  0
SOLID
  8
0
 62
7
  6
CONTINUOUS
 10
538.0110613704
 20
30.8737848904
 11
539.1673112601
 21
30.9060491937
 12
538.1266865909
 22
30.8415205568
 13
538.1266865909
 23
30.8415205568
  0
SOLID
  8
0
 62
7
  6
CONTINUOUS
 10
539.1673112601
 20
30.9060491937
 11
538.9938737601
 21
30.8415205568
 12
538.1266865909
 22
30.8415205568
 13
538.1266865909
 23
30.8415205568
  0
SOLID
  8
0
 62
7
  6
CONTINUOUS
 10
538.3579363704
 20
30.8092577215
 11
538.1266865909
 21
30.8415205568
 12
538.9938737601
 22
30.8415205568
 13
538.9938737601
 23
30.8415205568
  0
SOLID
  8
0
 62
7
  6
CONTINUOUS
 10
538.9938737601
 20
30.8415205568
 11
538.7048113704
 21
30.8092577215
 12
538.3579363704
 22
30.8092577215
 13
538.3579363704
 23
30.8092577215
  0
SOLID
  8
0
 62
7
  6
CONTINUOUS
 10
543.3876242012
 20
30.9705762839
 11
543.0407492012
 21
30.9383119664
 12
543.2719989807
 22
31.0028390707
 13
543.2719989807
 23
31.0028390707
  0
SOLID
  8
0
 62
7
  6
CONTINUOUS
 10
543.2719989807
 20
31.0028390707
 11
543.0407492012
 21
30.9383119664
 12
543.2141867012
 22
31.0673661467
 13
543.2141867012
 23
31.0673661467
  0
SOLID
  8
0
 62
7
  6
CONTINUOUS
 10
543.0407492012
 20
30.9383119664
 11
542.9251239807
 21
31.0673661467
 12
543.2141867012
 22
31.0673661467
 13
543.2141867012
 23
31.0673661467
  0
SOLID
  8
0
 62
7
  6
CONTINUOUS
 10
543.3876242012
 20
30.9705762839
 11
543.7344992012
 21
30.9383119664
 12
543.0407492012
 22
30.9383119664
 13
543.0407492012
 23
30.9383119664
  0
SOLID
  8
0
 62
7
  6
CONTINUOUS
 10
540.0923117012
 20
30.8092578002
 11
540.0923117012
 21
31.841695792
 12
540.3813737601
 22
30.8092578002
 13
540.3813737601
 23
31.841695792
  0
ENDBLK
  8
0
  6
BYBLOCK
 62
0
  0
BLOCK
  8
0
 62
2
  6
CONTINUOUS
  2
SYMBOL_2_BL0
 70
64
 10
416.1419631151
 20
19.7009994242
  0
TEXT
  8
0
 62
7
  6
CONTINUOUS
 10
402.4066669574
 20
19.0744135318
  7
TEXTSTYLE_3
 40
2.7338706658
  1
Ammeraal Beltech
 41
1.0
 51
15.0
 72
0
  0
TEXT
  8
0
 62
7
  6
CONTINUOUS
 10
413.2074677831
 20
16.800876859
  7
TEXTSTYLE_4
 40
1.0935482663
  1
Innovation & Service in Belting
 41
1.0
 72
0
  0
LINE
  8
0
 62
7
  6
CONTINUOUS
 10
396.382126306
 20
19.8410068404
 11
397.1602782994
 21
23.5019241381
  0
LINE
  8
0
 62
7
  6
CONTINUOUS
 10
407.2554465892
 20
27.1653180497
 11
397.6480960424
 21
24.0437006284
  0
LINE
  8
0
 62
7
  6
CONTINUOUS
 10
396.6074096383
 20
19.1476560374
 11
404.1144848995
 21
12.3882551114
  0
LINE
  8
0
 62
7
  6
CONTINUOUS
 10
396.869944049
 20
20.3827833308
 11
407.6782134142
 21
23.8946029297
  0
LINE
  8
0
 62
7
  6
CONTINUOUS
 10
407.674008277
 20
13.544814366
 11
399.2285486083
 21
21.1491404077
  0
LINE
  8
0
 62
7
  6
CONTINUOUS
 10
408.1938309968
 20
26.320392934
 11
407.2172714596
 21
21.7260415315
  0
LINE
  8
0
 62
7
  6
CONTINUOUS
 10
406.5174695119
 20
18.4337322177
 11
405.8310213004
 21
15.2042472933
  0
LINE
  8
0
 62
7
  6
CONTINUOUS
 10
408.8749270954
 20
13.9350165436
 11
409.831158631
 21
18.4337322177
  0
LINE
  8
0
 62
7
  6
CONTINUOUS
 10
410.5309605787
 20
21.7260415315
 11
410.9752023811
 21
23.8160348909
  0
LINE
  8
0
 62
7
  6
CONTINUOUS
 10
404.8275859748
 20
12.2366807987
 11
408.3871093524
 21
13.3932400533
  0
LINE
  8
0
 62
7
  6
CONTINUOUS
 10
407.9685476645
 20
27.013743737
 11
410.7499190488
 21
24.5093856939
  0
ARC
  8
0
 62
7
  6
CONTINUOUS
 10
397.8733793747
 20
23.3503498254
 40
0.7290321776
 50
108.0
 51
168.0
  0
ARC
  8
0
 62
7
  6
CONTINUOUS
 10
407.4807299215
 20
26.4719672466
 40
0.7290321776
 50
348.0
 51
108.0
  0
ARC
  8
0
 62
7
  6
CONTINUOUS
 10
410.2621013058
 20
23.9676092036
 40
0.7290321776
 50
348.0
 51
48.0
  0
ARC
  8
0
 62
7
  6
CONTINUOUS
 10
404.6023026425
 20
12.9300316018
 40
0.7290321776
 50
228.0
 51
288.0
  0
ARC
  8
0
 62
7
  6
CONTINUOUS
 10
397.0952273813
 20
19.6894325277
 40
0.7290321776
 50
108.0
 51
228.0
  0
ARC
  8
0
 62
7
  6
CONTINUOUS
 10
408.1618260201
 20
14.0865908563
 40
0.7290321776
 50
228.0
 51
348.0
  0
ENDBLK
  8
0
  6
BYBLOCK
 62
0
  0
ENDSEC
  0
SECTION
  2
ENTITIES
  0
TEXT
  8
0
 62
5
  6
CONTINUOUS
 10
480.0
 20
25.636
  7
TEXTSTYLE_2
 40
2.8
  1
Scale :
 41
0.6
 51
0.000019
 72
0
  0
TEXT
  8
0
 62
5
  6
CONTINUOUS
 10
500.0
 20
25.636
  7
TEXTSTYLE_2
 40
2.8
  1
Belt type:
 41
0.6
 51
0.000019
 72
0
  0
INSERT
  8
0
 62
2
  6
CONTINUOUS
  2
SYMBOL_2_BL0
 10
416.1419631151
 20
19.7009994242
  0
INSERT
  8
0
 62
2
  6
CONTINUOUS
  2
SYMBOL_3_BL1
 10
557.4079930916
 20
35.8092573885
  0
LINE
  8
0
 62
2
  6
CONTINUOUS
 10
394.0
 20
30.0
 11
584.0
 21
30.0
  0
LINE
  8
0
 62
2
  6
CONTINUOUS
 10
394.0
 20
30.0
 11
394.0
 21
10.0
  0
LINE
  8
0
 62
2
  6
CONTINUOUS
 10
394.0
 20
10.0
 11
584.0
 21
10.0
  0
LINE
  8
0
 62
2
  6
CONTINUOUS
 10
479.0
 20
30.0
 11
479.0
 21
10.0
  0
LINE
  8
0
 62
2
  6
CONTINUOUS
 10
499.0
 20
30.0
 11
499.0
 21
10.0
  0
LINE
  8
0
 62
2
  6
CONTINUOUS
 10
584.0
 20
30.0
 11
584.0
 21
10.0
  0
TEXT
  8
0
 62
5
  6
CONTINUOUS
 10
397.0
 20
23.303
  7
TEXTSTYLE_5
 40
1.52
  1
                                                                     Ammeraal Beltech Modular A/S
 41
1.0
 72
0
  0
TEXT
  8
0
 62
5
  6
CONTINUOUS
 10
397.0
 20
20.595
  7
TEXTSTYLE_5
 40
1.5
  1
                                                                      Hjulmagervej 21, 7100 Vejle,  DK
 41
1.0
 72
0
  0
TEXT
  8
0
 62
5
  6
CONTINUOUS
 10
397.0
 20
17.881
  7
TEXTSTYLE_5
 40
1.495
  1
                                                                      tel: 
 41
1.0
 72
0
  0
TEXT
  8
0
 62
5
  6
CONTINUOUS
 10
441.9869465649
 20
17.881
  7
TEXTSTYLE_5
 40
1.51
  1
+45 75723100     fax: +45 75723348
 41
1.0
 72
0
  0
TEXT
  8
0
 62
5
  6
CONTINUOUS
 10
397.0
 20
15.177
  7
TEXTSTYLE_5
 40
1.5
  1
                                                                      admin@unichains.dk  www.unichains.com
 41
1.0
 72
0
  0
TEXT
  8
0
 62
5
  6
CONTINUOUS
 10
483.75
 20
13.75
  7
TEXTSTYLE_6
 40
5.0
  1
1:1
 41
0.7
 72
1
 11
489.0
 21
13.75
  0
TEXT
  8
0
 62
5
  6
CONTINUOUS
 10
502.0
 20
13.75
  7
TEXTSTYLE_7
 40
7.5
  1
Sprocket Z13
 41
0.6361111111
 72
0
  0
LINE
  8
0
 62
7
  6
CONTINUOUS
 10
0.0
 20
0.0
 11
0.0
 21
420.0
  0
LINE
  8
0
 62
7
  6
CONTINUOUS
 10
10.0
 20
10.0
 11
10.0
 21
410.0
  0
LINE
  8
0
 62
7
  6
CONTINUOUS
 10
0.0
 20
0.0
 11
594.0
 21
0.0
  0
LINE
  8
0
 62
7
  6
CONTINUOUS
 10
10.0
 20
10.0
 11
584.0
 21
10.0
  0
LINE
  8
0
 62
7
  6
CONTINUOUS
 10
394.0
 20
30.0
 11
584.0
 21
30.0
  0
LINE
  8
0
 62
7
  6
CONTINUOUS
 10
179.0
 20
5.0
 11
179.0
 21
10.0
  0
LINE
  8
0
 62
7
  6
CONTINUOUS
 10
179.0
 20
410.0
 11
179.0
 21
415.0
  0
LINE
  8
0
 62
7
  6
CONTINUOUS
 10
594.0
 20
420.0
 11
584.0
 21
410.0
  0
LINE
  8
0
 62
7
  6
CONTINUOUS
 10
384.0
 20
410.0
 11
384.0
 21
415.0
  0
LINE
  8
0
 62
7
  6
CONTINUOUS
 10
584.0
 20
297.0
 11
589.0
 21
297.0
  0
LINE
  8
0
 62
7
  6
CONTINUOUS
 10
10.0
 20
410.0
 11
584.0
 21
410.0
  0
LINE
  8
0
 62
7
  6
CONTINUOUS
 10
0.0
 20
420.0
 11
594.0
 21
420.0
  0
LINE
  8
0
 62
7
  6
CONTINUOUS
 10
584.0
 20
10.0
 11
584.0
 21
410.0
  0
LINE
  8
0
 62
7
  6
CONTINUOUS
 10
594.0
 20
0.0
 11
594.0
 21
420.0
  0
LINE
  8
SURFACE
 62
7
  6
CONTINUOUS
 10
83.8324971422
 20
271.0394876713
 11
79.4073160747
 21
234.5948427232
  0
LINE
  8
0
 62
7
  6
CONTINUOUS
 10
76.487793322
 20
210.5504096214
 11
76.1970340881
 21
208.1557918907
  0
LINE
  8
SURFACE
 62
7
  6
CONTINUOUS
 10
118.1558263878
 20
318.7920345293
 11
97.3008521428
 21
288.5783882397
  0
LINE
  8
0
 62
7
  6
CONTINUOUS
 10
83.5417379082
 20
268.6448699407
 11
82.171449045
 21
266.6596637955
  0
LINE
  8
SURFACE
 62
7
  6
CONTINUOUS
 10
170.7393401378
 20
345.1239684428
 11
138.232195985
 21
328.0629030628
  0
LINE
  8
0
 62
7
  6
CONTINUOUS
 10
116.7855375245
 20
316.806828384
 11
114.6496356967
 21
315.6858206277
  0
LINE
  8
SURFACE
 62
7
  6
CONTINUOUS
 10
195.5218998706
 20
102.4431853781
 11
231.1674256885
 21
111.2290184084
  0
LINE
  8
0
 62
7
  6
CONTINUOUS
 10
254.6846382209
 20
117.0254906978
 11
257.0267493393
 21
117.6027692413
  0
LINE
  8
SURFACE
 62
7
  6
CONTINUOUS
 10
138.7012726387
 20
117.6027692413
 11
174.3467984566
 21
108.816936211
  0
LINE
  8
0
 62
7
  6
CONTINUOUS
 10
197.864010989
 20
103.0204639216
 11
200.2061221075
 21
102.4431853781
  0
LINE
  8
SURFACE
 62
7
  6
CONTINUOUS
 10
95.4341157746
 20
157.431776244
 11
122.9136812028
 21
133.0870056197
  0
LINE
  8
0
 62
7
  6
CONTINUOUS
 10
141.0433837572
 20
117.0254906978
 11
142.8489454439
 21
115.4259026248
  0
LINE
  8
SURFACE
 62
7
  6
CONTINUOUS
 10
75.6324134901
 20
212.8058608735
 11
88.6507812536
 21
178.4792462189
  0
LINE
  8
0
 62
7
  6
CONTINUOUS
 10
97.2396774614
 20
155.832188171
 11
98.0950572933
 21
153.5767369188
  0
LINE
  8
0
 62
7
  6
CONTINUOUS
 10
94.8345367459
 20
252.4415231499
 11
94.8329023595
 21
252.0114932667
  0
LINE
  8
0
 62
7
  6
CONTINUOUS
 10
95.2448046775
 20
251.9046575071
 11
95.246439091
 21
252.3346873833
  0
LINE
  8
0
 62
7
  6
CONTINUOUS
 10
93.0488735531
 20
256.6938634791
 11
93.0311876532
 21
256.2641940468
  0
LINE
  8
0
 62
7
  6
CONTINUOUS
 10
93.4388147953
 20
256.142056909
 11
93.4565006952
 21
256.5717263413
  0
LINE
  8
0
 62
7
  6
CONTINUOUS
 10
103.4761018447
 20
279.7995457781
 11
103.4148822593
 21
279.4751605938
  0
LINE
  8
0
 62
7
  6
CONTINUOUS
 10
105.9778160102
 20
283.9183200516
 11
105.9023180707
 21
283.5969578781
  0
LINE
  8
0
 62
7
  6
CONTINUOUS
 10
107.8719639196
 20
282.7337738787
 11
107.7964659801
 21
282.4124117052
  0
LINE
  8
0
 62
7
  6
CONTINUOUS
 10
92.3157211836
 20
254.1709671496
 11
92.1849586362
 21
253.6668157628
  0
LINE
  8
0
 62
7
  6
CONTINUOUS
 10
91.6619085684
 20
251.6502106845
 11
91.5311460491
 21
251.1460594059
  0
LINE
  8
0
 62
7
  6
CONTINUOUS
 10
94.8329023595
 20
252.0114932667
 11
94.7282923291
 21
251.6081721861
  0
LINE
  8
0
 62
7
  6
CONTINUOUS
 10
95.1401946471
 20
251.5013364265
 11
95.2448046775
 21
251.9046575071
  0
LINE
  8
0
 62
7
  6
CONTINUOUS
 10
95.5324822143
 20
253.0137902984
 11
95.6632447617
 21
253.5179416852
  0
LINE
  8
0
 62
7
  6
CONTINUOUS
 10
93.1684662385
 20
257.092998627
 11
93.0488735531
 21
256.6938634791
  0
LINE
  8
0
 62
7
  6
CONTINUOUS
 10
92.7797901392
 20
255.7958098246
 11
92.6302993252
 21
255.2968910325
  0
LINE
  8
0
 62
7
  6
CONTINUOUS
 10
95.8913167476
 20
254.3197938443
 11
96.0408075616
 21
254.8187126364
  0
LINE
  8
0
 62
7
  6
CONTINUOUS
 10
96.5789743893
 20
256.6148199454
 11
96.7284651177
 21
257.1137384521
  0
LINE
  8
0
 62
7
  6
CONTINUOUS
 10
103.9192234431
 20
279.0702965339
 11
104.082991939
 21
279.5760298945
  0
LINE
  8
0
 62
7
  6
CONTINUOUS
 10
92.3987897482
 20
259.9499879826
 11
92.2373330791
 21
259.454812359
  0
LINE
  8
0
 62
7
  6
CONTINUOUS
 10
92.7430444869
 20
259.2899203985
 11
92.9045011559
 21
259.785096022
  0
LINE
  8
0
 62
7
  6
CONTINUOUS
 10
93.9159242548
 20
259.4553120086
 11
93.7544675857
 21
258.960136385
  0
LINE
  8
0
 62
7
  6
CONTINUOUS
 10
96.9910208788
 20
257.9048277451
 11
97.1524775478
 21
258.4000033686
  0
LINE
  8
0
 62
7
  6
CONTINUOUS
 10
108.282418868
 20
281.9856508558
 11
108.4683812757
 21
282.4836511944
  0
LINE
  8
0
 62
7
  6
CONTINUOUS
 10
116.2232452752
 20
297.5035931643
 11
115.9731838229
 21
296.8925582946
  0
LINE
  8
0
 62
7
  6
CONTINUOUS
 10
96.0801886253
 20
269.6579807665
 11
95.8412296286
 21
269.0804657469
  0
LINE
  8
0
 62
7
  6
CONTINUOUS
 10
94.7260877956
 20
266.3853960226
 11
94.4871287988
 21
265.807881003
  0
LINE
  8
0
 62
7
  6
CONTINUOUS
 10
99.1072489556
 20
263.8962090288
 11
99.3462079524
 21
264.4737240484
  0
LINE
  8
0
 62
7
  6
CONTINUOUS
 10
100.4613497854
 20
267.1687937727
 11
100.7003087821
 21
267.7463087923
  0
LINE
  8
0
 62
7
  6
CONTINUOUS
 10
99.5278044656
 20
270.7993240294
 11
98.9232089158
 21
269.4722213615
  0
LINE
  8
0
 62
7
  6
CONTINUOUS
 10
99.4072584671
 20
269.2517002129
 11
100.0118540169
 21
270.5788028809
  0
LINE
  8
0
 62
7
  6
CONTINUOUS
 10
99.7592638686
 20
277.3073455262
 11
99.3388412804
 21
276.4694009592
  0
LINE
  8
0
 62
7
  6
CONTINUOUS
 10
97.9374326532
 20
273.6762524026
 11
97.517010065
 21
272.8383078356
  0
LINE
  8
0
 62
7
  6
CONTINUOUS
 10
101.9860477557
 20
270.596054032
 11
102.2663294811
 21
271.1546837433
  0
LINE
  8
0
 62
7
  6
CONTINUOUS
 10
102.9203198174
 20
272.4581523595
 11
103.2940294975
 21
273.2029933952
  0
LINE
  8
0
 62
7
  6
CONTINUOUS
 10
103.9480198338
 20
274.5064620113
 11
104.2283015592
 21
275.0650917227
  0
LINE
  8
0
 62
7
  6
CONTINUOUS
 10
118.1957273362
 20
295.2329727458
 11
118.3891737754
 21
295.6170373226
  0
LINE
  8
0
 62
7
  6
CONTINUOUS
 10
123.2275509919
 20
304.723460368
 11
123.0753068285
 21
304.4305520203
  0
LINE
  8
0
 62
7
  6
CONTINUOUS
 10
124.7720313667
 20
303.109296092
 11
124.6197872033
 21
302.8163877443
  0
LINE
  8
0
 62
7
  6
CONTINUOUS
 10
94.9326090559
 20
251.1247243579
 11
95.1401946471
 21
251.5013364265
  0
LINE
  8
0
 62
7
  6
CONTINUOUS
 10
101.5115554145
 20
280.4317865581
 11
100.2809778785
 21
278.2556250457
  0
LINE
  8
0
 62
7
  6
CONTINUOUS
 10
101.051635295
 20
278.5378404474
 11
102.0258429022
 21
280.2606356698
  0
LINE
  8
0
 62
7
  6
CONTINUOUS
 10
103.4148822593
 20
279.4751605938
 11
102.4406746521
 21
277.7523653714
  0
LINE
  8
0
 62
7
  6
CONTINUOUS
 10
102.9962902912
 20
277.4381753996
 11
103.9192234431
 21
279.0702965339
  0
LINE
  8
0
 62
7
  6
CONTINUOUS
 10
104.6333009033
 20
275.7944699738
 11
104.9409452873
 21
276.3385103519
  0
LINE
  8
0
 62
7
  6
CONTINUOUS
 10
114.1541392314
 20
297.2337099539
 11
114.4160045296
 21
297.6963252561
  0
LINE
  8
0
 62
7
  6
CONTINUOUS
 10
117.9880758961
 20
295.9663995232
 11
117.7262105979
 21
295.503784221
  0
LINE
  8
0
 62
7
  6
CONTINUOUS
 10
126.8116259522
 20
307.9448392585
 11
126.6465837087
 21
307.6589465456
  0
LINE
  8
0
 62
7
  6
CONTINUOUS
 10
128.2832489734
 20
306.2639848264
 11
128.1182067298
 21
305.9780921135
  0
LINE
  8
0
 62
7
  6
CONTINUOUS
 10
93.4565006952
 20
256.5717263413
 11
93.6780001661
 21
256.9403272047
  0
LINE
  8
0
 62
7
  6
CONTINUOUS
 10
104.0431353706
 20
284.6367780555
 11
102.7175717708
 21
282.5171363068
  0
LINE
  8
0
 62
7
  6
CONTINUOUS
 10
103.5901477336
 20
282.7086050142
 11
104.6395526715
 21
284.3866554057
  0
LINE
  8
0
 62
7
  6
CONTINUOUS
 10
105.9023180707
 20
283.5969578781
 11
104.8529131328
 21
281.9189074866
  0
LINE
  8
0
 62
7
  6
CONTINUOUS
 10
105.3940981956
 20
281.5804657567
 11
106.4435031335
 21
283.2585161483
  0
LINE
  8
0
 62
7
  6
CONTINUOUS
 10
107.7964659801
 20
282.4124117052
 11
106.7470610421
 21
280.7343613137
  0
LINE
  8
0
 62
7
  6
CONTINUOUS
 10
106.9568552682
 20
279.8660091072
 11
108.282418868
 21
281.9856508558
  0
LINE
  8
0
 62
7
  6
CONTINUOUS
 10
114.0833224196
 20
298.1242345498
 11
113.6846256812
 21
297.5045249758
  0
LINE
  8
0
 62
7
  6
CONTINUOUS
 10
124.9858048527
 20
302.283184579
 11
125.2885773851
 21
302.7201229589
  0
LINE
  8
0
 62
7
  6
CONTINUOUS
 10
93.3600674953
 20
257.3618155607
 11
93.1684662385
 21
257.092998627
  0
LINE
  8
0
 62
7
  6
CONTINUOUS
 10
128.4602984786
 20
305.4292316845
 11
128.7820882608
 21
305.8523601406
  0
LINE
  8
0
 62
7
  6
CONTINUOUS
 10
110.8661967816
 20
294.2809665222
 11
108.338889363
 21
290.9682916094
  0
LINE
  8
0
 62
7
  6
CONTINUOUS
 10
108.7617841437
 20
290.6456565352
 11
110.9731770503
 21
293.5442456622
  0
LINE
  8
0
 62
7
  6
CONTINUOUS
 10
114.3339343974
 20
291.6353585972
 11
112.1857232362
 21
288.8195851109
  0
LINE
  8
0
 62
7
  6
CONTINUOUS
 10
112.3141007748
 20
287.9355215502
 11
114.8414081934
 21
291.248196463
  0
LINE
  8
0
 62
7
  6
CONTINUOUS
 10
112.2963830682
 20
296.0190471627
 11
111.9009012934
 21
295.535085216
  0
LINE
  8
0
 62
7
  6
CONTINUOUS
 10
115.772596867
 20
292.3712310181
 11
116.1680786417
 21
292.8551929648
  0
LINE
  8
0
 62
7
  6
CONTINUOUS
 10
143.2949855139
 20
319.6427533751
 11
143.0799938255
 21
319.392249564
  0
LINE
  8
0
 62
7
  6
CONTINUOUS
 10
101.8605291233
 20
280.8327899281
 11
101.5115554145
 21
280.4317865581
  0
LINE
  8
0
 62
7
  6
CONTINUOUS
 10
114.2201569917
 20
298.2813324172
 11
114.0833224196
 21
298.1242345498
  0
LINE
  8
0
 62
7
  6
CONTINUOUS
 10
114.4160045296
 20
297.6963252561
 11
114.6896705419
 21
298.0105173953
  0
LINE
  8
0
 62
7
  6
CONTINUOUS
 10
113.8710704649
 20
296.0988656504
 11
114.2131521973
 21
296.4916049254
  0
LINE
  8
0
 62
7
  6
CONTINUOUS
 10
115.9731838229
 20
296.8925582946
 11
115.6995178106
 21
296.5783661555
  0
LINE
  8
0
 62
7
  6
CONTINUOUS
 10
116.0203960747
 20
296.2988764292
 11
116.294062087
 21
296.6130685684
  0
LINE
  8
0
 62
7
  6
CONTINUOUS
 10
116.1502259647
 20
294.666246707
 11
115.8081411005
 21
294.2735038364
  0
LINE
  8
0
 62
7
  6
CONTINUOUS
 10
117.7262105979
 20
295.503784221
 11
117.3157100136
 21
295.0324942144
  0
LINE
  8
0
 62
7
  6
CONTINUOUS
 10
117.6483921798
 20
294.6045848719
 11
118.1957273362
 21
295.2329727458
  0
LINE
  8
0
 62
7
  6
CONTINUOUS
 10
104.4094928072
 20
285.0219644792
 11
104.0431353706
 21
284.6367780555
  0
LINE
  8
0
 62
7
  6
CONTINUOUS
 10
150.0327777208
 20
324.7644704581
 11
150.2696183665
 21
324.9944271802
  0
LINE
  8
0
 62
7
  6
CONTINUOUS
 10
150.8072347198
 20
323.1301732441
 11
151.0440753654
 21
323.3601299662
  0
LINE
  8
0
 62
7
  6
CONTINUOUS
 10
152.8509708856
 20
321.9796359776
 11
152.6141302399
 21
321.7496792555
  0
LINE
  8
0
 62
7
  6
CONTINUOUS
 10
121.5291106142
 20
305.8958380278
 11
119.7227838898
 21
304.1674909086
  0
LINE
  8
0
 62
7
  6
CONTINUOUS
 10
120.6156456338
 20
304.1383879414
 11
122.0456531422
 21
305.5066616453
  0
LINE
  8
0
 62
7
  6
CONTINUOUS
 10
123.0753068285
 20
304.4305520203
 11
121.6452993201
 21
303.0622783164
  0
LINE
  8
0
 62
7
  6
CONTINUOUS
 10
122.086579383
 20
302.6010885694
 11
123.5165868914
 21
303.9693622733
  0
LINE
  8
0
 62
7
  6
CONTINUOUS
 10
124.6197872033
 20
302.8163877443
 11
123.1897796949
 21
301.4481140404
  0
LINE
  8
0
 62
7
  6
CONTINUOUS
 10
123.1794781283
 20
300.5548374597
 11
124.9858048527
 21
302.283184579
  0
LINE
  8
0
 62
7
  6
CONTINUOUS
 10
143.3148581982
 20
318.7896600189
 11
143.709237413
 21
319.1460957357
  0
LINE
  8
0
 62
7
  6
CONTINUOUS
 10
102.0258429022
 20
280.2606356698
 11
102.2722677007
 21
280.4802908636
  0
LINE
  8
0
 62
7
  6
CONTINUOUS
 10
125.1666659396
 20
309.1911440569
 11
123.2857097534
 21
307.5443277874
  0
LINE
  8
0
 62
7
  6
CONTINUOUS
 10
124.1764124782
 20
307.4757877794
 11
125.6655015964
 21
308.7795162791
  0
LINE
  8
0
 62
7
  6
CONTINUOUS
 10
126.6465837087
 20
307.6589465456
 11
125.1574945905
 21
306.3552180459
  0
LINE
  8
0
 62
7
  6
CONTINUOUS
 10
125.5779582687
 20
305.8749739705
 11
127.0670473869
 21
307.1787024702
  0
LINE
  8
0
 62
7
  6
CONTINUOUS
 10
128.1182067298
 20
305.9780921135
 11
126.6291176116
 21
304.6743636138
  0
LINE
  8
0
 62
7
  6
CONTINUOUS
 10
126.5793422924
 20
303.782415415
 11
128.4602984786
 21
305.4292316845
  0
LINE
  8
0
 62
7
  6
CONTINUOUS
 10
114.7792928621
 20
298.761297128
 11
114.2201569917
 21
298.2813324172
  0
LINE
  8
0
 62
7
  6
CONTINUOUS
 10
116.294062087
 20
296.6130685684
 11
116.7847822373
 21
297.0144861434
  0
LINE
  8
0
 62
7
  6
CONTINUOUS
 10
104.6395526715
 20
284.3866554057
 11
104.8954456319
 21
284.5952036693
  0
LINE
  8
0
 62
7
  6
CONTINUOUS
 10
106.4435031335
 20
283.2585161483
 11
106.699396094
 21
283.4670644119
  0
LINE
  8
0
 62
7
  6
CONTINUOUS
 10
114.6896705419
 20
298.0105173953
 11
115.1119749721
 21
298.3333878344
  0
LINE
  8
0
 62
7
  6
CONTINUOUS
 10
117.3157100136
 20
295.0324942144
 11
116.8934087152
 21
294.709627371
  0
LINE
  8
0
 62
7
  6
CONTINUOUS
 10
150.1359721172
 20
325.5197113161
 11
149.7108611047
 21
325.2005374663
  0
LINE
  8
0
 62
7
  6
CONTINUOUS
 10
150.9104291161
 20
323.885414102
 11
150.4853181036
 21
323.5662402522
  0
LINE
  8
0
 62
7
  6
CONTINUOUS
 10
152.7477765211
 20
321.2243950523
 11
153.1728789116
 21
321.5435648267
  0
LINE
  8
0
 62
7
  6
CONTINUOUS
 10
117.2945065945
 20
294.3602651704
 11
117.6483921798
 21
294.6045848719
  0
LINE
  8
0
 62
7
  6
CONTINUOUS
 10
121.9789765074
 20
306.1790464854
 11
121.5291106142
 21
305.8958380278
  0
LINE
  8
0
 62
7
  6
CONTINUOUS
 10
141.9084216655
 20
321.1713520019
 11
139.7557385024
 21
319.9001497366
  0
LINE
  8
0
 62
7
  6
CONTINUOUS
 10
140.564377828
 20
319.7599326632
 11
142.2685880695
 21
320.7663027397
  0
LINE
  8
0
 62
7
  6
CONTINUOUS
 10
143.0799938255
 20
319.392249564
 11
141.3757835841
 21
318.3858794876
  0
LINE
  8
0
 62
7
  6
CONTINUOUS
 10
141.7003458259
 20
317.83625832
 11
143.3148581982
 21
318.7896600189
  0
LINE
  8
0
 62
7
  6
CONTINUOUS
 10
142.2981430329
 20
315.5947834104
 11
142.8363138237
 21
315.9125839767
  0
LINE
  8
0
 62
7
  6
CONTINUOUS
 10
125.6286102873
 20
309.4541911475
 11
125.1666659396
 21
309.1911440569
  0
LINE
  8
0
 62
7
  6
CONTINUOUS
 10
146.2081037656
 20
323.5537545265
 11
145.4719409413
 21
323.1632376353
  0
LINE
  8
0
 62
7
  6
CONTINUOUS
 10
148.2136602233
 20
320.8844906441
 11
146.55728755
 21
320.005824287
  0
LINE
  8
0
 62
7
  6
CONTINUOUS
 10
146.66468608
 20
319.581098148
 11
148.5050973532
 21
320.5573926107
  0
LINE
  8
0
 62
7
  6
CONTINUOUS
 10
146.3427171536
 20
317.9652055882
 11
146.894841378
 21
318.258094374
  0
LINE
  8
0
 62
7
  6
CONTINUOUS
 10
149.4714239003
 20
319.624910197
 11
150.0235481247
 21
319.9177989827
  0
LINE
  8
0
 62
7
  6
CONTINUOUS
 10
117.1834789757
 20
297.6341957173
 11
116.6809581113
 21
297.3812013054
  0
LINE
  8
0
 62
7
  6
CONTINUOUS
 10
150.5124956147
 20
325.6981374037
 11
150.1359721172
 21
325.5197113161
  0
LINE
  8
0
 62
7
  6
CONTINUOUS
 10
150.2696183665
 20
324.9944271802
 11
150.8344122309
 21
325.2620703956
  0
LINE
  8
0
 62
7
  6
CONTINUOUS
 10
151.8608055634
 20
325.0421159684
 11
152.3314728624
 21
325.2651547038
  0
LINE
  8
0
 62
7
  6
CONTINUOUS
 10
151.3810877971
 20
324.1084487535
 11
150.9104291161
 21
323.885414102
  0
LINE
  8
0
 62
7
  6
CONTINUOUS
 10
151.0440753654
 20
323.3601299662
 11
151.7030044132
 21
323.6723817454
  0
LINE
  8
0
 62
7
  6
CONTINUOUS
 10
152.6141302399
 20
321.7496792555
 11
151.9552011921
 21
321.4374274763
  0
LINE
  8
0
 62
7
  6
CONTINUOUS
 10
152.2771178401
 20
321.0013604008
 11
152.7477765211
 21
321.2243950523
  0
LINE
  8
0
 62
7
  6
CONTINUOUS
 10
122.0456531422
 20
305.5066616453
 11
122.3449906599
 21
305.6458400774
  0
LINE
  8
0
 62
7
  6
CONTINUOUS
 10
123.5165868914
 20
303.9693622733
 11
123.8159244091
 21
304.1085407054
  0
LINE
  8
0
 62
7
  6
CONTINUOUS
 10
125.6655015964
 20
308.7795162791
 11
125.9706983994
 21
308.9053276335
  0
LINE
  8
0
 62
7
  6
CONTINUOUS
 10
127.0670473869
 20
307.1787024702
 11
127.3722441899
 21
307.3045138246
  0
LINE
  8
0
 62
7
  6
CONTINUOUS
 10
142.4109882942
 20
321.3445806628
 11
141.9084216655
 21
321.1713520019
  0
LINE
  8
0
 62
7
  6
CONTINUOUS
 10
106.5043015021
 20
283.9576474503
 11
106.5245672036
 21
284.1906905439
  0
LINE
  8
0
 62
7
  6
CONTINUOUS
 10
114.1093280713
 20
296.8583200875
 11
114.1541392314
 21
297.2337099539
  0
LINE
  8
0
 62
7
  6
CONTINUOUS
 10
118.5024006346
 20
296.0709743432
 11
118.5472117666
 21
296.4463642341
  0
LINE
  8
0
 62
7
  6
CONTINUOUS
 10
113.6846256812
 20
297.5045249758
 11
113.5713956691
 21
297.0505843779
  0
LINE
  8
0
 62
7
  6
CONTINUOUS
 10
118.0446909022
 20
296.1933698222
 11
117.9880758961
 21
295.9663995232
  0
LINE
  8
0
 62
7
  6
CONTINUOUS
 10
118.3891737754
 20
295.6170373226
 11
118.5024006346
 21
296.0709743432
  0
LINE
  8
0
 62
7
  6
CONTINUOUS
 10
123.7475285411
 20
304.6320439266
 11
123.8245102394
 21
304.8529389099
  0
LINE
  8
0
 62
7
  6
CONTINUOUS
 10
127.3270545944
 20
307.8305285753
 11
127.4137248594
 21
308.0478049906
  0
LINE
  8
0
 62
7
  6
CONTINUOUS
 10
149.8414933617
 20
324.4383786217
 11
150.0327777208
 21
324.7644704581
  0
LINE
  8
0
 62
7
  6
CONTINUOUS
 10
150.4853181036
 20
323.5662402522
 11
150.1027493854
 21
322.9140565793
  0
LINE
  8
0
 62
7
  6
CONTINUOUS
 10
150.6159503607
 20
322.8040814076
 11
150.8072347198
 21
323.1301732441
  0
LINE
  8
0
 62
7
  6
CONTINUOUS
 10
153.0422552447
 20
322.3057278141
 11
152.8509708856
 21
321.9796359776
  0
LINE
  8
0
 62
7
  6
CONTINUOUS
 10
149.7108611047
 20
325.2005374663
 11
149.3768712833
 21
324.6890974716
  0
LINE
  8
0
 62
7
  6
CONTINUOUS
 10
153.1728789116
 20
321.5435648267
 11
153.506877339
 21
322.0550089305
  0
LINE
  8
0
 62
7
  6
CONTINUOUS
 10
94.7282923291
 20
251.6081721861
 11
94.4177311403
 21
251.2582690621
  0
LINE
  8
0
 62
7
  6
CONTINUOUS
 10
93.6780001661
 20
256.9403272047
 11
93.8397032088
 21
257.1093602087
  0
LINE
  8
0
 62
7
  6
CONTINUOUS
 10
94.6482003651
 20
250.8756514296
 11
94.9326090559
 21
251.1247243579
  0
LINE
  8
0
 62
7
  6
CONTINUOUS
 10
93.6535755377
 20
257.60009821
 11
93.3600674953
 21
257.3618155607
  0
LINE
  8
0
 62
7
  6
CONTINUOUS
 10
106.7049622245
 20
284.077876634
 11
106.5043015021
 21
283.9576474503
  0
LINE
  8
0
 62
7
  6
CONTINUOUS
 10
102.3434324165
 20
281.0383871441
 11
101.8605291233
 21
280.8327899281
  0
LINE
  8
0
 62
7
  6
CONTINUOUS
 10
115.2133980064
 20
298.9357444041
 11
114.7792928621
 21
298.761297128
  0
LINE
  8
0
 62
7
  6
CONTINUOUS
 10
116.8934087152
 20
294.709627371
 11
116.6763545771
 21
294.6224019351
  0
LINE
  8
0
 62
7
  6
CONTINUOUS
 10
116.8603982972
 20
294.1858143171
 11
117.2945065945
 21
294.3602651704
  0
LINE
  8
0
 62
7
  6
CONTINUOUS
 10
104.9010117624
 20
285.2060158914
 11
104.4094928072
 21
285.0219644792
  0
LINE
  8
0
 62
7
  6
CONTINUOUS
 10
123.9716035937
 20
304.6992089942
 11
123.7475285411
 21
304.6320439266
  0
LINE
  8
0
 62
7
  6
CONTINUOUS
 10
94.7070431184
 20
252.7974317994
 11
94.8345367459
 21
252.4415231499
  0
LINE
  8
0
 62
7
  6
CONTINUOUS
 10
93.0311876532
 20
256.2641940468
 11
93.1453068385
 21
255.9037745452
  0
LINE
  8
0
 62
7
  6
CONTINUOUS
 10
93.5529339806
 20
255.7816374074
 11
93.4388147953
 21
256.142056909
  0
LINE
  8
0
 62
7
  6
CONTINUOUS
 10
95.246439091
 20
252.3346873833
 11
95.1957685454
 21
252.5630569356
  0
LINE
  8
0
 62
7
  6
CONTINUOUS
 10
108.4683812757
 20
282.4836511944
 11
108.4187151445
 21
283.0061443512
  0
LINE
  8
0
 62
7
  6
CONTINUOUS
 10
113.5713956691
 20
297.0505843779
 11
113.6186079209
 21
296.4569025125
  0
LINE
  8
0
 62
7
  6
CONTINUOUS
 10
116.1996407152
 20
297.8004358948
 11
116.2232452752
 21
297.5035931643
  0
LINE
  8
0
 62
7
  6
CONTINUOUS
 10
118.0210831542
 20
296.490209006
 11
118.0446909022
 21
296.1933698222
  0
LINE
  8
0
 62
7
  6
CONTINUOUS
 10
123.230986013
 20
305.0212203092
 11
123.2275509919
 21
304.723460368
  0
LINE
  8
0
 62
7
  6
CONTINUOUS
 10
124.7754663364
 20
303.407056087
 11
124.7720313667
 21
303.109296092
  0
LINE
  8
0
 62
7
  6
CONTINUOUS
 10
126.8282189375
 20
308.2421563531
 11
126.8116259522
 21
307.9448392585
  0
LINE
  8
0
 62
7
  6
CONTINUOUS
 10
128.2998419096
 20
306.5613019771
 11
128.2832489734
 21
306.2639848264
  0
LINE
  8
0
 62
7
  6
CONTINUOUS
 10
116.6809581113
 20
297.3812013054
 11
116.7139654256
 21
297.9050107392
  0
LINE
  8
0
 62
7
  6
CONTINUOUS
 10
125.2885773851
 20
302.7201229589
 11
125.36899064
 21
303.238774607
  0
LINE
  8
0
 62
7
  6
CONTINUOUS
 10
128.7820882608
 20
305.8523601406
 11
128.8853479051
 21
306.3669505305
  0
LINE
  8
0
 62
7
  6
CONTINUOUS
 10
143.3661856263
 20
319.9318923366
 11
143.2949855139
 21
319.6427533751
  0
LINE
  8
0
 62
7
  6
CONTINUOUS
 10
150.518801185
 20
322.522598135
 11
150.6159503607
 21
322.8040814076
  0
LINE
  8
0
 62
7
  6
CONTINUOUS
 10
143.709237413
 20
319.1460957357
 11
143.9057395565
 21
319.6327749801
  0
LINE
  8
0
 62
7
  6
CONTINUOUS
 10
93.9171853659
 20
257.7385969295
 11
93.6535755377
 21
257.60009821
  0
LINE
  8
0
 62
7
  6
CONTINUOUS
 10
93.8397032088
 20
257.1093602087
 11
94.103313037
 21
257.2478589283
  0
LINE
  8
0
 62
7
  6
CONTINUOUS
 10
93.1453068385
 20
255.9037745452
 11
93.2893240669
 21
255.6431384023
  0
LINE
  8
0
 62
7
  6
CONTINUOUS
 10
93.696951209
 20
255.5210012645
 11
93.5529339806
 21
255.7816374074
  0
LINE
  8
0
 62
7
  6
CONTINUOUS
 10
103.3934443685
 20
280.0856218696
 11
103.4761018447
 21
279.7995457781
  0
LINE
  8
0
 62
7
  6
CONTINUOUS
 10
105.9078842012
 20
284.2077701002
 11
105.9778160102
 21
283.9183200516
  0
LINE
  8
0
 62
7
  6
CONTINUOUS
 10
107.8020320474
 20
283.0232239668
 11
107.8719639196
 21
282.7337738787
  0
LINE
  8
0
 62
7
  6
CONTINUOUS
 10
112.1857232362
 20
288.8195851109
 11
111.4582494745
 21
293.8292774183
  0
LINE
  8
0
 62
7
  6
CONTINUOUS
 10
104.082991939
 20
279.5760298945
 11
104.0102795931
 21
280.0958170822
  0
LINE
  8
0
 62
7
  6
CONTINUOUS
 10
110.9731770503
 20
293.5442456622
 11
111.6374690665
 21
288.4517377142
  0
LINE
  8
0
 62
7
  6
CONTINUOUS
 10
127.4137248594
 20
308.0478049906
 11
127.3685352638
 21
308.5738197413
  0
LINE
  8
0
 62
7
  6
CONTINUOUS
 10
128.8853479051
 20
306.3669505305
 11
128.840158285
 21
306.8929653092
  0
LINE
  8
0
 62
7
  6
CONTINUOUS
 10
143.9057395565
 20
319.6327749801
 11
143.958450124
 21
320.158089375
  0
LINE
  8
0
 62
7
  6
CONTINUOUS
 10
149.3768712833
 20
324.6890974716
 11
149.2766994973
 21
324.1707354063
  0
LINE
  8
0
 62
7
  6
CONTINUOUS
 10
153.506877339
 20
322.0550089305
 11
153.6070491091
 21
322.5733710294
  0
LINE
  8
0
 62
7
  6
CONTINUOUS
 10
94.2608161087
 20
250.6532874953
 11
94.6482003651
 21
250.8756514296
  0
LINE
  8
0
 62
7
  6
CONTINUOUS
 10
97.4250888556
 20
266.5086737706
 11
99.1072489556
 21
263.8962090288
  0
LINE
  8
0
 62
7
  6
CONTINUOUS
 10
95.8412296286
 20
269.0804657469
 11
97.1513666854
 21
266.9601267481
  0
LINE
  8
0
 62
7
  6
CONTINUOUS
 10
99.3462079524
 20
264.4737240484
 11
98.0360704398
 21
266.5940619457
  0
LINE
  8
0
 62
7
  6
CONTINUOUS
 10
97.6640478524
 20
267.0861887902
 11
96.0801886253
 21
269.6579807665
  0
LINE
  8
0
 62
7
  6
CONTINUOUS
 10
95.1957685454
 20
252.5630569356
 11
94.9652992559
 21
252.9456743925
  0
LINE
  8
0
 62
7
  6
CONTINUOUS
 10
104.0102795931
 20
280.0958170822
 11
103.793691359
 21
280.5772972524
  0
LINE
  8
0
 62
7
  6
CONTINUOUS
 10
106.5245672036
 20
284.1906905439
 11
106.3294726117
 21
284.6812735824
  0
LINE
  8
0
 62
7
  6
CONTINUOUS
 10
108.4187151445
 20
283.0061443512
 11
108.223620521
 21
283.4967274095
  0
LINE
  8
0
 62
7
  6
CONTINUOUS
 10
111.9009012934
 20
295.535085216
 11
112.0820549609
 21
294.5799109982
  0
LINE
  8
0
 62
7
  6
CONTINUOUS
 10
112.7410671256
 20
294.0413824997
 11
112.5599132274
 21
294.9965569061
  0
LINE
  8
0
 62
7
  6
CONTINUOUS
 10
123.8245102394
 20
304.8529389099
 11
123.7561143713
 21
305.3764421311
  0
LINE
  8
0
 62
7
  6
CONTINUOUS
 10
125.36899064
 20
303.238774607
 11
125.3005947461
 21
303.7622778551
  0
LINE
  8
0
 62
7
  6
CONTINUOUS
 10
149.7899004726
 20
324.0607602347
 11
149.8414933617
 21
324.4383786217
  0
LINE
  8
0
 62
7
  6
CONTINUOUS
 10
153.0938481019
 20
322.6833462684
 11
153.0422552447
 21
322.3057278141
  0
LINE
  8
0
 62
7
  6
CONTINUOUS
 10
94.4177311403
 20
251.2582690621
 11
94.0564993415
 21
251.1367353532
  0
LINE
  8
0
 62
7
  6
CONTINUOUS
 10
94.4504213313
 20
253.079219099
 11
94.7070431184
 21
252.7974317994
  0
LINE
  8
0
 62
7
  6
CONTINUOUS
 10
114.2131521973
 20
296.4916049254
 11
114.1093280713
 21
296.8583200875
  0
LINE
  8
0
 62
7
  6
CONTINUOUS
 10
116.7139654256
 20
297.9050107392
 11
116.6101412996
 21
298.2717259013
  0
LINE
  8
0
 62
7
  6
CONTINUOUS
 10
118.5472117666
 20
296.4463642341
 11
118.4433876406
 21
296.8130793961
  0
LINE
  8
0
 62
7
  6
CONTINUOUS
 10
149.2766994973
 20
324.1707354063
 11
149.3162193089
 21
323.6008465212
  0
LINE
  8
0
 62
7
  6
CONTINUOUS
 10
153.6070491091
 20
322.5733710294
 11
153.5675293932
 21
323.1432597126
  0
LINE
  8
0
 62
7
  6
CONTINUOUS
 10
103.2940294975
 20
273.2029933952
 11
100.4298411129
 21
276.2716405944
  0
LINE
  8
0
 62
7
  6
CONTINUOUS
 10
116.0155938914
 20
298.2370198927
 11
116.1996407152
 21
297.8004358948
  0
LINE
  8
0
 62
7
  6
CONTINUOUS
 10
117.9290628741
 20
296.7085046006
 11
118.0210831542
 21
296.490209006
  0
LINE
  8
DEFAULT_3
 62
2
  6
PHANTOM
 10
185.3643688601
 20
259.9525308627
 11
163.1996308128
 21
237.7877928154
  0
LINE
  8
DEFAULT_3
 62
2
  6
PHANTOM
 10
193.7317063065
 20
266.0571266094
 11
189.4890656194
 21
261.8144859223
  0
LINE
  8
DEFAULT_3
 62
2
  6
PHANTOM
 10
157.0950350661
 20
229.420455369
 11
161.3376757532
 21
233.6630960561
  0
LINE
  8
DEFAULT_3
 62
2
  6
PHANTOM
 10
163.1996308128
 20
212.7885085576
 11
185.3643688601
 21
190.6237705102
  0
LINE
  8
DEFAULT_3
 62
2
  6
PHANTOM
 10
189.4890656194
 20
188.7618154507
 11
193.7317063065
 21
184.5191747636
  0
LINE
  8
DEFAULT_3
 62
2
  6
PHANTOM
 10
161.3376757532
 20
216.9132053169
 11
157.0950350661
 21
221.155846004
  0
LINE
  8
0
 62
7
  6
CONTINUOUS
 10
99.3388412804
 20
276.4694009592
 11
102.631745106
 21
273.069110521
  0
LINE
  8
0
 62
7
  6
CONTINUOUS
 10
103.1669110042
 20
280.3333909436
 11
103.3934443685
 21
280.0856218696
  0
LINE
  8
0
 62
7
  6
CONTINUOUS
 10
103.793691359
 20
280.5772972524
 11
103.5671579947
 21
280.8250663264
  0
LINE
  8
0
 62
7
  6
CONTINUOUS
 10
105.6925239079
 20
284.4653100451
 11
105.9078842012
 21
284.2077701002
  0
LINE
  8
0
 62
7
  6
CONTINUOUS
 10
106.3294726117
 20
284.6812735824
 11
106.1141123183
 21
284.9388135273
  0
LINE
  8
0
 62
7
  6
CONTINUOUS
 10
107.586671754
 20
283.2807639117
 11
107.8020320474
 21
283.0232239668
  0
LINE
  8
0
 62
7
  6
CONTINUOUS
 10
108.223620521
 20
283.4967274095
 11
108.0082601645
 21
283.7542673939
  0
LINE
  8
0
 62
7
  6
CONTINUOUS
 10
113.6186079209
 20
296.4569025125
 11
113.8710704649
 21
296.0988656504
  0
LINE
  8
0
 62
7
  6
CONTINUOUS
 10
116.6101412996
 20
298.2717259013
 11
116.3576787556
 21
298.6297627634
  0
LINE
  8
0
 62
7
  6
CONTINUOUS
 10
118.4433876406
 20
296.8130793961
 11
118.2711446065
 21
297.1012438756
  0
LINE
  8
0
 62
7
  6
CONTINUOUS
 10
123.0856084466
 20
305.3238285471
 11
123.230986013
 21
305.0212203092
  0
LINE
  8
0
 62
7
  6
CONTINUOUS
 10
123.7561143713
 20
305.3764421311
 11
123.6107368049
 21
305.6790503691
  0
LINE
  8
0
 62
7
  6
CONTINUOUS
 10
124.63008877
 20
303.7096643249
 11
124.7754663364
 21
303.407056087
  0
LINE
  8
0
 62
7
  6
CONTINUOUS
 10
125.3005947461
 20
303.7622778551
 11
125.1552171282
 21
304.0648861469
  0
LINE
  8
0
 62
7
  6
CONTINUOUS
 10
126.6963590769
 20
308.5508946884
 11
126.8282189375
 21
308.2421563531
  0
LINE
  8
0
 62
7
  6
CONTINUOUS
 10
127.3685352638
 20
308.5738197413
 11
127.2366754032
 21
308.8825580765
  0
LINE
  8
0
 62
7
  6
CONTINUOUS
 10
128.167982049
 20
306.8700403124
 11
128.2998419096
 21
306.5613019771
  0
LINE
  8
0
 62
7
  6
CONTINUOUS
 10
128.840158285
 20
306.8929653092
 11
128.7082983753
 21
307.2017037005
  0
LINE
  8
0
 62
7
  6
CONTINUOUS
 10
143.2936023745
 20
320.2596712979
 11
143.3661856263
 21
319.9318923366
  0
LINE
  8
0
 62
7
  6
CONTINUOUS
 10
143.958450124
 20
320.158089375
 11
143.8858668722
 21
320.4858683363
  0
LINE
  8
0
 62
7
  6
CONTINUOUS
 10
146.55728755
 20
320.005824287
 11
146.0394317586
 21
322.9825795256
  0
LINE
  8
0
 62
7
  6
CONTINUOUS
 10
146.894841378
 20
318.258094374
 11
146.66468608
 21
319.581098148
  0
LINE
  8
0
 62
7
  6
CONTINUOUS
 10
145.4719409413
 20
323.1632376353
 11
146.3427171536
 21
317.9652055882
  0
LINE
  8
0
 62
7
  6
CONTINUOUS
 10
149.8324342764
 20
323.7277460583
 11
149.7899004726
 21
324.0607602347
  0
LINE
  8
0
 62
7
  6
CONTINUOUS
 10
150.561334925
 20
322.1895840933
 11
150.518801185
 21
322.522598135
  0
LINE
  8
0
 62
7
  6
CONTINUOUS
 10
153.0513144257
 20
323.0163601755
 11
153.0938481019
 21
322.6833462684
  0
LINE
  8
SURFACE
 62
7
  6
CONTINUOUS
 10
175.8244700034
 20
356.4440344073
 11
175.8244700034
 21
353.5358006865
  0
LINE
  8
0
 62
7
  6
CONTINUOUS
 10
145.7732274561
 20
106.0415517064
 11
145.0772415713
 21
103.217825972
  0
LINE
  8
SURFACE
 62
7
  6
CONTINUOUS
 10
239.3001449356
 20
351.6632036242
 11
237.9486213358
 21
349.0880905521
  0
LINE
  8
0
 62
7
  6
CONTINUOUS
 10
96.3232550954
 20
143.9083252386
 11
94.3947394197
 21
141.7314810404
  0
LINE
  8
SURFACE
 62
7
  6
CONTINUOUS
 10
293.2833009402
 20
317.9313711975
 11
290.8898715097
 21
316.2793061455
  0
LINE
  8
0
 62
7
  6
CONTINUOUS
 10
70.1350462111
 20
200.4182360476
 11
67.4158004446
 21
199.3869621576
  0
LINE
  8
0
 62
7
  6
CONTINUOUS
 10
327.833164331
 20
218.8678487506
 11
330.7201937536
 21
219.2183975887
  0
LINE
  8
SURFACE
 62
7
  6
CONTINUOUS
 10
65.0078282244
 20
219.2183975887
 11
67.894857647
 21
218.8678487506
  0
LINE
  8
0
 62
7
  6
CONTINUOUS
 10
309.9623178836
 20
159.2035784419
 11
312.6815636501
 21
158.1723045518
  0
LINE
  8
SURFACE
 62
7
  6
CONTINUOUS
 10
77.4049485017
 20
281.6549979118
 11
79.7983779322
 21
280.0029328597
  0
LINE
  8
0
 62
7
  6
CONTINUOUS
 10
266.4111002577
 20
114.678487229
 11
268.3396159334
 21
112.5016430308
  0
LINE
  8
SURFACE
 62
7
  6
CONTINUOUS
 10
117.3977883057
 20
331.1786328297
 11
118.7493119055
 21
328.6035197576
  0
LINE
  8
0
 62
7
  6
CONTINUOUS
 10
149.3162193089
 20
323.6008465212
 11
149.5409781313
 21
322.8832921565
  0
LINE
  8
0
 62
7
  6
CONTINUOUS
 10
150.0116368123
 20
323.1063268081
 11
149.8324342764
 21
323.7277460583
  0
LINE
  8
0
 62
7
  6
CONTINUOUS
 10
207.1565705623
 20
95.4927369233
 11
207.8525564471
 21
92.6690111889
  0
LINE
  8
0
 62
2
  6
CONTINUOUS
 10
197.864010989
 20
226.7731506865
 11
197.864010989
 21
223.8031506865
  0
LINE
  8
DEFAULT_1
 62
2
  6
CENTER
 10
197.864010989
 20
217.8631506865
 11
197.864010989
 21
89.831826147
  0
LINE
  8
DEFAULT_1
 62
2
  6
CENTER
 10
197.864010989
 20
232.7131506865
 11
197.864010989
 21
360.744475226
  0
LINE
  8
0
 62
2
  6
CONTINUOUS
 10
199.349010989
 20
225.2881506865
 11
196.379010989
 21
225.2881506865
  0
LINE
  8
DEFAULT_1
 62
2
  6
CENTER
 10
190.439010989
 20
225.2881506865
 11
62.4076864495
 21
225.2881506865
  0
LINE
  8
DEFAULT_1
 62
2
  6
CENTER
 10
205.289010989
 20
225.2881506865
 11
333.3203355285
 21
225.2881506865
  0
LINE
  8
0
 62
7
  6
CONTINUOUS
 10
91.5311460491
 20
251.1460594059
 11
93.5906576032
 21
250.6118806172
  0
LINE
  8
0
 62
7
  6
CONTINUOUS
 10
93.7214201225
 20
251.1160318958
 11
91.6619085684
 21
251.6502106845
  0
LINE
  8
0
 62
7
  6
CONTINUOUS
 10
92.1849586362
 20
253.6668157628
 11
94.4504213313
 21
253.079219099
  0
LINE
  8
0
 62
7
  6
CONTINUOUS
 10
94.9930862327
 20
253.4765347168
 11
92.3157211836
 21
254.1709671496
  0
LINE
  8
0
 62
7
  6
CONTINUOUS
 10
92.6302993252
 20
255.2968910325
 11
95.8913167476
 21
254.3197938443
  0
LINE
  8
0
 62
7
  6
CONTINUOUS
 10
96.0408075616
 20
254.8187126364
 11
93.696951209
 21
255.5210012645
  0
LINE
  8
0
 62
7
  6
CONTINUOUS
 10
93.2893240669
 20
255.6431384023
 11
92.7797901392
 21
255.7958098246
  0
LINE
  8
0
 62
7
  6
CONTINUOUS
 10
94.6427451788
 20
257.1949714357
 11
96.5789743893
 21
256.6148199454
  0
LINE
  8
0
 62
7
  6
CONTINUOUS
 10
96.7284651177
 20
257.1137384521
 11
94.7922359073
 21
257.6938899423
  0
LINE
  8
0
 62
7
  6
CONTINUOUS
 10
92.2373330791
 20
259.454812359
 11
92.7430444869
 21
259.2899203985
  0
LINE
  8
0
 62
7
  6
CONTINUOUS
 10
93.7544675857
 20
258.960136385
 11
96.9910208788
 21
257.9048277451
  0
LINE
  8
0
 62
7
  6
CONTINUOUS
 10
97.1524775478
 20
258.4000033686
 11
93.9159242548
 21
259.4553120086
  0
LINE
  8
0
 62
7
  6
CONTINUOUS
 10
92.9045011559
 20
259.785096022
 11
92.3987897482
 21
259.9499879826
  0
LINE
  8
0
 62
7
  6
CONTINUOUS
 10
98.9232089158
 20
269.4722213615
 11
99.4072584671
 21
269.2517002129
  0
LINE
  8
0
 62
7
  6
CONTINUOUS
 10
100.0118540169
 20
270.5788028809
 11
99.5278044656
 21
270.7993240294
  0
LINE
  8
0
 62
7
  6
CONTINUOUS
 10
97.517010065
 20
272.8383078356
 11
101.9860477557
 21
270.596054032
  0
LINE
  8
0
 62
7
  6
CONTINUOUS
 10
102.2663294811
 20
271.1546837433
 11
98.7481507603
 21
272.9198623264
  0
LINE
  8
0
 62
7
  6
CONTINUOUS
 10
100.2809778785
 20
278.2556250457
 11
104.6333009033
 21
275.7944699738
  0
LINE
  8
0
 62
7
  6
CONTINUOUS
 10
104.9409452873
 20
276.3385103519
 11
102.9962902912
 21
277.4381753996
  0
LINE
  8
0
 62
7
  6
CONTINUOUS
 10
102.4406746521
 20
277.7523653714
 11
101.051635295
 21
278.5378404474
  0
LINE
  8
0
 62
7
  6
CONTINUOUS
 10
102.8891029252
 20
280.4904860762
 11
103.1669110042
 21
280.3333909436
  0
LINE
  8
0
 62
7
  6
CONTINUOUS
 10
102.7175717708
 20
282.5171363068
 11
106.9568552682
 21
279.8660091072
  0
LINE
  8
0
 62
7
  6
CONTINUOUS
 10
106.7470610421
 20
280.7343613137
 11
105.3940981956
 21
281.5804657567
  0
LINE
  8
0
 62
7
  6
CONTINUOUS
 10
104.8529131328
 20
281.9189074866
 11
103.5901477336
 21
282.7086050142
  0
LINE
  8
0
 62
7
  6
CONTINUOUS
 10
105.5121288869
 20
284.578123955
 11
105.6925239079
 21
284.4653100451
  0
LINE
  8
0
 62
7
  6
CONTINUOUS
 10
107.3160792226
 20
283.4499847766
 11
107.586671754
 21
283.2807639117
  0
LINE
  8
0
 62
7
  6
CONTINUOUS
 10
108.338889363
 20
290.9682916094
 11
108.7617841437
 21
290.6456565352
  0
LINE
  8
0
 62
7
  6
CONTINUOUS
 10
111.6374690665
 20
288.4517377142
 11
112.3141007748
 21
287.9355215502
  0
LINE
  8
0
 62
7
  6
CONTINUOUS
 10
112.0820549609
 20
294.5799109982
 11
112.7410671256
 21
294.0413824997
  0
LINE
  8
0
 62
7
  6
CONTINUOUS
 10
112.5599132274
 20
294.9965569061
 11
115.772596867
 21
292.3712310181
  0
LINE
  8
0
 62
7
  6
CONTINUOUS
 10
116.1680786417
 20
292.8551929648
 11
112.2963830682
 21
296.0190471627
  0
LINE
  8
0
 62
7
  6
CONTINUOUS
 10
115.6995178106
 20
296.5783661555
 11
116.0203960747
 21
296.2988764292
  0
LINE
  8
0
 62
7
  6
CONTINUOUS
 10
115.8551545346
 20
298.3767649516
 11
116.0155938914
 21
298.2370198927
  0
LINE
  8
0
 62
7
  6
CONTINUOUS
 10
117.60818461
 20
296.9879943268
 11
117.9290628741
 21
296.7085046006
  0
LINE
  8
0
 62
7
  6
CONTINUOUS
 10
116.3576787556
 20
298.6297627634
 11
116.1972393988
 21
298.7695078223
  0
LINE
  8
0
 62
7
  6
CONTINUOUS
 10
119.7227838898
 20
304.1674909086
 11
123.1794781283
 21
300.5548374597
  0
LINE
  8
0
 62
7
  6
CONTINUOUS
 10
123.1897796949
 20
301.4481140404
 11
122.086579383
 21
302.6010885694
  0
LINE
  8
0
 62
7
  6
CONTINUOUS
 10
121.6452993201
 20
303.0622783164
 11
120.6156456338
 21
304.1383879414
  0
LINE
  8
0
 62
7
  6
CONTINUOUS
 10
122.9385150923
 20
305.4775584628
 11
123.0856084466
 21
305.3238285471
  0
LINE
  8
0
 62
7
  6
CONTINUOUS
 10
124.4094487385
 20
303.9402591984
 11
124.63008877
 21
303.7096643249
  0
LINE
  8
0
 62
7
  6
CONTINUOUS
 10
123.2857097534
 20
307.5443277874
 11
126.5793422924
 21
303.782415415
  0
LINE
  8
0
 62
7
  6
CONTINUOUS
 10
126.6291176116
 20
304.6743636138
 11
125.5779582687
 21
305.8749739705
  0
LINE
  8
0
 62
7
  6
CONTINUOUS
 10
125.1574945905
 20
306.3552180459
 11
124.1764124782
 21
307.4757877794
  0
LINE
  8
0
 62
7
  6
CONTINUOUS
 10
126.5562045175
 20
308.7109760468
 11
126.6963590769
 21
308.5508946884
  0
LINE
  8
0
 62
7
  6
CONTINUOUS
 10
127.9577502099
 20
307.11016235
 11
128.167982049
 21
306.8700403124
  0
LINE
  8
0
 62
7
  6
CONTINUOUS
 10
139.7557385024
 20
319.9001497366
 11
142.2981430329
 21
315.5947834104
  0
LINE
  8
0
 62
7
  6
CONTINUOUS
 10
142.8363138237
 20
315.9125839767
 11
141.7003458259
 21
317.83625832
  0
LINE
  8
0
 62
7
  6
CONTINUOUS
 10
141.3757835841
 20
318.3858794876
 11
140.564377828
 21
319.7599326632
  0
LINE
  8
0
 62
7
  6
CONTINUOUS
 10
143.131321102
 20
320.5344821384
 11
143.2936023745
 21
320.2596712979
  0
LINE
  8
0
 62
7
  6
CONTINUOUS
 10
149.5409781313
 20
322.8832921565
 11
149.8598721371
 21
322.2103463558
  0
LINE
  8
0
 62
7
  6
CONTINUOUS
 10
150.1027493854
 20
322.9140565793
 11
150.0116368123
 21
323.1063268081
  0
LINE
  8
0
 62
7
  6
CONTINUOUS
 10
150.6980037846
 20
321.9011787501
 11
150.561334925
 21
322.1895840933
  0
LINE
  8
0
 62
7
  6
CONTINUOUS
 10
152.914645566
 20
323.3047655186
 11
153.0513144257
 21
323.0163601755
  0
LINE
  8
0
 62
7
  6
CONTINUOUS
 10
100.4298411129
 20
276.2716405944
 11
103.9480198338
 21
274.5064620113
  0
LINE
  8
0
 62
7
  6
CONTINUOUS
 10
104.2283015592
 20
275.0650917227
 11
99.7592638686
 21
277.3073455262
  0
LINE
  8
0
 62
7
  6
CONTINUOUS
 10
103.5671579947
 20
280.8250663264
 11
103.1967473092
 21
281.0345264543
  0
LINE
  8
0
 62
7
  6
CONTINUOUS
 10
108.0082601645
 20
283.7542673939
 11
107.5572726121
 21
284.0363021687
  0
LINE
  8
0
 62
7
  6
CONTINUOUS
 10
106.1141123183
 20
284.9388135273
 11
105.7533220238
 21
285.1644415052
  0
LINE
  8
0
 62
7
  6
CONTINUOUS
 10
114.8414081934
 20
291.248196463
 11
114.3339343974
 21
291.6353585972
  0
LINE
  8
0
 62
7
  6
CONTINUOUS
 10
111.4582494745
 20
293.8292774183
 11
110.8661967816
 21
294.2809665222
  0
LINE
  8
0
 62
7
  6
CONTINUOUS
 10
118.2711446065
 20
297.1012438756
 11
117.9502663424
 21
297.3807336018
  0
LINE
  8
0
 62
7
  6
CONTINUOUS
 10
125.1552171282
 20
304.0648861469
 11
124.7874837425
 21
304.4492109361
  0
LINE
  8
0
 62
7
  6
CONTINUOUS
 10
123.6107368049
 20
305.6790503691
 11
123.3165498902
 21
305.9865104158
  0
LINE
  8
0
 62
7
  6
CONTINUOUS
 10
128.7082983753
 20
307.2017037005
 11
128.3579119767
 21
307.6019070967
  0
LINE
  8
0
 62
7
  6
CONTINUOUS
 10
127.2366754032
 20
308.8825580765
 11
126.9563660881
 21
309.2027210177
  0
LINE
  8
0
 62
7
  6
CONTINUOUS
 10
149.8598721371
 20
322.2103463558
 11
150.2729013902
 21
321.5820089842
  0
LINE
  8
0
 62
7
  6
CONTINUOUS
 10
143.8858668722
 20
320.4858683363
 11
143.6694918928
 21
320.8522827047
  0
LINE
  8
0
 62
7
  6
CONTINUOUS
 10
153.5675293932
 20
323.1432597126
 11
153.3397478967
 21
323.6239354192
  0
LINE
  8
0
 62
7
  6
CONTINUOUS
 10
219.9035519746
 20
353.5358006865
 11
219.9035519746
 21
356.4440344073
  0
LINE
  8
SURFACE
 62
7
  6
CONTINUOUS
 10
187.8754655309
 20
92.6690111889
 11
188.5714514157
 21
95.4927369233
  0
LINE
  8
0
 62
7
  6
CONTINUOUS
 10
276.9787100725
 20
328.6035197576
 11
278.3302336723
 21
331.1786328297
  0
LINE
  8
SURFACE
 62
7
  6
CONTINUOUS
 10
127.3884060446
 20
112.5016430308
 11
129.3169217204
 21
114.678487229
  0
LINE
  8
0
 62
7
  6
CONTINUOUS
 10
315.9296440458
 20
280.0029328597
 11
318.3230734763
 21
281.6549979118
  0
LINE
  8
SURFACE
 62
7
  6
CONTINUOUS
 10
83.046458328
 20
158.1723045518
 11
85.7657040944
 21
159.2035784419
  0
LINE
  8
SURFACE
 62
7
  6
CONTINUOUS
 10
325.4070475441
 20
262.9760934236
 11
322.5200181215
 21
262.6255445855
  0
LINE
  8
0
 62
7
  6
CONTINUOUS
 10
93.5906576032
 20
250.6118806172
 11
94.0287124625
 21
250.6058751093
  0
LINE
  8
0
 62
7
  6
CONTINUOUS
 10
95.4311410483
 20
253.4705291145
 11
94.9930862327
 21
253.4765347168
  0
LINE
  8
0
 62
7
  6
CONTINUOUS
 10
94.103313037
 20
257.2478589283
 11
94.6427451788
 21
257.1949714357
  0
LINE
  8
0
 62
7
  6
CONTINUOUS
 10
94.7922359073
 20
257.6938899423
 11
94.2528039366
 21
257.7467780059
  0
LINE
  8
0
 62
7
  6
CONTINUOUS
 10
73.2080038565
 20
262.6255445855
 11
70.3209744339
 21
262.9760934236
  0
LINE
  8
SURFACE
 62
7
  6
CONTINUOUS
 10
328.3122215334
 20
199.3869621576
 11
325.5929757669
 21
200.4182360476
  0
LINE
  8
0
 62
7
  6
CONTINUOUS
 10
104.8381504683
 20
316.2793061455
 11
102.4447210378
 21
317.9313711975
  0
LINE
  8
SURFACE
 62
7
  6
CONTINUOUS
 10
301.3332825584
 20
141.7314810404
 11
299.4047668826
 21
143.9083252386
  0
LINE
  8
0
 62
7
  6
CONTINUOUS
 10
157.7794006422
 20
349.0880905521
 11
156.4278770424
 21
351.6632036242
  0
LINE
  8
SURFACE
 62
7
  6
CONTINUOUS
 10
250.6507804067
 20
103.217825972
 11
249.9547945219
 21
106.0415517064
  0
LINE
  8
DEFAULT_3
 62
2
  6
PHANTOM
 10
238.6329869119
 20
221.155846004
 11
234.3903462248
 21
216.9132053169
  0
LINE
  8
DEFAULT_3
 62
2
  6
PHANTOM
 10
201.9963156715
 20
184.5191747636
 11
206.2389563586
 21
188.7618154507
  0
LINE
  8
DEFAULT_3
 62
2
  6
PHANTOM
 10
232.5283911653
 20
212.7885085576
 11
210.3636531179
 21
190.6237705102
  0
LINE
  8
0
 62
7
  6
CONTINUOUS
 10
94.0564993415
 20
251.1367353532
 11
93.7214201225
 21
251.1160318958
  0
LINE
  8
0
 62
7
  6
CONTINUOUS
 10
94.2528039366
 20
257.7467780059
 11
93.9171853659
 21
257.7385969295
  0
LINE
  8
0
 62
7
  6
CONTINUOUS
 10
98.7481507603
 20
272.9198623264
 11
102.9203198174
 21
272.4581523595
  0
LINE
  8
0
 62
7
  6
CONTINUOUS
 10
102.631745106
 20
273.069110521
 11
97.9374326532
 21
273.6762524026
  0
LINE
  8
0
 62
7
  6
CONTINUOUS
 10
102.5600206505
 20
280.5569069739
 11
102.8891029252
 21
280.4904860762
  0
LINE
  8
0
 62
7
  6
CONTINUOUS
 10
103.1967473092
 20
281.0345264543
 11
102.8676650345
 21
281.100947352
  0
LINE
  8
0
 62
7
  6
CONTINUOUS
 10
106.9902543269
 20
283.5308866405
 11
107.3160792226
 21
283.4499847766
  0
LINE
  8
0
 62
7
  6
CONTINUOUS
 10
107.5572726121
 20
284.0363021687
 11
107.2314477163
 21
284.1172040327
  0
LINE
  8
0
 62
7
  6
CONTINUOUS
 10
105.1863038648
 20
284.659025898
 11
105.5121288869
 21
284.578123955
  0
LINE
  8
0
 62
7
  6
CONTINUOUS
 10
105.7533220238
 20
285.1644415052
 11
105.4274972543
 21
285.2453432901
  0
LINE
  8
0
 62
7
  6
CONTINUOUS
 10
115.8081411005
 20
294.2735038364
 11
116.1172187067
 21
294.1424372243
  0
LINE
  8
0
 62
7
  6
CONTINUOUS
 10
117.9502663424
 20
297.3807336018
 11
117.5609722459
 21
297.5816762901
  0
LINE
  8
0
 62
7
  6
CONTINUOUS
 10
116.1972393988
 20
298.7695078223
 11
115.8079454147
 21
298.9704504126
  0
LINE
  8
0
 62
7
  6
CONTINUOUS
 10
124.1135461389
 20
304.0988408152
 11
124.4094487385
 21
303.9402591984
  0
LINE
  8
0
 62
7
  6
CONTINUOUS
 10
124.7874837425
 20
304.4492109361
 11
124.4915811429
 21
304.6077925528
  0
LINE
  8
0
 62
7
  6
CONTINUOUS
 10
122.6426123897
 20
305.6361401872
 11
122.9385150923
 21
305.4775584628
  0
LINE
  8
0
 62
7
  6
CONTINUOUS
 10
123.3165498902
 20
305.9865104158
 11
123.0206473937
 21
306.1450919248
  0
LINE
  8
0
 62
7
  6
CONTINUOUS
 10
127.6691462941
 20
307.2816682023
 11
127.9577502099
 21
307.11016235
  0
LINE
  8
0
 62
7
  6
CONTINUOUS
 10
128.3579119767
 20
307.6019070967
 11
128.0693080609
 21
307.7734129489
  0
LINE
  8
0
 62
7
  6
CONTINUOUS
 10
126.2676005035
 20
308.8824820112
 11
126.5562045175
 21
308.7109760468
  0
LINE
  8
0
 62
7
  6
CONTINUOUS
 10
126.9563660881
 20
309.2027210177
 11
126.6677622704
 21
309.3742267578
  0
LINE
  8
0
 62
7
  6
CONTINUOUS
 10
142.8793421121
 20
320.7563243447
 11
143.131321102
 21
320.5344821384
  0
LINE
  8
0
 62
7
  6
CONTINUOUS
 10
143.6694918928
 20
320.8522827047
 11
143.4175129028
 21
321.074124911
  0
LINE
  8
0
 62
7
  6
CONTINUOUS
 10
150.2729013902
 20
321.5820089842
 11
150.6889446036
 21
321.1905463887
  0
LINE
  8
0
 62
7
  6
CONTINUOUS
 10
150.0235481247
 20
319.9177989827
 11
146.2081037656
 21
323.5537545265
  0
LINE
  8
0
 62
7
  6
CONTINUOUS
 10
148.5050973532
 20
320.5573926107
 11
149.4714239003
 21
319.624910197
  0
LINE
  8
0
 62
7
  6
CONTINUOUS
 10
146.0394317586
 20
322.9825795256
 11
148.2136602233
 21
320.8844906441
  0
LINE
  8
DEFAULT_3
 62
2
  6
PHANTOM
 10
234.3903462248
 20
233.6630960561
 11
238.6329869119
 21
229.420455369
  0
LINE
  8
DEFAULT_3
 62
2
  6
PHANTOM
 10
206.2389563586
 20
261.8144859223
 11
201.9963156715
 21
266.0571266094
  0
LINE
  8
DEFAULT_3
 62
2
  6
PHANTOM
 10
210.3636531179
 20
259.9525308627
 11
232.5283911653
 21
237.7877928154
  0
LINE
  8
0
 62
7
  6
CONTINUOUS
 10
150.9288078277
 20
321.6573819708
 11
150.6980037846
 21
321.9011787501
  0
LINE
  8
0
 62
7
  6
CONTINUOUS
 10
152.6838414592
 20
323.5485624326
 11
152.914645566
 21
323.3047655186
  0
LINE
  8
0
 62
7
  6
CONTINUOUS
 10
152.3314728624
 20
325.2651547038
 11
152.1006688193
 21
325.5089514831
  0
LINE
  8
0
 62
7
  6
CONTINUOUS
 10
94.0287124625
 20
250.6058751093
 11
94.2608161087
 21
250.6532874953
  0
LINE
  8
0
 62
7
  6
CONTINUOUS
 10
95.6632447617
 20
253.5179416852
 11
95.4311410483
 21
253.4705291145
  0
LINE
  8
0
 62
7
  6
CONTINUOUS
 10
94.9652992559
 20
252.9456743925
 11
95.5324822143
 21
253.0137902984
  0
LINE
  8
0
 62
7
  6
CONTINUOUS
 10
116.3790808168
 20
294.6050489798
 11
116.1502259647
 21
294.666246707
  0
LINE
  8
0
 62
7
  6
CONTINUOUS
 10
117.1504716615
 20
297.1103862835
 11
117.60818461
 21
296.9879943268
  0
LINE
  8
0
 62
7
  6
CONTINUOUS
 10
153.3397478967
 20
323.6239354192
 11
152.9237047151
 21
324.0153979474
  0
LINE
  8
0
 62
7
  6
CONTINUOUS
 10
94.4871287988
 20
265.807881003
 11
97.4250888556
 21
266.5086737706
  0
LINE
  8
0
 62
7
  6
CONTINUOUS
 10
98.0360704398
 20
266.5940619457
 11
100.4613497854
 21
267.1687937727
  0
LINE
  8
0
 62
7
  6
CONTINUOUS
 10
97.1513666854
 20
266.9601267481
 11
94.7260877956
 21
266.3853960226
  0
LINE
  8
0
 62
7
  6
CONTINUOUS
 10
100.7003087821
 20
267.7463087923
 11
97.6640478524
 21
267.0861887902
  0
LINE
  8
0
 62
7
  6
CONTINUOUS
 10
116.1172187067
 20
294.1424372243
 11
116.4947088449
 21
294.0899142014
  0
LINE
  8
0
 62
7
  6
CONTINUOUS
 10
117.5609722459
 20
297.5816762901
 11
117.1834789757
 21
297.6341957173
  0
LINE
  8
0
 62
7
  6
CONTINUOUS
 10
115.4776643963
 20
298.4292879745
 11
115.8551545346
 21
298.3767649516
  0
LINE
  8
0
 62
7
  6
CONTINUOUS
 10
150.6889446036
 20
321.1905463887
 11
151.153566698
 21
320.9398275052
  0
LINE
  8
0
 62
7
  6
CONTINUOUS
 10
151.253738468
 20
321.4581896041
 11
150.9288078277
 21
321.6573819708
  0
LINE
  8
0
 62
7
  6
CONTINUOUS
 10
151.5358749549
 20
325.2413082678
 11
151.8608055634
 21
325.0421159684
  0
LINE
  8
0
 62
7
  6
CONTINUOUS
 10
106.699396094
 20
283.4670644119
 11
106.9902543269
 21
283.5308866405
  0
LINE
  8
0
 62
7
  6
CONTINUOUS
 10
102.8676650345
 20
281.100947352
 11
102.3434324165
 21
281.0383871441
  0
LINE
  8
0
 62
7
  6
CONTINUOUS
 10
107.2314477163
 20
284.1172040327
 11
106.7049622245
 21
284.077876634
  0
LINE
  8
0
 62
7
  6
CONTINUOUS
 10
105.4274972543
 20
285.2453432901
 11
104.9010117624
 21
285.2060158914
  0
LINE
  8
0
 62
7
  6
CONTINUOUS
 10
116.6763545771
 20
294.6224019351
 11
116.3790808168
 21
294.6050489798
  0
LINE
  8
0
 62
7
  6
CONTINUOUS
 10
123.8159244091
 20
304.1085407054
 11
124.1135461389
 21
304.0988408152
  0
LINE
  8
0
 62
7
  6
CONTINUOUS
 10
127.3722441899
 20
307.3045138246
 11
127.6691462941
 21
307.2816682023
  0
LINE
  8
0
 62
7
  6
CONTINUOUS
 10
124.4915811429
 20
304.6077925528
 11
123.9716035937
 21
304.6992089942
  0
LINE
  8
0
 62
7
  6
CONTINUOUS
 10
123.0206473937
 20
306.1450919248
 11
122.5006698445
 21
306.2365083662
  0
LINE
  8
0
 62
7
  6
CONTINUOUS
 10
128.0693080609
 20
307.7734129489
 11
127.5538794188
 21
307.8877236322
  0
LINE
  8
0
 62
7
  6
CONTINUOUS
 10
126.6677622704
 20
309.3742267578
 11
126.1523336283
 21
309.4885374411
  0
LINE
  8
0
 62
7
  6
CONTINUOUS
 10
152.4044671373
 20
323.6516196176
 11
152.6838414592
 21
323.5485624326
  0
LINE
  8
0
 62
7
  6
CONTINUOUS
 10
152.9237047151
 20
324.0153979474
 11
152.5046389233
 21
324.1699816829
  0
LINE
  8
0
 62
7
  6
CONTINUOUS
 10
143.4175129028
 20
321.074124911
 11
142.9320526796
 21
321.2816387396
  0
LINE
  8
0
 62
7
  6
CONTINUOUS
 10
152.1006688193
 20
325.5089514831
 11
151.636046741
 21
325.759670333
  0
LINE
  8
0
 62
7
  6
CONTINUOUS
 10
102.2722677007
 20
280.4802908636
 11
102.5600206505
 21
280.5569069739
  0
LINE
  8
0
 62
7
  6
CONTINUOUS
 10
116.4947088449
 20
294.0899142014
 11
116.8603982972
 21
294.1858143171
  0
LINE
  8
0
 62
7
  6
CONTINUOUS
 10
116.7847822373
 20
297.0144861434
 11
117.1504716615
 21
297.1103862835
  0
LINE
  8
0
 62
7
  6
CONTINUOUS
 10
104.8954456319
 20
284.5952036693
 11
105.1863038648
 21
284.659025898
  0
LINE
  8
0
 62
7
  6
CONTINUOUS
 10
122.5006698445
 20
306.2365083662
 11
121.9789765074
 21
306.1790464854
  0
LINE
  8
0
 62
7
  6
CONTINUOUS
 10
126.1523336283
 20
309.4885374411
 11
125.6286102873
 21
309.4541911475
  0
LINE
  8
0
 62
7
  6
CONTINUOUS
 10
115.8079454147
 20
298.9704504126
 11
115.2133980064
 21
298.9357444041
  0
LINE
  8
0
 62
7
  6
CONTINUOUS
 10
122.3449906599
 20
305.6458400774
 11
122.6426123897
 21
305.6361401872
  0
LINE
  8
0
 62
7
  6
CONTINUOUS
 10
125.9706983994
 20
308.9053276335
 11
126.2676005035
 21
308.8824820112
  0
LINE
  8
0
 62
7
  6
CONTINUOUS
 10
142.9320526796
 20
321.2816387396
 11
142.4109882942
 21
321.3445806628
  0
LINE
  8
0
 62
7
  6
CONTINUOUS
 10
151.6272479733
 20
321.399740983
 11
151.253738468
 21
321.4581896041
  0
LINE
  8
0
 62
7
  6
CONTINUOUS
 10
142.5917671718
 20
320.8335994949
 11
142.8793421121
 21
320.7563243447
  0
LINE
  8
0
 62
7
  6
CONTINUOUS
 10
115.1119749721
 20
298.3333878344
 11
115.4776643963
 21
298.4292879745
  0
LINE
  8
0
 62
7
  6
CONTINUOUS
 10
127.5538794188
 20
307.8877236322
 11
127.3270545944
 21
307.8305285753
  0
LINE
  8
0
 62
7
  6
CONTINUOUS
 10
151.9552011921
 20
321.4374274763
 11
151.6272479733
 21
321.399740983
  0
LINE
  8
0
 62
7
  6
CONTINUOUS
 10
151.153566698
 20
320.9398275052
 11
151.7608942506
 21
320.8744567882
  0
LINE
  8
0
 62
7
  6
CONTINUOUS
 10
152.5046389233
 20
324.1699816829
 11
151.8973027646
 21
324.2353482906
  0
LINE
  8
0
 62
7
  6
CONTINUOUS
 10
151.636046741
 20
325.759670333
 11
151.0287192003
 21
325.8250410247
  0
LINE
  8
0
 62
7
  6
CONTINUOUS
 10
152.030957632
 20
323.7100682387
 11
152.4044671373
 21
323.6516196176
  0
LINE
  8
0
 62
7
  6
CONTINUOUS
 10
151.1623654497
 20
325.2997568889
 11
151.5358749549
 21
325.2413082678
  0
LINE
  8
0
 62
7
  6
CONTINUOUS
 10
151.7608942506
 20
320.8744567882
 11
152.2771178401
 21
321.0013604008
  0
LINE
  8
0
 62
7
  6
CONTINUOUS
 10
151.8973027646
 20
324.2353482906
 11
151.3810877971
 21
324.1084487535
  0
LINE
  8
0
 62
7
  6
CONTINUOUS
 10
151.0287192003
 20
325.8250410247
 11
150.5124956147
 21
325.6981374037
  0
LINE
  8
0
 62
7
  6
CONTINUOUS
 10
142.2685880695
 20
320.7663027397
 11
142.5917671718
 21
320.8335994949
  0
LINE
  8
0
 62
7
  6
CONTINUOUS
 10
151.7030044132
 20
323.6723817454
 11
152.030957632
 21
323.7100682387
  0
LINE
  8
0
 62
7
  6
CONTINUOUS
 10
150.8344122309
 20
325.2620703956
 11
151.1623654497
 21
325.2997568889
  0
LINE
  8
SURFACE
 62
7
  6
CONTINUOUS
 10
297.6329646847
 20
153.5767369188
 11
310.6513324483
 21
187.9033515734
  0
LINE
  8
0
 62
7
  6
CONTINUOUS
 10
319.240228656
 20
210.5504096214
 11
320.0956084879
 21
212.8058608735
  0
LINE
  8
SURFACE
 62
7
  6
CONTINUOUS
 10
252.8790765341
 20
115.4259026248
 11
280.3586419623
 21
139.7706732491
  0
LINE
  8
0
 62
7
  6
CONTINUOUS
 10
298.4883445167
 20
155.832188171
 11
300.2939062034
 21
157.431776244
  0
LINE
  8
SURFACE
 62
7
  6
CONTINUOUS
 10
229.5367890921
 20
344.0029606865
 11
192.8244700034
 21
344.0029606865
  0
LINE
  8
0
 62
7
  6
CONTINUOUS
 10
168.60343831
 20
344.0029606865
 11
166.1912328859
 21
344.0029606865
  0
LINE
  8
SURFACE
 62
7
  6
CONTINUOUS
 10
281.0783862814
 20
315.6858206277
 11
248.5712421286
 21
332.7468860077
  0
LINE
  8
0
 62
7
  6
CONTINUOUS
 10
227.1245836681
 20
344.0029606865
 11
224.9886818402
 21
345.1239684428
  0
LINE
  8
SURFACE
 62
7
  6
CONTINUOUS
 10
313.5565729331
 20
266.6596637955
 11
292.701598688
 21
296.873310085
  0
LINE
  8
0
 62
7
  6
CONTINUOUS
 10
278.9424844535
 20
316.806828384
 11
277.5721955902
 21
318.7920345293
  0
LINE
  8
SURFACE
 62
7
  6
CONTINUOUS
 10
319.5309878899
 20
208.1557918907
 11
315.1058068225
 21
244.6004368388
  0
LINE
  8
0
 62
7
  6
CONTINUOUS
 10
312.1862840698
 20
268.6448699407
 11
311.8955248359
 21
271.0394876713
  0
POLYLINE
  8
SURFACE
 62
7
  6
CONTINUOUS
 66
1
 70
0
  0
VERTEX
  8
SURFACE
 62
7
  6
CONTINUOUS
 10
460.3283432211
 20
91.8322895606
  0
VERTEX
  8
SURFACE
 62
7
  6
CONTINUOUS
 10
460.3549948146
 20
91.8328538259
  0
VERTEX
  8
SURFACE
 62
7
  6
CONTINUOUS
 10
460.3813816243
 20
91.8341136099
  0
VERTEX
  8
SURFACE
 62
7
  6
CONTINUOUS
 10
460.4074895256
 20
91.8360492774
  0
VERTEX
  8
SURFACE
 62
7
  6
CONTINUOUS
 10
460.4333053738
 20
91.8386413004
  0
VERTEX
  8
SURFACE
 62
7
  6
CONTINUOUS
 10
460.4588169692
 20
91.8418702901
  0
VERTEX
  8
SURFACE
 62
7
  6
CONTINUOUS
 10
460.4840130219
 20
91.8457170259
  0
VERTEX
  8
SURFACE
 62
7
  6
CONTINUOUS
 10
460.5088831164
 20
91.8501624826
  0
VERTEX
  8
SURFACE
 62
7
  6
CONTINUOUS
 10
460.5334176773
 20
91.8551878549
  0
VERTEX
  8
SURFACE
 62
7
  6
CONTINUOUS
 10
460.5576079342
 20
91.8607745802
  0
VERTEX
  8
SURFACE
 62
7
  6
CONTINUOUS
 10
460.581445888
 20
91.866904359
  0
VERTEX
  8
SURFACE
 62
7
  6
CONTINUOUS
 10
460.6049242767
 20
91.8735591733
  0
VERTEX
  8
SURFACE
 62
7
  6
CONTINUOUS
 10
460.6280365423
 20
91.8807213035
  0
VERTEX
  8
SURFACE
 62
7
  6
CONTINUOUS
 10
460.6507767983
 20
91.8883733431
  0
VERTEX
  8
SURFACE
 62
7
  6
CONTINUOUS
 10
460.6731397969
 20
91.8964982119
  0
VERTEX
  8
SURFACE
 62
7
  6
CONTINUOUS
 10
460.6951208982
 20
91.9050791674
  0
VERTEX
  8
SURFACE
 62
7
  6
CONTINUOUS
 10
460.7167160386
 20
91.9140998152
  0
VERTEX
  8
SURFACE
 62
7
  6
CONTINUOUS
 10
460.7379217011
 20
91.9235441173
  0
VERTEX
  8
SURFACE
 62
7
  6
CONTINUOUS
 10
460.7587348853
 20
91.9333963996
  0
VERTEX
  8
SURFACE
 62
7
  6
CONTINUOUS
 10
460.7791530794
 20
91.9436413575
  0
VERTEX
  8
SURFACE
 62
7
  6
CONTINUOUS
 10
460.7991742313
 20
91.9542640611
  0
VERTEX
  8
SURFACE
 62
7
  6
CONTINUOUS
 10
460.8187967219
 20
91.9652499586
  0
VERTEX
  8
SURFACE
 62
7
  6
CONTINUOUS
 10
460.8380193384
 20
91.9765848788
  0
VERTEX
  8
SURFACE
 62
7
  6
CONTINUOUS
 10
460.8568412485
 20
91.9882550326
  0
VERTEX
  8
SURFACE
 62
7
  6
CONTINUOUS
 10
460.8752619754
 20
92.000247014
  0
VERTEX
  8
SURFACE
 62
7
  6
CONTINUOUS
 10
460.8932813741
 20
92.0125477997
  0
VERTEX
  8
SURFACE
 62
7
  6
CONTINUOUS
 10
460.9108996074
 20
92.0251447477
  0
VERTEX
  8
SURFACE
 62
7
  6
CONTINUOUS
 10
460.9281171234
 20
92.0380255959
  0
VERTEX
  8
SURFACE
 62
7
  6
CONTINUOUS
 10
460.9449346342
 20
92.0511784595
  0
VERTEX
  8
SURFACE
 62
7
  6
CONTINUOUS
 10
460.9613530941
 20
92.0645918277
  0
VERTEX
  8
SURFACE
 62
7
  6
CONTINUOUS
 10
460.9773736795
 20
92.0782545602
  0
VERTEX
  8
SURFACE
 62
7
  6
CONTINUOUS
 10
460.992997764
 20
92.0921558774
  0
VERTEX
  8
SURFACE
 62
7
  6
CONTINUOUS
 10
461.008226108
 20
92.1062846052
  0
VERTEX
  8
SURFACE
 62
7
  6
CONTINUOUS
 10
461.0230581136
 20
92.1206282925
  0
VERTEX
  8
SURFACE
 62
7
  6
CONTINUOUS
 10
461.0374933385
 20
92.135174455
  0
VERTEX
  8
SURFACE
 62
7
  6
CONTINUOUS
 10
461.0515316901
 20
92.1499107602
  0
VERTEX
  8
SURFACE
 62
7
  6
CONTINUOUS
 10
461.0651734159
 20
92.1648250358
  0
VERTEX
  8
SURFACE
 62
7
  6
CONTINUOUS
 10
461.078419093
 20
92.1799052765
  0
VERTEX
  8
SURFACE
 62
7
  6
CONTINUOUS
 10
461.0912696186
 20
92.1951396508
  0
VERTEX
  8
SURFACE
 62
7
  6
CONTINUOUS
 10
461.1037261998
 20
92.2105165075
  0
VERTEX
  8
SURFACE
 62
7
  6
CONTINUOUS
 10
461.1157903434
 20
92.2260243814
  0
VERTEX
  8
SURFACE
 62
7
  6
CONTINUOUS
 10
461.1274638461
 20
92.2416519991
  0
VERTEX
  8
SURFACE
 62
7
  6
CONTINUOUS
 10
461.1387487842
 20
92.2573882838
  0
VERTEX
  8
SURFACE
 62
7
  6
CONTINUOUS
 10
461.1496475037
 20
92.27322236
  0
VERTEX
  8
SURFACE
 62
7
  6
CONTINUOUS
 10
461.1601626101
 20
92.2891435578
  0
VERTEX
  8
SURFACE
 62
7
  6
CONTINUOUS
 10
461.1702969583
 20
92.3051414163
  0
VERTEX
  8
SURFACE
 62
7
  6
CONTINUOUS
 10
461.1800536425
 20
92.321205687
  0
VERTEX
  8
SURFACE
 62
7
  6
CONTINUOUS
 10
461.1894359863
 20
92.3373263365
  0
VERTEX
  8
SURFACE
 62
7
  6
CONTINUOUS
 10
461.1984475326
 20
92.353493548
  0
VERTEX
  8
SURFACE
 62
7
  6
CONTINUOUS
 10
461.2070920331
 20
92.3696977227
  0
VERTEX
  8
SURFACE
 62
7
  6
CONTINUOUS
 10
461.2153734387
 20
92.3859294801
  0
VERTEX
  8
SURFACE
 62
7
  6
CONTINUOUS
 10
461.2232958887
 20
92.4021796567
  0
VERTEX
  8
SURFACE
 62
7
  6
CONTINUOUS
 10
461.2308636414
 20
92.4184391727
  0
VERTEX
  8
SURFACE
 62
7
  6
CONTINUOUS
 10
461.2380796931
 20
92.4346958329
  0
VERTEX
  8
SURFACE
 62
7
  6
CONTINUOUS
 10
461.2449460093
 20
92.4509340689
  0
VERTEX
  8
SURFACE
 62
7
  6
CONTINUOUS
 10
461.2514651454
 20
92.4671382049
  0
VERTEX
  8
SURFACE
 62
7
  6
CONTINUOUS
 10
461.257640309
 20
92.4832926454
  0
VERTEX
  8
SURFACE
 62
7
  6
CONTINUOUS
 10
461.2634753455
 20
92.4993819019
  0
VERTEX
  8
SURFACE
 62
7
  6
CONTINUOUS
 10
461.2689747203
 20
92.5153906176
  0
VERTEX
  8
SURFACE
 62
7
  6
CONTINUOUS
 10
461.2741434989
 20
92.5313035861
  0
VERTEX
  8
SURFACE
 62
7
  6
CONTINUOUS
 10
461.2789873217
 20
92.5471057535
  0
VERTEX
  8
SURFACE
 62
7
  6
CONTINUOUS
 10
461.2835123718
 20
92.5627821928
  0
VERTEX
  8
SURFACE
 62
7
  6
CONTINUOUS
 10
461.2877253324
 20
92.5783180243
  0
VERTEX
  8
SURFACE
 62
7
  6
CONTINUOUS
 10
461.2916333305
 20
92.5936982424
  0
VERTEX
  8
SURFACE
 62
7
  6
CONTINUOUS
 10
461.2952436719
 20
92.6089065579
  0
VERTEX
  8
SURFACE
 62
7
  6
CONTINUOUS
 10
461.2985628616
 20
92.6239203642
  0
VERTEX
  8
SURFACE
 62
7
  6
CONTINUOUS
 10
461.30159868
 20
92.6387188209
  0
VERTEX
  8
SURFACE
 62
7
  6
CONTINUOUS
 10
461.3043600636
 20
92.6532831649
  0
VERTEX
  8
SURFACE
 62
7
  6
CONTINUOUS
 10
461.3068568062
 20
92.66759606
  0
VERTEX
  8
SURFACE
 62
7
  6
CONTINUOUS
 10
461.3090991335
 20
92.6816396635
  0
VERTEX
  8
SURFACE
 62
7
  6
CONTINUOUS
 10
461.3110965803
 20
92.6953874008
  0
VERTEX
  8
SURFACE
 62
7
  6
CONTINUOUS
 10
461.3128529392
 20
92.7087587458
  0
VERTEX
  8
SURFACE
 62
7
  6
CONTINUOUS
 10
461.3143756368
 20
92.7216719076
  0
VERTEX
  8
SURFACE
 62
7
  6
CONTINUOUS
 10
461.3156970437
 20
92.734262386
  0
VERTEX
  8
SURFACE
 62
7
  6
CONTINUOUS
 10
461.316834323
 20
92.7465758146
  0
VERTEX
  8
SURFACE
 62
7
  6
CONTINUOUS
 10
461.3177591541
 20
92.7580792561
  0
SEQEND
  0
LINE
  8
SURFACE
 62
7
  6
CONTINUOUS
 10
460.3283432211
 20
91.8322895606
 11
449.559271978
 21
91.8322584196
  0
LINE
  8
0
 62
7
  6
CONTINUOUS
 10
438.7980345842
 20
91.8322584196
 11
449.559271978
 21
91.8322584196
  0
LINE
  8
0
 62
7
  6
CONTINUOUS
 10
438.7977726441
 20
101.8545787413
 11
449.559271978
 21
101.8545787413
  0
POLYLINE
  8
SURFACE
 62
7
  6
CONTINUOUS
 66
1
 70
0
  0
VERTEX
  8
SURFACE
 62
7
  6
CONTINUOUS
 10
460.3210372724
 20
112.1310783965
  0
VERTEX
  8
SURFACE
 62
7
  6
CONTINUOUS
 10
460.3395937906
 20
112.1312505778
  0
VERTEX
  8
SURFACE
 62
7
  6
CONTINUOUS
 10
460.3820421287
 20
112.1329408621
  0
VERTEX
  8
SURFACE
 62
7
  6
CONTINUOUS
 10
460.4237739654
 20
112.1363696223
  0
VERTEX
  8
SURFACE
 62
7
  6
CONTINUOUS
 10
460.4647364479
 20
112.1414566076
  0
VERTEX
  8
SURFACE
 62
7
  6
CONTINUOUS
 10
460.5048828211
 20
112.1481226325
  0
VERTEX
  8
SURFACE
 62
7
  6
CONTINUOUS
 10
460.5441720537
 20
112.1562898631
  0
VERTEX
  8
SURFACE
 62
7
  6
CONTINUOUS
 10
460.5825684676
 20
112.1658820658
  0
VERTEX
  8
SURFACE
 62
7
  6
CONTINUOUS
 10
460.6200413735
 20
112.1768248204
  0
VERTEX
  8
SURFACE
 62
7
  6
CONTINUOUS
 10
460.6565647145
 20
112.1890457
  0
VERTEX
  8
SURFACE
 62
7
  6
CONTINUOUS
 10
460.6921167208
 20
112.2024744217
  0
VERTEX
  8
SURFACE
 62
7
  6
CONTINUOUS
 10
460.7266795655
 20
112.2170429651
  0
VERTEX
  8
SURFACE
 62
7
  6
CONTINUOUS
 10
460.7602390472
 20
112.2326856707
  0
VERTEX
  8
SURFACE
 62
7
  6
CONTINUOUS
 10
460.7927842803
 20
112.249339315
  0
VERTEX
  8
SURFACE
 62
7
  6
CONTINUOUS
 10
460.8243073946
 20
112.2669431632
  0
VERTEX
  8
SURFACE
 62
7
  6
CONTINUOUS
 10
460.8548032473
 20
112.2854390017
  0
VERTEX
  8
SURFACE
 62
7
  6
CONTINUOUS
 10
460.8842691473
 20
112.3047711532
  0
VERTEX
  8
SURFACE
 62
7
  6
CONTINUOUS
 10
460.9127045929
 20
112.3248864752
  0
VERTEX
  8
SURFACE
 62
7
  6
CONTINUOUS
 10
460.9401110216
 20
112.3457343433
  0
VERTEX
  8
SURFACE
 62
7
  6
CONTINUOUS
 10
460.966491573
 20
112.3672666205
  0
VERTEX
  8
SURFACE
 62
7
  6
CONTINUOUS
 10
460.9918508619
 20
112.389437612
  0
VERTEX
  8
SURFACE
 62
7
  6
CONTINUOUS
 10
461.016193749
 20
112.4122030259
  0
VERTEX
  8
SURFACE
 62
7
  6
CONTINUOUS
 10
461.0395189048
 20
112.4355131291
  0
VERTEX
  8
SURFACE
 62
7
  6
CONTINUOUS
 10
461.0618238664
 20
112.4593158807
  0
VERTEX
  8
SURFACE
 62
7
  6
CONTINUOUS
 10
461.0831086332
 20
112.4835601658
  0
VERTEX
  8
SURFACE
 62
7
  6
CONTINUOUS
 10
461.1033755756
 20
112.5081959155
  0
VERTEX
  8
SURFACE
 62
7
  6
CONTINUOUS
 10
461.1226293292
 20
112.5331742077
  0
VERTEX
  8
SURFACE
 62
7
  6
CONTINUOUS
 10
461.1408766826
 20
112.5584473583
  0
VERTEX
  8
SURFACE
 62
7
  6
CONTINUOUS
 10
461.1581264573
 20
112.583968993
  0
VERTEX
  8
SURFACE
 62
7
  6
CONTINUOUS
 10
461.1743893675
 20
112.6096940793
  0
VERTEX
  8
SURFACE
 62
7
  6
CONTINUOUS
 10
461.1896778524
 20
112.6355788839
  0
VERTEX
  8
SURFACE
 62
7
  6
CONTINUOUS
 10
461.2040058633
 20
112.6615807952
  0
VERTEX
  8
SURFACE
 62
7
  6
CONTINUOUS
 10
461.2173885811
 20
112.6876578982
  0
VERTEX
  8
SURFACE
 62
7
  6
CONTINUOUS
 10
461.2298420728
 20
112.7137682038
  0
VERTEX
  8
SURFACE
 62
7
  6
CONTINUOUS
 10
461.241380791
 20
112.7398634457
  0
VERTEX
  8
SURFACE
 62
7
  6
CONTINUOUS
 10
461.2520169456
 20
112.7658845751
  0
VERTEX
  8
SURFACE
 62
7
  6
CONTINUOUS
 10
461.2617720499
 20
112.7917889717
  0
VERTEX
  8
SURFACE
 62
7
  6
CONTINUOUS
 10
461.270671661
 20
112.8175423855
  0
VERTEX
  8
SURFACE
 62
7
  6
CONTINUOUS
 10
461.2787440971
 20
112.8431184417
  0
VERTEX
  8
SURFACE
 62
7
  6
CONTINUOUS
 10
461.2860181626
 20
112.8684937618
  0
VERTEX
  8
SURFACE
 62
7
  6
CONTINUOUS
 10
461.2925174018
 20
112.8936251859
  0
VERTEX
  8
SURFACE
 62
7
  6
CONTINUOUS
 10
461.2982475589
 20
112.918378899
  0
VERTEX
  8
SURFACE
 62
7
  6
CONTINUOUS
 10
461.3031662255
 20
112.9423117314
  0
VERTEX
  8
SURFACE
 62
7
  6
CONTINUOUS
 10
461.307371817
 20
112.9655734454
  0
VERTEX
  8
SURFACE
 62
7
  6
CONTINUOUS
 10
461.3109760068
 20
112.988528972
  0
VERTEX
  8
SURFACE
 62
7
  6
CONTINUOUS
 10
461.3139495554
 20
113.0106778337
  0
VERTEX
  8
SURFACE
 62
7
  6
CONTINUOUS
 10
461.3162771319
 20
113.0312228532
  0
VERTEX
  8
SURFACE
 62
7
  6
CONTINUOUS
 10
461.318095102
 20
113.0504347798
  0
VERTEX
  8
SURFACE
 62
7
  6
CONTINUOUS
 10
461.3194796196
 20
113.068019816
  0
VERTEX
  8
SURFACE
 62
7
  6
CONTINUOUS
 10
461.3206192864
 20
113.0853320869
  0
SEQEND
  0
LINE
  8
SURFACE
 62
7
  6
CONTINUOUS
 10
460.3210412797
 20
112.1310779549
 11
449.559271978
 21
112.1310779549
  0
LINE
  8
0
 62
7
  6
CONTINUOUS
 10
437.559271978
 20
125.2881506865
 11
430.409271978
 21
125.2881506865
  0
LINE
  8
SURFACE
 62
7
  6
CONTINUOUS
 10
461.559271978
 20
125.2881506865
 11
468.709271978
 21
125.2881506865
  0
LINE
  8
0
 62
7
  6
CONTINUOUS
 10
438.6539667218
 20
135.9577967633
 11
449.559271978
 21
135.9577967633
  0
POLYLINE
  8
SURFACE
 62
7
  6
CONTINUOUS
 66
1
 70
0
  0
VERTEX
  8
SURFACE
 62
7
  6
CONTINUOUS
 10
460.3222454167
 20
158.1008228253
  0
VERTEX
  8
SURFACE
 62
7
  6
CONTINUOUS
 10
460.3376907869
 20
158.1009421016
  0
VERTEX
  8
SURFACE
 62
7
  6
CONTINUOUS
 10
460.4067831909
 20
158.1044022201
  0
VERTEX
  8
SURFACE
 62
7
  6
CONTINUOUS
 10
460.473137953
 20
158.1122715804
  0
VERTEX
  8
SURFACE
 62
7
  6
CONTINUOUS
 10
460.5366481372
 20
158.1240752547
  0
VERTEX
  8
SURFACE
 62
7
  6
CONTINUOUS
 10
460.5972590033
 20
158.1393787049
  0
VERTEX
  8
SURFACE
 62
7
  6
CONTINUOUS
 10
460.6549585251
 20
158.157788973
  0
VERTEX
  8
SURFACE
 62
7
  6
CONTINUOUS
 10
460.7097688948
 20
158.1789548099
  0
VERTEX
  8
SURFACE
 62
7
  6
CONTINUOUS
 10
460.7617389457
 20
158.2025659767
  0
VERTEX
  8
SURFACE
 62
7
  6
CONTINUOUS
 10
460.8109363979
 20
158.2283513279
  0
VERTEX
  8
SURFACE
 62
7
  6
CONTINUOUS
 10
460.8573945545
 20
158.2560466
  0
VERTEX
  8
SURFACE
 62
7
  6
CONTINUOUS
 10
460.9010959863
 20
158.2853657782
  0
VERTEX
  8
SURFACE
 62
7
  6
CONTINUOUS
 10
460.9420407743
 20
158.3160303452
  0
VERTEX
  8
SURFACE
 62
7
  6
CONTINUOUS
 10
460.9802499293
 20
158.3477733017
  0
VERTEX
  8
SURFACE
 62
7
  6
CONTINUOUS
 10
461.0157632094
 20
158.3803401522
  0
VERTEX
  8
SURFACE
 62
7
  6
CONTINUOUS
 10
461.0486462233
 20
158.4134993974
  0
VERTEX
  8
SURFACE
 62
7
  6
CONTINUOUS
 10
461.079003068
 20
158.4470646966
  0
VERTEX
  8
SURFACE
 62
7
  6
CONTINUOUS
 10
461.1069477995
 20
158.4808751756
  0
VERTEX
  8
SURFACE
 62
7
  6
CONTINUOUS
 10
461.1325969748
 20
158.5147892583
  0
VERTEX
  8
SURFACE
 62
7
  6
CONTINUOUS
 10
461.156075248
 20
158.5486942093
  0
VERTEX
  8
SURFACE
 62
7
  6
CONTINUOUS
 10
461.177525057
 20
158.5825280439
  0
VERTEX
  8
SURFACE
 62
7
  6
CONTINUOUS
 10
461.1970841188
 20
158.6162548235
  0
VERTEX
  8
SURFACE
 62
7
  6
CONTINUOUS
 10
461.2148798864
 20
158.6498563775
  0
VERTEX
  8
SURFACE
 62
7
  6
CONTINUOUS
 10
461.2310278251
 20
158.6833277356
  0
VERTEX
  8
SURFACE
 62
7
  6
CONTINUOUS
 10
461.2456234793
 20
158.7166558763
  0
VERTEX
  8
SURFACE
 62
7
  6
CONTINUOUS
 10
461.258705932
 20
158.7497095408
  0
VERTEX
  8
SURFACE
 62
7
  6
CONTINUOUS
 10
461.2703427957
 20
158.7824162838
  0
VERTEX
  8
SURFACE
 62
7
  6
CONTINUOUS
 10
461.2806228357
 20
158.8147751291
  0
VERTEX
  8
SURFACE
 62
7
  6
CONTINUOUS
 10
461.2896410876
 20
158.8468451652
  0
VERTEX
  8
SURFACE
 62
7
  6
CONTINUOUS
 10
461.297474087
 20
158.8786743476
  0
VERTEX
  8
SURFACE
 62
7
  6
CONTINUOUS
 10
461.3041241269
 20
158.9099922825
  0
VERTEX
  8
SURFACE
 62
7
  6
CONTINUOUS
 10
461.3095384341
 20
158.9400041001
  0
VERTEX
  8
SURFACE
 62
7
  6
CONTINUOUS
 10
461.3139250151
 20
158.969160495
  0
VERTEX
  8
SURFACE
 62
7
  6
CONTINUOUS
 10
461.3173977049
 20
158.9975408152
  0
VERTEX
  8
SURFACE
 62
7
  6
CONTINUOUS
 10
461.3187221558
 20
159.0103827351
  0
SEQEND
  0
LINE
  8
SURFACE
 62
7
  6
CONTINUOUS
 10
460.3222468538
 20
158.1008224188
 11
449.559271978
 21
158.1008224188
  0
POLYLINE
  8
0
 62
7
  6
CONTINUOUS
 66
1
 70
0
  0
VERTEX
  8
0
 62
7
  6
CONTINUOUS
 10
437.8854648001
 20
102.4450345576
  0
VERTEX
  8
0
 62
7
  6
CONTINUOUS
 10
437.9316981586
 20
102.3546425752
  0
VERTEX
  8
0
 62
7
  6
CONTINUOUS
 10
437.9998687733
 20
102.2517835841
  0
VERTEX
  8
0
 62
7
  6
CONTINUOUS
 10
438.0811855855
 20
102.1570762248
  0
VERTEX
  8
0
 62
7
  6
CONTINUOUS
 10
438.1736868006
 20
102.0732211815
  0
VERTEX
  8
0
 62
7
  6
CONTINUOUS
 10
438.2754398961
 20
102.0018369372
  0
VERTEX
  8
0
 62
7
  6
CONTINUOUS
 10
438.3849228394
 20
101.9437804982
  0
VERTEX
  8
0
 62
7
  6
CONTINUOUS
 10
438.5005946921
 20
101.8997579089
  0
VERTEX
  8
0
 62
7
  6
CONTINUOUS
 10
438.6208739873
 20
101.8703509645
  0
VERTEX
  8
0
 62
7
  6
CONTINUOUS
 10
438.7441358399
 20
101.8560192218
  0
VERTEX
  8
0
 62
7
  6
CONTINUOUS
 10
438.7977773593
 20
101.8545795089
  0
SEQEND
  0
LINE
  8
0
 62
7
  6
CONTINUOUS
 10
437.8854648001
 20
102.4450345576
 11
437.8860872156
 21
102.4436511056
  0
LINE
  8
0
 62
7
  6
CONTINUOUS
 10
462.559271978
 20
335.2881506865
 11
461.559271978
 21
333.5560998789
  0
LINE
  8
0
 62
7
  6
CONTINUOUS
 10
438.559271978
 20
189.1928397127
 11
449.559271978
 21
189.1928397127
  0
POLYLINE
  8
0
 62
7
  6
CONTINUOUS
 66
1
 70
0
  0
VERTEX
  8
0
 62
7
  6
CONTINUOUS
 10
437.7338001836
 20
102.9362883247
  0
VERTEX
  8
0
 62
7
  6
CONTINUOUS
 10
437.7989921876
 20
102.6804695809
  0
VERTEX
  8
0
 62
7
  6
CONTINUOUS
 10
437.8858684542
 20
102.4442453636
  0
SEQEND
  0
LINE
  8
0
 62
7
  6
CONTINUOUS
 10
437.6756731913
 20
103.2421996722
 11
437.7338001836
 21
102.9362883247
  0
POLYLINE
  8
0
 62
7
  6
CONTINUOUS
 66
1
 70
0
  0
VERTEX
  8
0
 62
7
  6
CONTINUOUS
 10
437.6652948682
 20
103.3216786385
  0
VERTEX
  8
0
 62
7
  6
CONTINUOUS
 10
437.6673968826
 20
103.301660845
  0
VERTEX
  8
0
 62
7
  6
CONTINUOUS
 10
437.6702046006
 20
103.2787367587
  0
VERTEX
  8
0
 62
7
  6
CONTINUOUS
 10
437.6741270375
 20
103.2517074578
  0
VERTEX
  8
0
 62
7
  6
CONTINUOUS
 10
437.6756784287
 20
103.2421687205
  0
SEQEND
  0
POLYLINE
  8
0
 62
7
  6
CONTINUOUS
 66
1
 70
0
  0
VERTEX
  8
0
 62
7
  6
CONTINUOUS
 10
437.6469230574
 20
136.9388426624
  0
VERTEX
  8
0
 62
7
  6
CONTINUOUS
 10
437.6497877028
 20
136.9084645062
  0
VERTEX
  8
0
 62
7
  6
CONTINUOUS
 10
437.6529456533
 20
136.8791731872
  0
VERTEX
  8
0
 62
7
  6
CONTINUOUS
 10
437.6567190075
 20
136.8489999832
  0
VERTEX
  8
0
 62
7
  6
CONTINUOUS
 10
437.6615614152
 20
136.8161678176
  0
VERTEX
  8
0
 62
7
  6
CONTINUOUS
 10
437.6681175079
 20
136.7790463668
  0
VERTEX
  8
0
 62
7
  6
CONTINUOUS
 10
437.6770580696
 20
136.7371512795
  0
VERTEX
  8
0
 62
7
  6
CONTINUOUS
 10
437.6889602255
 20
136.6909942503
  0
VERTEX
  8
0
 62
7
  6
CONTINUOUS
 10
437.7042772704
 20
136.6414963048
  0
VERTEX
  8
0
 62
7
  6
CONTINUOUS
 10
437.7233016703
 20
136.5897464898
  0
VERTEX
  8
0
 62
7
  6
CONTINUOUS
 10
437.7464398616
 20
136.5362394159
  0
VERTEX
  8
0
 62
7
  6
CONTINUOUS
 10
437.7740434951
 20
136.4815388829
  0
VERTEX
  8
0
 62
7
  6
CONTINUOUS
 10
437.8064298545
 20
136.4262158937
  0
VERTEX
  8
0
 62
7
  6
CONTINUOUS
 10
437.8438495565
 20
136.3708999255
  0
VERTEX
  8
0
 62
7
  6
CONTINUOUS
 10
437.8865552894
 20
136.316172447
  0
VERTEX
  8
0
 62
7
  6
CONTINUOUS
 10
437.93473484
 20
136.2626773673
  0
VERTEX
  8
0
 62
7
  6
CONTINUOUS
 10
437.9885098616
 20
136.2111027446
  0
VERTEX
  8
0
 62
7
  6
CONTINUOUS
 10
438.0479559019
 20
136.1621531909
  0
VERTEX
  8
0
 62
7
  6
CONTINUOUS
 10
438.1130945867
 20
136.1165593725
  0
VERTEX
  8
0
 62
7
  6
CONTINUOUS
 10
438.183865999
 20
136.0750936702
  0
VERTEX
  8
0
 62
7
  6
CONTINUOUS
 10
438.2601156719
 20
136.0385645395
  0
VERTEX
  8
0
 62
7
  6
CONTINUOUS
 10
438.3415830862
 20
136.007807017
  0
VERTEX
  8
0
 62
7
  6
CONTINUOUS
 10
438.4278959389
 20
135.9836694413
  0
VERTEX
  8
0
 62
7
  6
CONTINUOUS
 10
438.5185575269
 20
135.967001581
  0
VERTEX
  8
0
 62
7
  6
CONTINUOUS
 10
438.6129373268
 20
135.958638505
  0
VERTEX
  8
0
 62
7
  6
CONTINUOUS
 10
438.6539707482
 20
135.9577968201
  0
SEQEND
  0
LINE
  8
0
 62
7
  6
CONTINUOUS
 10
437.56240303
 20
137.9794493053
 11
437.6469230574
 21
136.9388426624
  0
POLYLINE
  8
0
 62
7
  6
CONTINUOUS
 66
1
 70
0
  0
VERTEX
  8
0
 62
7
  6
CONTINUOUS
 10
437.6595132203
 20
103.395194357
  0
VERTEX
  8
0
 62
7
  6
CONTINUOUS
 10
437.6608069935
 20
103.3761316575
  0
VERTEX
  8
0
 62
7
  6
CONTINUOUS
 10
437.6621468863
 20
103.3579867326
  0
VERTEX
  8
0
 62
7
  6
CONTINUOUS
 10
437.6636060858
 20
103.3400972932
  0
VERTEX
  8
0
 62
7
  6
CONTINUOUS
 10
437.6652948682
 20
103.3216786385
  0
SEQEND
  0
POLYLINE
  8
0
 62
7
  6
CONTINUOUS
 66
1
 70
0
  0
VERTEX
  8
0
 62
7
  6
CONTINUOUS
 10
437.5624030167
 20
137.9794493342
  0
VERTEX
  8
0
 62
7
  6
CONTINUOUS
 10
437.5606643372
 20
138.0057685982
  0
VERTEX
  8
0
 62
7
  6
CONTINUOUS
 10
437.5596201349
 20
138.0321351946
  0
SEQEND
  0
LINE
  8
0
 62
7
  6
CONTINUOUS
 10
437.6568822632
 20
103.4382273994
 11
437.6595132203
 21
103.395194357
  0
POLYLINE
  8
0
 62
7
  6
CONTINUOUS
 66
1
 70
0
  0
VERTEX
  8
0
 62
7
  6
CONTINUOUS
 10
437.799296539
 20
92.781650468
  0
VERTEX
  8
0
 62
7
  6
CONTINUOUS
 10
437.799779033
 20
92.7730292046
  0
VERTEX
  8
0
 62
7
  6
CONTINUOUS
 10
437.8004212779
 20
92.763117761
  0
VERTEX
  8
0
 62
7
  6
CONTINUOUS
 10
437.801209759
 20
92.7525880169
  0
VERTEX
  8
0
 62
7
  6
CONTINUOUS
 10
437.8021904475
 20
92.7411661626
  0
VERTEX
  8
0
 62
7
  6
CONTINUOUS
 10
437.8033270765
 20
92.729507389
  0
VERTEX
  8
0
 62
7
  6
CONTINUOUS
 10
437.8046057951
 20
92.7178108949
  0
VERTEX
  8
0
 62
7
  6
CONTINUOUS
 10
437.806050123
 20
92.7059078725
  0
VERTEX
  8
0
 62
7
  6
CONTINUOUS
 10
437.8076860343
 20
92.6936715936
  0
VERTEX
  8
0
 62
7
  6
CONTINUOUS
 10
437.8095340398
 20
92.681055363
  0
VERTEX
  8
0
 62
7
  6
CONTINUOUS
 10
437.8115909221
 20
92.66817343
  0
VERTEX
  8
0
 62
7
  6
CONTINUOUS
 10
437.8138643192
 20
92.6550486984
  0
VERTEX
  8
0
 62
7
  6
CONTINUOUS
 10
437.8163706497
 20
92.6416545821
  0
VERTEX
  8
0
 62
7
  6
CONTINUOUS
 10
437.8191288771
 20
92.6279618195
  0
VERTEX
  8
0
 62
7
  6
CONTINUOUS
 10
437.822160228
 20
92.6139412978
  0
VERTEX
  8
0
 62
7
  6
CONTINUOUS
 10
437.8254880226
 20
92.5995654901
  0
VERTEX
  8
0
 62
7
  6
CONTINUOUS
 10
437.8291309388
 20
92.5848351578
  0
VERTEX
  8
0
 62
7
  6
CONTINUOUS
 10
437.8330972066
 20
92.569792863
  0
VERTEX
  8
0
 62
7
  6
CONTINUOUS
 10
437.837392279
 20
92.5544842829
  0
VERTEX
  8
0
 62
7
  6
CONTINUOUS
 10
437.8420194514
 20
92.53895482
  0
VERTEX
  8
0
 62
7
  6
CONTINUOUS
 10
437.8469797205
 20
92.5232496284
  0
VERTEX
  8
0
 62
7
  6
CONTINUOUS
 10
437.8522738697
 20
92.5074071754
  0
VERTEX
  8
0
 62
7
  6
CONTINUOUS
 10
437.857908496
 20
92.4914439673
  0
VERTEX
  8
0
 62
7
  6
CONTINUOUS
 10
437.8638913626
 20
92.4753720167
  0
VERTEX
  8
0
 62
7
  6
CONTINUOUS
 10
437.8702299387
 20
92.4592035592
  0
VERTEX
  8
0
 62
7
  6
CONTINUOUS
 10
437.8769313746
 20
92.4429510769
  0
VERTEX
  8
0
 62
7
  6
CONTINUOUS
 10
437.8840024802
 20
92.4266273108
  0
VERTEX
  8
0
 62
7
  6
CONTINUOUS
 10
437.8914497039
 20
92.4102452628
  0
VERTEX
  8
0
 62
7
  6
CONTINUOUS
 10
437.8992791135
 20
92.3938181943
  0
VERTEX
  8
0
 62
7
  6
CONTINUOUS
 10
437.9074963783
 20
92.3773596183
  0
VERTEX
  8
0
 62
7
  6
CONTINUOUS
 10
437.9161067517
 20
92.3608832906
  0
VERTEX
  8
0
 62
7
  6
CONTINUOUS
 10
437.9251150549
 20
92.3444031979
  0
VERTEX
  8
0
 62
7
  6
CONTINUOUS
 10
437.9345256617
 20
92.3279335442
  0
VERTEX
  8
0
 62
7
  6
CONTINUOUS
 10
437.9443424834
 20
92.3114887373
  0
VERTEX
  8
0
 62
7
  6
CONTINUOUS
 10
437.9545689547
 20
92.2950833726
  0
VERTEX
  8
0
 62
7
  6
CONTINUOUS
 10
437.9652080203
 20
92.2787322178
  0
VERTEX
  8
0
 62
7
  6
CONTINUOUS
 10
437.9762657854
 20
92.2624449123
  0
VERTEX
  8
0
 62
7
  6
CONTINUOUS
 10
437.9877712879
 20
92.246199685
  0
VERTEX
  8
0
 62
7
  6
CONTINUOUS
 10
437.9997649355
 20
92.2299652323
  0
VERTEX
  8
0
 62
7
  6
CONTINUOUS
 10
438.0122905087
 20
92.2137134841
  0
VERTEX
  8
0
 62
7
  6
CONTINUOUS
 10
438.0253951123
 20
92.1974199221
  0
VERTEX
  8
0
 62
7
  6
CONTINUOUS
 10
438.039129144
 20
92.1810639058
  0
VERTEX
  8
0
 62
7
  6
CONTINUOUS
 10
438.0535462615
 20
92.1646290322
  0
VERTEX
  8
0
 62
7
  6
CONTINUOUS
 10
438.0687033426
 20
92.1481035318
  0
VERTEX
  8
0
 62
7
  6
CONTINUOUS
 10
438.0846638089
 20
92.1314772652
  0
VERTEX
  8
0
 62
7
  6
CONTINUOUS
 10
438.1015118771
 20
92.1147290908
  0
VERTEX
  8
0
 62
7
  6
CONTINUOUS
 10
438.1193422981
 20
92.0978408672
  0
VERTEX
  8
0
 62
7
  6
CONTINUOUS
 10
438.1382524348
 20
92.0808064718
  0
VERTEX
  8
0
 62
7
  6
CONTINUOUS
 10
438.1582708949
 20
92.0636915041
  0
VERTEX
  8
0
 62
7
  6
CONTINUOUS
 10
438.179343766
 20
92.0466283964
  0
VERTEX
  8
0
 62
7
  6
CONTINUOUS
 10
438.2014039509
 20
92.0297467737
  0
VERTEX
  8
0
 62
7
  6
CONTINUOUS
 10
438.2243747519
 20
92.0131688911
  0
VERTEX
  8
0
 62
7
  6
CONTINUOUS
 10
438.2481699586
 20
91.9970085358
  0
VERTEX
  8
0
 62
7
  6
CONTINUOUS
 10
438.272695821
 20
91.9813689527
  0
VERTEX
  8
0
 62
7
  6
CONTINUOUS
 10
438.2979016213
 20
91.9663132962
  0
VERTEX
  8
0
 62
7
  6
CONTINUOUS
 10
438.3237923614
 20
91.9518673147
  0
VERTEX
  8
0
 62
7
  6
CONTINUOUS
 10
438.3503758322
 20
91.9380570543
  0
VERTEX
  8
0
 62
7
  6
CONTINUOUS
 10
438.3776592782
 20
91.9249110171
  0
VERTEX
  8
0
 62
7
  6
CONTINUOUS
 10
438.4056492084
 20
91.9124602349
  0
VERTEX
  8
0
 62
7
  6
CONTINUOUS
 10
438.4343511934
 20
91.9007383379
  0
VERTEX
  8
0
 62
7
  6
CONTINUOUS
 10
438.4637696507
 20
91.8897816167
  0
VERTEX
  8
0
 62
7
  6
CONTINUOUS
 10
438.4939076151
 20
91.8796290764
  0
VERTEX
  8
0
 62
7
  6
CONTINUOUS
 10
438.5247664957
 20
91.8703224806
  0
VERTEX
  8
0
 62
7
  6
CONTINUOUS
 10
438.5563458171
 20
91.8619063856
  0
VERTEX
  8
0
 62
7
  6
CONTINUOUS
 10
438.5886429454
 20
91.8544281613
  0
VERTEX
  8
0
 62
7
  6
CONTINUOUS
 10
438.621652798
 20
91.8479379984
  0
VERTEX
  8
0
 62
7
  6
CONTINUOUS
 10
438.6553675372
 20
91.8424888986
  0
VERTEX
  8
0
 62
7
  6
CONTINUOUS
 10
438.6897762464
 20
91.8381366465
  0
VERTEX
  8
0
 62
7
  6
CONTINUOUS
 10
438.7248645907
 20
91.8349397607
  0
VERTEX
  8
0
 62
7
  6
CONTINUOUS
 10
438.7606144598
 20
91.8329594208
  0
VERTEX
  8
0
 62
7
  6
CONTINUOUS
 10
438.7980402548
 20
91.8322588311
  0
SEQEND
  0
LINE
  8
0
 62
7
  6
CONTINUOUS
 10
437.6540517913
 20
103.489932605
 11
437.6568822632
 21
103.4382273994
  0
LINE
  8
0
 62
7
  6
CONTINUOUS
 10
437.6492841469
 20
103.5868230388
 11
437.6540517913
 21
103.489932605
  0
LINE
  8
0
 62
7
  6
CONTINUOUS
 10
437.798702967
 20
92.7942037172
 11
437.799296539
 21
92.781650468
  0
LINE
  8
0
 62
7
  6
CONTINUOUS
 10
437.5601403225
 20
105.7035167702
 11
437.6492841469
 21
103.5868230388
  0
LINE
  8
0
 62
7
  6
CONTINUOUS
 10
437.79763692
 20
92.820944742
 11
437.798702967
 21
92.7942037172
  0
LINE
  8
0
 62
7
  6
CONTINUOUS
 10
428.409271978
 20
127.2881506865
 11
428.409271978
 21
323.2881506865
  0
LINE
  8
0
 62
7
  6
CONTINUOUS
 10
437.6488449727
 20
347.4888233153
 11
437.6023801629
 21
346.3830664522
  0
LINE
  8
0
 62
7
  6
CONTINUOUS
 10
437.6629501527
 20
353.8001800874
 11
437.6558703224
 21
353.6258236265
  0
LINE
  8
0
 62
7
  6
CONTINUOUS
 10
437.6023801629
 20
346.3830664522
 11
437.5603363807
 21
345.4411121452
  0
LINE
  8
0
 62
7
  6
CONTINUOUS
 10
437.7979695461
 20
351.2856661642
 11
437.7964649082
 21
351.2522592212
  0
POLYLINE
  8
0
 62
7
  6
CONTINUOUS
 66
1
 70
0
  0
VERTEX
  8
0
 62
7
  6
CONTINUOUS
 10
437.7534765695
 20
355.7181329634
  0
VERTEX
  8
0
 62
7
  6
CONTINUOUS
 10
437.7076113686
 20
354.777459021
  0
VERTEX
  8
0
 62
7
  6
CONTINUOUS
 10
437.6629464896
 20
353.8000975748
  0
SEQEND
  0
POLYLINE
  8
0
 62
7
  6
CONTINUOUS
 66
1
 70
0
  0
VERTEX
  8
0
 62
7
  6
CONTINUOUS
 10
437.559271978
 20
313.8179334539
  0
VERTEX
  8
0
 62
7
  6
CONTINUOUS
 10
437.5664891782
 20
313.9378597325
  0
VERTEX
  8
0
 62
7
  6
CONTINUOUS
 10
437.5815871678
 20
314.0530057677
  0
SEQEND
  0
POLYLINE
  8
0
 62
7
  6
CONTINUOUS
 66
1
 70
0
  0
VERTEX
  8
0
 62
7
  6
CONTINUOUS
 10
437.7995909389
 20
351.3138209967
  0
VERTEX
  8
0
 62
7
  6
CONTINUOUS
 10
437.7987267683
 20
351.2998488773
  0
VERTEX
  8
0
 62
7
  6
CONTINUOUS
 10
437.7979695461
 20
351.2856661642
  0
SEQEND
  0
POLYLINE
  8
0
 62
7
  6
CONTINUOUS
 66
1
 70
0
  0
VERTEX
  8
0
 62
7
  6
CONTINUOUS
 10
437.675794726
 20
315.1853407036
  0
VERTEX
  8
0
 62
7
  6
CONTINUOUS
 10
437.6542227741
 20
314.8714342565
  0
VERTEX
  8
0
 62
7
  6
CONTINUOUS
 10
437.6338508341
 20
314.6026966316
  0
VERTEX
  8
0
 62
7
  6
CONTINUOUS
 10
437.6148054183
 20
314.3775347474
  0
VERTEX
  8
0
 62
7
  6
CONTINUOUS
 10
437.597273812
 20
314.1945754247
  0
VERTEX
  8
0
 62
7
  6
CONTINUOUS
 10
437.5815871678
 20
314.0530057677
  0
SEQEND
  0
LINE
  8
0
 62
7
  6
CONTINUOUS
 10
437.5694592622
 20
313.9603089662
 11
437.5694993257
 21
313.9605872164
  0
LINE
  8
0
 62
7
  6
CONTINUOUS
 10
437.7333854339
 20
261.907712233
 11
437.8339997195
 21
262.2595417116
  0
LINE
  8
0
 62
7
  6
CONTINUOUS
 10
437.6954741427
 20
95.6972620908
 11
437.559881151
 21
99.460161142
  0
LINE
  8
0
 62
7
  6
CONTINUOUS
 10
437.79763692
 20
92.820944742
 11
437.6954741427
 21
95.6972620908
  0
POLYLINE
  8
0
 62
7
  6
CONTINUOUS
 66
1
 70
0
  0
VERTEX
  8
0
 62
7
  6
CONTINUOUS
 10
437.5601403238
 20
105.7035166737
  0
VERTEX
  8
0
 62
7
  6
CONTINUOUS
 10
437.5596530617
 20
105.7175765066
  0
VERTEX
  8
0
 62
7
  6
CONTINUOUS
 10
437.559366044
 20
105.7314654617
  0
SEQEND
  0
LINE
  8
0
 62
7
  6
CONTINUOUS
 10
437.7957213727
 20
92.8735463438
 11
437.7957421447
 21
92.8728375131
  0
POLYLINE
  8
0
 62
7
  6
CONTINUOUS
 66
1
 70
0
  0
VERTEX
  8
0
 62
7
  6
CONTINUOUS
 10
437.559881151
 20
99.460161504
  0
VERTEX
  8
0
 62
7
  6
CONTINUOUS
 10
437.5595427368
 20
99.4717656653
  0
VERTEX
  8
0
 62
7
  6
CONTINUOUS
 10
437.55933967
 20
99.4833729697
  0
VERTEX
  8
0
 62
7
  6
CONTINUOUS
 10
437.559271978
 20
99.4949818457
  0
SEQEND
  0
LINE
  8
0
 62
7
  6
CONTINUOUS
 10
437.5596201349
 20
138.0321351946
 11
437.559271978
 21
138.0585206567
  0
LINE
  8
0
 62
7
  6
CONTINUOUS
 10
437.559366044
 20
105.7314654617
 11
437.559271978
 21
105.7451812563
  0
LINE
  8
0
 62
7
  6
CONTINUOUS
 10
437.559271978
 20
99.4949818725
 11
437.559271978
 21
350.9462592538
  0
POLYLINE
  8
0
 62
7
  6
CONTINUOUS
 66
1
 70
0
  0
VERTEX
  8
0
 62
7
  6
CONTINUOUS
 10
437.559271978
 20
350.9462592538
  0
VERTEX
  8
0
 62
7
  6
CONTINUOUS
 10
437.55933967
 20
350.9578556657
  0
VERTEX
  8
0
 62
7
  6
CONTINUOUS
 10
437.5595427368
 20
350.9694505077
  0
SEQEND
  0
LINE
  8
0
 62
7
  6
CONTINUOUS
 10
437.559271978
 20
345.3949864695
 11
437.5603539658
 21
345.4414914707
  0
LINE
  8
0
 62
7
  6
CONTINUOUS
 10
437.5595427368
 20
350.9694505077
 11
437.5599217765
 21
350.9823033209
  0
LINE
  8
0
 62
7
  6
CONTINUOUS
 10
437.6558703224
 20
353.6258236265
 11
437.5599217749
 21
350.982303252
  0
LINE
  8
0
 62
7
  6
CONTINUOUS
 10
437.7964649082
 20
351.2522592212
 11
437.6729210624
 21
348.0855997335
  0
LINE
  8
0
 62
7
  6
CONTINUOUS
 10
437.6729210624
 20
348.0855997335
 11
437.6488449727
 21
347.4888233153
  0
LINE
  8
0
 62
7
  6
CONTINUOUS
 10
449.559271978
 20
352.2520037185
 11
449.559271978
 21
334.5113210094
  0
LINE
  8
0
 62
7
  6
CONTINUOUS
 10
449.559271978
 20
112.1310782023
 11
449.559271978
 21
101.8545921519
  0
LINE
  8
SURFACE
 62
7
  6
CONTINUOUS
 10
449.559271978
 20
91.832267404
 11
449.559271978
 21
101.8545921519
  0
LINE
  8
SURFACE
 62
7
  6
CONTINUOUS
 10
449.559271978
 20
112.1310782023
 11
449.559271978
 21
130.8717653506
  0
LINE
  8
0
 62
7
  6
CONTINUOUS
 10
449.559271978
 20
130.8717653506
 11
449.559271978
 21
133.0870052269
  0
LINE
  8
0
 62
7
  6
CONTINUOUS
 10
449.559271978
 20
135.9577969366
 11
449.559271978
 21
157.431776244
  0
LINE
  8
SURFACE
 62
7
  6
CONTINUOUS
 10
449.559271978
 20
157.431776244
 11
449.559271978
 21
176.2666372351
  0
LINE
  8
0
 62
7
  6
CONTINUOUS
 10
449.559271978
 20
176.2666372351
 11
449.559271978
 21
178.4792462189
  0
LINE
  8
0
 62
7
  6
CONTINUOUS
 10
449.559271978
 20
187.9033515734
 11
449.559271978
 21
212.8058608735
  0
LINE
  8
SURFACE
 62
7
  6
CONTINUOUS
 10
449.559271978
 20
212.8058608735
 11
449.559271978
 21
232.8917470781
  0
LINE
  8
0
 62
7
  6
CONTINUOUS
 10
449.559271978
 20
232.8917470781
 11
449.559271978
 21
234.5948427232
  0
LINE
  8
0
 62
7
  6
CONTINUOUS
 10
449.559271978
 20
244.6004373697
 11
449.559271978
 21
271.0394876713
  0
LINE
  8
SURFACE
 62
7
  6
CONTINUOUS
 10
449.559271978
 20
271.0394876713
 11
449.559271978
 21
289.6503652811
  0
LINE
  8
0
 62
7
  6
CONTINUOUS
 10
449.559271978
 20
296.8733104285
 11
449.559271978
 21
318.7920345293
  0
LINE
  8
SURFACE
 62
7
  6
CONTINUOUS
 10
449.559271978
 20
318.7920345293
 11
449.559271978
 21
334.5113208971
  0
LINE
  8
SURFACE
 62
7
  6
CONTINUOUS
 10
449.559271978
 20
352.2520037185
 11
449.559271978
 21
357.5440168931
  0
LINE
  8
DEFAULT_1
 62
2
  6
CENTER
 10
426.409271978
 20
225.2881506865
 11
472.709271978
 21
225.2881506865
  0
LINE
  8
SURFACE
 62
7
  6
CONTINUOUS
 10
461.4694625648
 20
333.4582513139
 11
461.4673904576
 21
333.4889970276
  0
LINE
  8
SURFACE
 62
7
  6
CONTINUOUS
 10
461.4737833799
 20
333.3864699308
 11
461.4694625648
 21
333.4582513139
  0
LINE
  8
SURFACE
 62
7
  6
CONTINUOUS
 10
461.5578664705
 20
331.8215783862
 11
461.4737833799
 21
333.3864699308
  0
LINE
  8
SURFACE
 62
7
  6
CONTINUOUS
 10
461.3650673866
 20
355.7181329634
 11
461.3192307757
 21
356.5965390025
  0
LINE
  8
SURFACE
 62
7
  6
CONTINUOUS
 10
461.4109325874
 20
354.777459021
 11
461.3650673866
 21
355.7181329634
  0
POLYLINE
  8
SURFACE
 62
7
  6
CONTINUOUS
 66
1
 70
0
  0
VERTEX
  8
SURFACE
 62
7
  6
CONTINUOUS
 10
461.5578664715
 20
331.8215784727
  0
VERTEX
  8
SURFACE
 62
7
  6
CONTINUOUS
 10
461.5586502354
 20
331.8038357207
  0
VERTEX
  8
SURFACE
 62
7
  6
CONTINUOUS
 10
461.559118767
 20
331.7860823645
  0
SEQEND
  0
LINE
  8
SURFACE
 62
7
  6
CONTINUOUS
 10
461.4626736337
 20
353.6258236265
 11
461.4109325874
 21
354.777459021
  0
LINE
  8
SURFACE
 62
7
  6
CONTINUOUS
 10
461.5586221812
 20
350.982303252
 11
461.4626736337
 21
353.6258236265
  0
LINE
  8
SURFACE
 62
7
  6
CONTINUOUS
 10
461.5575614902
 20
288.2559783747
 11
461.559271978
 21
288.1975142848
  0
LINE
  8
SURFACE
 62
7
  6
CONTINUOUS
 10
461.559118767
 20
331.7860823645
 11
461.559271978
 21
331.7685781173
  0
POLYLINE
  8
SURFACE
 62
7
  6
CONTINUOUS
 66
1
 70
0
  0
VERTEX
  8
SURFACE
 62
7
  6
CONTINUOUS
 10
461.559271978
 20
350.9462592538
  0
VERTEX
  8
SURFACE
 62
7
  6
CONTINUOUS
 10
461.559204286
 20
350.9578556657
  0
VERTEX
  8
SURFACE
 62
7
  6
CONTINUOUS
 10
461.5590012192
 20
350.9694505077
  0
VERTEX
  8
SURFACE
 62
7
  6
CONTINUOUS
 10
461.5586221795
 20
350.9823033209
  0
SEQEND
  0
LINE
  8
SURFACE
 62
7
  6
CONTINUOUS
 10
461.559271978
 20
350.9462592538
 11
461.559271978
 21
99.4949818725
  0
LINE
  8
0
 62
7
  6
CONTINUOUS
 10
461.659271978
 20
325.8250410247
 11
461.659271978
 21
315.5947834104
  0
LINE
  8
0
 62
7
  6
CONTINUOUS
 10
461.659271978
 20
309.4885374411
 11
461.659271978
 21
300.5548374597
  0
LINE
  8
0
 62
7
  6
CONTINUOUS
 10
461.659271978
 20
298.9704504126
 11
461.659271978
 21
287.9355215502
  0
LINE
  8
0
 62
7
  6
CONTINUOUS
 10
461.659271978
 20
285.2453432901
 11
461.659271978
 21
263.8962090288
  0
LINE
  8
0
 62
7
  6
CONTINUOUS
 10
461.659271978
 20
259.9499879826
 11
461.659271978
 21
257.9048277451
  0
LINE
  8
0
 62
7
  6
CONTINUOUS
 10
461.659271978
 20
257.7467780059
 11
461.659271978
 21
254.3197938443
  0
LINE
  8
0
 62
7
  6
CONTINUOUS
 10
461.659271978
 20
254.1709671496
 11
461.659271978
 21
250.6058751093
  0
POLYLINE
  8
SURFACE
 62
7
  6
CONTINUOUS
 66
1
 70
0
  0
VERTEX
  8
SURFACE
 62
7
  6
CONTINUOUS
 10
461.558662805
 20
99.460161504
  0
VERTEX
  8
SURFACE
 62
7
  6
CONTINUOUS
 10
461.5590012192
 20
99.4717656653
  0
VERTEX
  8
SURFACE
 62
7
  6
CONTINUOUS
 10
461.559204286
 20
99.4833729697
  0
VERTEX
  8
SURFACE
 62
7
  6
CONTINUOUS
 10
461.559271978
 20
99.4949818457
  0
SEQEND
  0
LINE
  8
SURFACE
 62
7
  6
CONTINUOUS
 10
461.3228225834
 20
92.8735463438
 11
461.3228018112
 21
92.8728375105
  0
LINE
  8
SURFACE
 62
7
  6
CONTINUOUS
 10
461.559271978
 20
117.8478206863
 11
461.5569398007
 21
117.779564822
  0
LINE
  8
SURFACE
 62
7
  6
CONTINUOUS
 10
461.3228225834
 20
92.8735463438
 11
461.4230698133
 21
95.6972620908
  0
LINE
  8
SURFACE
 62
7
  6
CONTINUOUS
 10
461.4230698133
 20
95.6972620908
 11
461.5165171183
 21
98.302891684
  0
LINE
  8
SURFACE
 62
7
  6
CONTINUOUS
 10
461.5165171183
 20
98.302891684
 11
461.558662805
 21
99.460161142
  0
LINE
  8
SURFACE
 62
7
  6
CONTINUOUS
 10
461.3201713776
 20
92.8020980917
 11
461.3228018109
 21
92.8728375105
  0
LINE
  8
SURFACE
 62
7
  6
CONTINUOUS
 10
461.3216393953
 20
113.1036711474
 11
461.4454297133
 21
115.7796451854
  0
POLYLINE
  8
SURFACE
 62
7
  6
CONTINUOUS
 66
1
 70
0
  0
VERTEX
  8
SURFACE
 62
7
  6
CONTINUOUS
 10
461.4454297133
 20
115.7796451854
  0
VERTEX
  8
SURFACE
 62
7
  6
CONTINUOUS
 10
461.46951336
 20
116.2652937999
  0
VERTEX
  8
SURFACE
 62
7
  6
CONTINUOUS
 10
461.4929733897
 20
116.7119372447
  0
VERTEX
  8
SURFACE
 62
7
  6
CONTINUOUS
 10
461.5156856341
 20
117.1177455585
  0
VERTEX
  8
SURFACE
 62
7
  6
CONTINUOUS
 10
461.5375202388
 20
117.481001995
  0
VERTEX
  8
SURFACE
 62
7
  6
CONTINUOUS
 10
461.556974517
 20
117.7800743537
  0
SEQEND
  0
LINE
  8
SURFACE
 62
7
  6
CONTINUOUS
 10
461.3206192864
 20
113.0853320869
 11
461.3216393953
 21
113.1036711474
  0
LINE
  8
SURFACE
 62
7
  6
CONTINUOUS
 10
461.3187221706
 20
159.010382734
 11
461.4239924903
 21
160.0924025948
  0
LINE
  8
SURFACE
 62
7
  6
CONTINUOUS
 10
461.4239924903
 20
160.0924025948
 11
461.4304271738
 21
160.1545925507
  0
POLYLINE
  8
SURFACE
 62
7
  6
CONTINUOUS
 66
1
 70
0
  0
VERTEX
  8
SURFACE
 62
7
  6
CONTINUOUS
 10
461.4304271738
 20
160.1545925507
  0
VERTEX
  8
SURFACE
 62
7
  6
CONTINUOUS
 10
461.4366060431
 20
160.2112631276
  0
VERTEX
  8
SURFACE
 62
7
  6
CONTINUOUS
 10
461.4425105929
 20
160.2625472216
  0
VERTEX
  8
SURFACE
 62
7
  6
CONTINUOUS
 10
461.4481177175
 20
160.3085603876
  0
VERTEX
  8
SURFACE
 62
7
  6
CONTINUOUS
 10
461.4533994444
 20
160.3494064543
  0
VERTEX
  8
SURFACE
 62
7
  6
CONTINUOUS
 10
461.4583198983
 20
160.3851655612
  0
VERTEX
  8
SURFACE
 62
7
  6
CONTINUOUS
 10
461.4628323131
 20
160.4158872954
  0
VERTEX
  8
SURFACE
 62
7
  6
CONTINUOUS
 10
461.4668752145
 20
160.4415844609
  0
VERTEX
  8
SURFACE
 62
7
  6
CONTINUOUS
 10
461.4703672499
 20
160.4622271148
  0
VERTEX
  8
SURFACE
 62
7
  6
CONTINUOUS
 10
461.4731978514
 20
160.4777243533
  0
VERTEX
  8
SURFACE
 62
7
  6
CONTINUOUS
 10
461.4752139264
 20
160.4879041784
  0
VERTEX
  8
SURFACE
 62
7
  6
CONTINUOUS
 10
461.4759309109
 20
160.4912789321
  0
SEQEND
  0
POLYLINE
  8
SURFACE
 62
7
  6
CONTINUOUS
 66
1
 70
0
  0
VERTEX
  8
SURFACE
 62
7
  6
CONTINUOUS
 10
461.4609441862
 20
333.5683968104
  0
VERTEX
  8
SURFACE
 62
7
  6
CONTINUOUS
 10
461.4583405344
 20
333.5937994746
  0
VERTEX
  8
SURFACE
 62
7
  6
CONTINUOUS
 10
461.4551194738
 20
333.6209140055
  0
VERTEX
  8
SURFACE
 62
7
  6
CONTINUOUS
 10
461.4509600103
 20
333.65057288
  0
VERTEX
  8
SURFACE
 62
7
  6
CONTINUOUS
 10
461.4455850797
 20
333.6827422968
  0
VERTEX
  8
SURFACE
 62
7
  6
CONTINUOUS
 10
461.4386528631
 20
333.717586276
  0
VERTEX
  8
SURFACE
 62
7
  6
CONTINUOUS
 10
461.4293892673
 20
333.7567641111
  0
VERTEX
  8
SURFACE
 62
7
  6
CONTINUOUS
 10
461.4169672004
 20
333.8009791925
  0
VERTEX
  8
SURFACE
 62
7
  6
CONTINUOUS
 10
461.4011625317
 20
333.8485161903
  0
VERTEX
  8
SURFACE
 62
7
  6
CONTINUOUS
 10
461.3819994631
 20
333.8976620039
  0
VERTEX
  8
SURFACE
 62
7
  6
CONTINUOUS
 10
461.359275474
 20
333.947832339
  0
VERTEX
  8
SURFACE
 62
7
  6
CONTINUOUS
 10
461.3327146122
 20
333.9986971658
  0
VERTEX
  8
SURFACE
 62
7
  6
CONTINUOUS
 10
461.3020589099
 20
334.0498898674
  0
VERTEX
  8
SURFACE
 62
7
  6
CONTINUOUS
 10
461.2670813008
 20
334.1009939876
  0
VERTEX
  8
SURFACE
 62
7
  6
CONTINUOUS
 10
461.2275830672
 20
334.1515587227
  0
VERTEX
  8
SURFACE
 62
7
  6
CONTINUOUS
 10
461.1834219725
 20
334.2010741246
  0
VERTEX
  8
SURFACE
 62
7
  6
CONTINUOUS
 10
461.1345047228
 20
334.2489986795
  0
VERTEX
  8
SURFACE
 62
7
  6
CONTINUOUS
 10
461.0807740442
 20
334.2947783958
  0
VERTEX
  8
SURFACE
 62
7
  6
CONTINUOUS
 10
461.0221999078
 20
334.3378511249
  0
VERTEX
  8
SURFACE
 62
7
  6
CONTINUOUS
 10
460.9588068851
 20
334.3776239227
  0
VERTEX
  8
SURFACE
 62
7
  6
CONTINUOUS
 10
460.8906839454
 20
334.4134748737
  0
VERTEX
  8
SURFACE
 62
7
  6
CONTINUOUS
 10
460.8179925375
 20
334.4447583683
  0
VERTEX
  8
SURFACE
 62
7
  6
CONTINUOUS
 10
460.7409734321
 20
334.4708123557
  0
VERTEX
  8
SURFACE
 62
7
  6
CONTINUOUS
 10
460.6599520504
 20
334.4909669713
  0
VERTEX
  8
SURFACE
 62
7
  6
CONTINUOUS
 10
460.575347254
 20
334.5045533013
  0
VERTEX
  8
SURFACE
 62
7
  6
CONTINUOUS
 10
460.4876767622
 20
334.5109149837
  0
SEQEND
  0
POLYLINE
  8
SURFACE
 62
7
  6
CONTINUOUS
 66
1
 70
0
  0
VERTEX
  8
SURFACE
 62
7
  6
CONTINUOUS
 10
461.4673904576
 20
333.4889970276
  0
VERTEX
  8
SURFACE
 62
7
  6
CONTINUOUS
 10
461.4653256382
 20
333.5171235029
  0
VERTEX
  8
SURFACE
 62
7
  6
CONTINUOUS
 10
461.4632104115
 20
333.543286826
  0
VERTEX
  8
SURFACE
 62
7
  6
CONTINUOUS
 10
461.4609441862
 20
333.5683968104
  0
SEQEND
  0
POLYLINE
  8
SURFACE
 62
7
  6
CONTINUOUS
 66
1
 70
0
  0
VERTEX
  8
SURFACE
 62
7
  6
CONTINUOUS
 10
461.318637013
 20
356.6064533417
  0
VERTEX
  8
SURFACE
 62
7
  6
CONTINUOUS
 10
461.317807564
 20
356.6183439077
  0
VERTEX
  8
SURFACE
 62
7
  6
CONTINUOUS
 10
461.3167365425
 20
356.6314355207
  0
VERTEX
  8
SURFACE
 62
7
  6
CONTINUOUS
 10
461.3154136947
 20
356.645331975
  0
VERTEX
  8
SURFACE
 62
7
  6
CONTINUOUS
 10
461.3137838211
 20
356.6601955899
  0
VERTEX
  8
SURFACE
 62
7
  6
CONTINUOUS
 10
461.311905332
 20
356.6752431914
  0
VERTEX
  8
SURFACE
 62
7
  6
CONTINUOUS
 10
461.309785409
 20
356.6903568492
  0
VERTEX
  8
SURFACE
 62
7
  6
CONTINUOUS
 10
461.3073937612
 20
356.705691806
  0
VERTEX
  8
SURFACE
 62
7
  6
CONTINUOUS
 10
461.3046984954
 20
356.7213558367
  0
VERTEX
  8
SURFACE
 62
7
  6
CONTINUOUS
 10
461.3016731227
 20
356.7373902213
  0
VERTEX
  8
SURFACE
 62
7
  6
CONTINUOUS
 10
461.2983168127
 20
356.7536993456
  0
VERTEX
  8
SURFACE
 62
7
  6
CONTINUOUS
 10
461.2946339595
 20
356.7701899602
  0
VERTEX
  8
SURFACE
 62
7
  6
CONTINUOUS
 10
461.2906141998
 20
356.7868515027
  0
VERTEX
  8
SURFACE
 62
7
  6
CONTINUOUS
 10
461.2862456263
 20
356.803679619
  0
VERTEX
  8
SURFACE
 62
7
  6
CONTINUOUS
 10
461.2815154623
 20
356.820671707
  0
VERTEX
  8
SURFACE
 62
7
  6
CONTINUOUS
 10
461.276410423
 20
356.83782503
  0
VERTEX
  8
SURFACE
 62
7
  6
CONTINUOUS
 10
461.2709168928
 20
356.8551360253
  0
VERTEX
  8
SURFACE
 62
7
  6
CONTINUOUS
 10
461.2650210029
 20
356.8726001286
  0
VERTEX
  8
SURFACE
 62
7
  6
CONTINUOUS
 10
461.2587086641
 20
356.8902117748
  0
VERTEX
  8
SURFACE
 62
7
  6
CONTINUOUS
 10
461.2519655976
 20
356.907964405
  0
VERTEX
  8
SURFACE
 62
7
  6
CONTINUOUS
 10
461.2447778301
 20
356.9258493482
  0
VERTEX
  8
SURFACE
 62
7
  6
CONTINUOUS
 10
461.2371311245
 20
356.9438574952
  0
VERTEX
  8
SURFACE
 62
7
  6
CONTINUOUS
 10
461.2290105059
 20
356.961980275
  0
VERTEX
  8
SURFACE
 62
7
  6
CONTINUOUS
 10
461.2204007412
 20
356.9802083507
  0
VERTEX
  8
SURFACE
 62
7
  6
CONTINUOUS
 10
461.2112863754
 20
356.9985315414
  0
VERTEX
  8
SURFACE
 62
7
  6
CONTINUOUS
 10
461.2016517652
 20
357.0169387584
  0
VERTEX
  8
SURFACE
 62
7
  6
CONTINUOUS
 10
461.1914811151
 20
357.0354179517
  0
VERTEX
  8
SURFACE
 62
7
  6
CONTINUOUS
 10
461.1807585138
 20
357.0539560614
  0
VERTEX
  8
SURFACE
 62
7
  6
CONTINUOUS
 10
461.1694679457
 20
357.0725390172
  0
VERTEX
  8
SURFACE
 62
7
  6
CONTINUOUS
 10
461.1575875557
 20
357.0911605224
  0
VERTEX
  8
SURFACE
 62
7
  6
CONTINUOUS
 10
461.1450814372
 20
357.1098319435
  0
VERTEX
  8
SURFACE
 62
7
  6
CONTINUOUS
 10
461.1319093455
 20
357.1285641969
  0
VERTEX
  8
SURFACE
 62
7
  6
CONTINUOUS
 10
461.1180283424
 20
357.1473647548
  0
VERTEX
  8
SURFACE
 62
7
  6
CONTINUOUS
 10
461.1033928491
 20
357.166237327
  0
VERTEX
  8
SURFACE
 62
7
  6
CONTINUOUS
 10
461.0879547148
 20
357.1851815209
  0
VERTEX
  8
SURFACE
 62
7
  6
CONTINUOUS
 10
461.0716633023
 20
357.2041924766
  0
VERTEX
  8
SURFACE
 62
7
  6
CONTINUOUS
 10
461.0544653042
 20
357.2232607923
  0
VERTEX
  8
SURFACE
 62
7
  6
CONTINUOUS
 10
461.0363007697
 20
357.2423762391
  0
VERTEX
  8
SURFACE
 62
7
  6
CONTINUOUS
 10
461.0171037709
 20
357.2615256494
  0
VERTEX
  8
SURFACE
 62
7
  6
CONTINUOUS
 10
460.9968055535
 20
357.2806887792
  0
VERTEX
  8
SURFACE
 62
7
  6
CONTINUOUS
 10
460.9753393113
 20
357.2998337425
  0
VERTEX
  8
SURFACE
 62
7
  6
CONTINUOUS
 10
460.9526904682
 20
357.3188767057
  0
VERTEX
  8
SURFACE
 62
7
  6
CONTINUOUS
 10
460.9288845481
 20
357.3377042125
  0
VERTEX
  8
SURFACE
 62
7
  6
CONTINUOUS
 10
460.9039553451
 20
357.3562052328
  0
VERTEX
  8
SURFACE
 62
7
  6
CONTINUOUS
 10
460.8779444535
 20
357.3742724902
  0
VERTEX
  8
SURFACE
 62
7
  6
CONTINUOUS
 10
460.8509012685
 20
357.3918032596
  0
VERTEX
  8
SURFACE
 62
7
  6
CONTINUOUS
 10
460.8228828768
 20
357.4087001563
  0
VERTEX
  8
SURFACE
 62
7
  6
CONTINUOUS
 10
460.7939474546
 20
357.4248753378
  0
VERTEX
  8
SURFACE
 62
7
  6
CONTINUOUS
 10
460.7641053808
 20
357.4402739252
  0
VERTEX
  8
SURFACE
 62
7
  6
CONTINUOUS
 10
460.7333421896
 20
357.4548527473
  0
VERTEX
  8
SURFACE
 62
7
  6
CONTINUOUS
 10
460.7016444905
 20
357.4685641567
  0
VERTEX
  8
SURFACE
 62
7
  6
CONTINUOUS
 10
460.6690005707
 20
357.4813557681
  0
VERTEX
  8
SURFACE
 62
7
  6
CONTINUOUS
 10
460.6354008348
 20
357.4931703242
  0
VERTEX
  8
SURFACE
 62
7
  6
CONTINUOUS
 10
460.6008382801
 20
357.5039455796
  0
VERTEX
  8
SURFACE
 62
7
  6
CONTINUOUS
 10
460.5653090067
 20
357.5136142069
  0
VERTEX
  8
SURFACE
 62
7
  6
CONTINUOUS
 10
460.5288127666
 20
357.5221037294
  0
VERTEX
  8
SURFACE
 62
7
  6
CONTINUOUS
 10
460.4913535525
 20
357.529336485
  0
VERTEX
  8
SURFACE
 62
7
  6
CONTINUOUS
 10
460.4529402261
 20
357.5352296276
  0
VERTEX
  8
SURFACE
 62
7
  6
CONTINUOUS
 10
460.4135871899
 20
357.5396951711
  0
VERTEX
  8
SURFACE
 62
7
  6
CONTINUOUS
 10
460.3733151
 20
357.5426400841
  0
VERTEX
  8
SURFACE
 62
7
  6
CONTINUOUS
 10
460.3321516222
 20
357.5439664419
  0
VERTEX
  8
SURFACE
 62
7
  6
CONTINUOUS
 10
460.3205350683
 20
357.544033916
  0
SEQEND
  0
LINE
  8
SURFACE
 62
7
  6
CONTINUOUS
 10
461.3192307757
 20
356.5965390025
 11
461.318637013
 21
356.6064533417
  0
LINE
  8
SURFACE
 62
7
  6
CONTINUOUS
 10
470.709271978
 20
323.2881506865
 11
470.709271978
 21
127.2881506865
  0
LINE
  8
SURFACE
 62
7
  6
CONTINUOUS
 10
461.5569740352
 20
117.7800666834
 11
461.5569398007
 21
117.779564822
  0
POLYLINE
  8
SURFACE
 62
7
  6
CONTINUOUS
 66
1
 70
0
  0
VERTEX
  8
SURFACE
 62
7
  6
CONTINUOUS
 10
461.3177591541
 20
92.7580792561
  0
VERTEX
  8
SURFACE
 62
7
  6
CONTINUOUS
 10
461.3185094817
 20
92.7689076714
  0
VERTEX
  8
SURFACE
 62
7
  6
CONTINUOUS
 10
461.3190755662
 20
92.7784372126
  0
VERTEX
  8
SURFACE
 62
7
  6
CONTINUOUS
 10
461.3194566167
 20
92.7858082872
  0
VERTEX
  8
SURFACE
 62
7
  6
CONTINUOUS
 10
461.3197236094
 20
92.791538181
  0
VERTEX
  8
SURFACE
 62
7
  6
CONTINUOUS
 10
461.3201713776
 20
92.8020980917
  0
SEQEND
  0
LINE
  8
0
 62
7
  6
CONTINUOUS
 10
461.559271978
 20
250.6058751093
 11
461.659271978
 21
250.6058751093
  0
LINE
  8
0
 62
7
  6
CONTINUOUS
 10
461.559271978
 20
250.6118806172
 11
461.659271978
 21
250.6118806172
  0
LINE
  8
0
 62
7
  6
CONTINUOUS
 10
461.559271978
 20
251.1460594059
 11
461.659271978
 21
251.1460594059
  0
LINE
  8
0
 62
7
  6
CONTINUOUS
 10
461.559271978
 20
251.6502106845
 11
461.659271978
 21
251.6502106845
  0
LINE
  8
0
 62
7
  6
CONTINUOUS
 10
461.559271978
 20
252.0114932667
 11
461.659271978
 21
252.0114932667
  0
LINE
  8
0
 62
7
  6
CONTINUOUS
 10
461.559271978
 20
252.4415231499
 11
461.659271978
 21
252.4415231499
  0
LINE
  8
0
 62
7
  6
CONTINUOUS
 10
461.559271978
 20
252.7974317994
 11
461.659271978
 21
252.7974317994
  0
LINE
  8
0
 62
7
  6
CONTINUOUS
 10
461.559271978
 20
253.079219099
 11
461.659271978
 21
253.079219099
  0
LINE
  8
0
 62
7
  6
CONTINUOUS
 10
461.559271978
 20
253.6668157628
 11
461.659271978
 21
253.6668157628
  0
POLYLINE
  8
SURFACE
 62
7
  6
CONTINUOUS
 66
1
 70
0
  0
VERTEX
  8
SURFACE
 62
7
  6
CONTINUOUS
 10
461.4569776886
 20
288.833773394
  0
VERTEX
  8
SURFACE
 62
7
  6
CONTINUOUS
 10
461.4561259493
 20
288.8379752984
  0
VERTEX
  8
SURFACE
 62
7
  6
CONTINUOUS
 10
461.4465266178
 20
288.8806228728
  0
VERTEX
  8
SURFACE
 62
7
  6
CONTINUOUS
 10
461.4333114332
 20
288.9293346929
  0
VERTEX
  8
SURFACE
 62
7
  6
CONTINUOUS
 10
461.416020805
 20
288.982289415
  0
VERTEX
  8
SURFACE
 62
7
  6
CONTINUOUS
 10
461.3944890785
 20
289.0375515426
  0
VERTEX
  8
SURFACE
 62
7
  6
CONTINUOUS
 10
461.3686147836
 20
289.0938056742
  0
VERTEX
  8
SURFACE
 62
7
  6
CONTINUOUS
 10
461.3382298456
 20
289.1503056304
  0
VERTEX
  8
SURFACE
 62
7
  6
CONTINUOUS
 10
461.3031435027
 20
289.2065049231
  0
VERTEX
  8
SURFACE
 62
7
  6
CONTINUOUS
 10
461.2632303887
 20
289.2618291644
  0
VERTEX
  8
SURFACE
 62
7
  6
CONTINUOUS
 10
461.2184797402
 20
289.3156338762
  0
VERTEX
  8
SURFACE
 62
7
  6
CONTINUOUS
 10
461.169016126
 20
289.3672303207
  0
VERTEX
  8
SURFACE
 62
7
  6
CONTINUOUS
 10
461.1149221355
 20
289.4160794522
  0
VERTEX
  8
SURFACE
 62
7
  6
CONTINUOUS
 10
461.0561161286
 20
289.4618081944
  0
VERTEX
  8
SURFACE
 62
7
  6
CONTINUOUS
 10
460.9925601235
 20
289.5039661811
  0
VERTEX
  8
SURFACE
 62
7
  6
CONTINUOUS
 10
460.9242488934
 20
289.5420461853
  0
VERTEX
  8
SURFACE
 62
7
  6
CONTINUOUS
 10
460.8512236447
 20
289.575481209
  0
VERTEX
  8
SURFACE
 62
7
  6
CONTINUOUS
 10
460.7735849645
 20
289.6036448017
  0
VERTEX
  8
SURFACE
 62
7
  6
CONTINUOUS
 10
460.6915025431
 20
289.6258539847
  0
VERTEX
  8
SURFACE
 62
7
  6
CONTINUOUS
 10
460.605237641
 20
289.6413701159
  0
VERTEX
  8
SURFACE
 62
7
  6
CONTINUOUS
 10
460.5151609019
 20
289.6494061039
  0
VERTEX
  8
SURFACE
 62
7
  6
CONTINUOUS
 10
460.4713474645
 20
289.6503654779
  0
SEQEND
  0
LINE
  8
SURFACE
 62
7
  6
CONTINUOUS
 10
461.4859211326
 20
288.6864432512
 11
461.4569704944
 21
288.8338098427
  0
LINE
  8
SURFACE
 62
7
  6
CONTINUOUS
 10
461.5159521929
 20
288.5268502169
 11
461.4859211326
 21
288.6864432512
  0
LINE
  8
SURFACE
 62
7
  6
CONTINUOUS
 10
461.5439170698
 20
288.3720822833
 11
461.5159521929
 21
288.5268502169
  0
POLYLINE
  8
SURFACE
 62
7
  6
CONTINUOUS
 66
1
 70
0
  0
VERTEX
  8
SURFACE
 62
7
  6
CONTINUOUS
 10
461.5439170547
 20
288.3720825322
  0
VERTEX
  8
SURFACE
 62
7
  6
CONTINUOUS
 10
461.5524362753
 20
288.3142390836
  0
VERTEX
  8
SURFACE
 62
7
  6
CONTINUOUS
 10
461.5575614902
 20
288.2559783747
  0
SEQEND
  0
LINE
  8
0
 62
7
  6
CONTINUOUS
 10
461.559271978
 20
254.1709671496
 11
461.659271978
 21
254.1709671496
  0
LINE
  8
0
 62
7
  6
CONTINUOUS
 10
461.559271978
 20
254.3197938443
 11
461.659271978
 21
254.3197938443
  0
LINE
  8
0
 62
7
  6
CONTINUOUS
 10
461.559271978
 20
255.2968910325
 11
461.659271978
 21
255.2968910325
  0
LINE
  8
0
 62
7
  6
CONTINUOUS
 10
461.559271978
 20
255.7958098246
 11
461.659271978
 21
255.7958098246
  0
LINE
  8
0
 62
7
  6
CONTINUOUS
 10
461.559271978
 20
255.9037745452
 11
461.659271978
 21
255.9037745452
  0
LINE
  8
0
 62
7
  6
CONTINUOUS
 10
461.559271978
 20
256.2641940468
 11
461.659271978
 21
256.2641940468
  0
LINE
  8
0
 62
7
  6
CONTINUOUS
 10
461.559271978
 20
256.6938634791
 11
461.659271978
 21
256.6938634791
  0
LINE
  8
0
 62
7
  6
CONTINUOUS
 10
461.559271978
 20
257.092998627
 11
461.659271978
 21
257.092998627
  0
LINE
  8
0
 62
7
  6
CONTINUOUS
 10
461.559271978
 20
257.3618155607
 11
461.659271978
 21
257.3618155607
  0
LINE
  8
0
 62
7
  6
CONTINUOUS
 10
461.559271978
 20
257.60009821
 11
461.659271978
 21
257.60009821
  0
LINE
  8
0
 62
7
  6
CONTINUOUS
 10
461.559271978
 20
257.7385969295
 11
461.659271978
 21
257.7385969295
  0
LINE
  8
0
 62
7
  6
CONTINUOUS
 10
461.559271978
 20
257.7467780059
 11
461.659271978
 21
257.7467780059
  0
LINE
  8
0
 62
7
  6
CONTINUOUS
 10
461.559271978
 20
257.9048277451
 11
461.659271978
 21
257.9048277451
  0
LINE
  8
0
 62
7
  6
CONTINUOUS
 10
461.559271978
 20
258.960136385
 11
461.659271978
 21
258.960136385
  0
LINE
  8
0
 62
7
  6
CONTINUOUS
 10
461.559271978
 20
259.2899203985
 11
461.659271978
 21
259.2899203985
  0
LINE
  8
0
 62
7
  6
CONTINUOUS
 10
461.559271978
 20
259.454812359
 11
461.659271978
 21
259.454812359
  0
LINE
  8
0
 62
7
  6
CONTINUOUS
 10
461.559271978
 20
259.9499879826
 11
461.659271978
 21
259.9499879826
  0
POLYLINE
  8
0
 62
7
  6
CONTINUOUS
 66
1
 70
0
  0
VERTEX
  8
0
 62
7
  6
CONTINUOUS
 10
438.7955235285
 20
262.9841135861
  0
VERTEX
  8
0
 62
7
  6
CONTINUOUS
 10
438.7200387997
 20
262.9812608681
  0
VERTEX
  8
0
 62
7
  6
CONTINUOUS
 10
438.5960447648
 20
262.9640180779
  0
VERTEX
  8
0
 62
7
  6
CONTINUOUS
 10
438.474534013
 20
262.9312028285
  0
VERTEX
  8
0
 62
7
  6
CONTINUOUS
 10
438.3579770185
 20
262.8833227615
  0
VERTEX
  8
0
 62
7
  6
CONTINUOUS
 10
438.2486912773
 20
262.8213799295
  0
VERTEX
  8
0
 62
7
  6
CONTINUOUS
 10
438.1487350029
 20
262.746823736
  0
VERTEX
  8
0
 62
7
  6
CONTINUOUS
 10
438.0598294224
 20
262.6614944789
  0
VERTEX
  8
0
 62
7
  6
CONTINUOUS
 10
437.9835254812
 20
262.567883757
  0
VERTEX
  8
0
 62
7
  6
CONTINUOUS
 10
437.9209467521
 20
262.4691861099
  0
VERTEX
  8
0
 62
7
  6
CONTINUOUS
 10
437.8724993277
 20
262.3691851078
  0
VERTEX
  8
0
 62
7
  6
CONTINUOUS
 10
437.8374544712
 20
262.2712950828
  0
VERTEX
  8
0
 62
7
  6
CONTINUOUS
 10
437.8339998008
 20
262.2595416882
  0
SEQEND
  0
LINE
  8
0
 62
7
  6
CONTINUOUS
 10
438.7955232128
 20
262.9841136621
 11
449.559271978
 21
262.9841136621
  0
LINE
  8
0
 62
7
  6
CONTINUOUS
 10
461.559271978
 20
263.8962090288
 11
461.659271978
 21
263.8962090288
  0
LINE
  8
0
 62
7
  6
CONTINUOUS
 10
461.559271978
 20
265.807881003
 11
461.659271978
 21
265.807881003
  0
LINE
  8
0
 62
7
  6
CONTINUOUS
 10
461.559271978
 20
266.3853960226
 11
461.659271978
 21
266.3853960226
  0
LINE
  8
0
 62
7
  6
CONTINUOUS
 10
461.559271978
 20
266.9601267481
 11
461.659271978
 21
266.9601267481
  0
LINE
  8
0
 62
7
  6
CONTINUOUS
 10
461.559271978
 20
269.0804657469
 11
461.659271978
 21
269.0804657469
  0
LINE
  8
0
 62
7
  6
CONTINUOUS
 10
461.559271978
 20
269.6579807665
 11
461.659271978
 21
269.6579807665
  0
LINE
  8
0
 62
7
  6
CONTINUOUS
 10
461.559271978
 20
270.7993240294
 11
461.659271978
 21
270.7993240294
  0
LINE
  8
0
 62
7
  6
CONTINUOUS
 10
461.559271978
 20
272.8383078356
 11
461.659271978
 21
272.8383078356
  0
LINE
  8
0
 62
7
  6
CONTINUOUS
 10
461.559271978
 20
273.6762524026
 11
461.659271978
 21
273.6762524026
  0
LINE
  8
0
 62
7
  6
CONTINUOUS
 10
461.559271978
 20
276.4694009592
 11
461.659271978
 21
276.4694009592
  0
LINE
  8
0
 62
7
  6
CONTINUOUS
 10
461.559271978
 20
277.3073455262
 11
461.659271978
 21
277.3073455262
  0
LINE
  8
0
 62
7
  6
CONTINUOUS
 10
461.559271978
 20
278.2556250457
 11
461.659271978
 21
278.2556250457
  0
LINE
  8
0
 62
7
  6
CONTINUOUS
 10
461.559271978
 20
280.4317865581
 11
461.659271978
 21
280.4317865581
  0
LINE
  8
0
 62
7
  6
CONTINUOUS
 10
461.559271978
 20
280.8327899281
 11
461.659271978
 21
280.8327899281
  0
LINE
  8
0
 62
7
  6
CONTINUOUS
 10
461.559271978
 20
281.0383871441
 11
461.659271978
 21
281.0383871441
  0
LINE
  8
0
 62
7
  6
CONTINUOUS
 10
461.559271978
 20
281.100947352
 11
461.659271978
 21
281.100947352
  0
LINE
  8
0
 62
7
  6
CONTINUOUS
 10
461.559271978
 20
282.5171363068
 11
461.659271978
 21
282.5171363068
  0
LINE
  8
0
 62
7
  6
CONTINUOUS
 10
461.559271978
 20
284.6367780555
 11
461.659271978
 21
284.6367780555
  0
LINE
  8
0
 62
7
  6
CONTINUOUS
 10
461.559271978
 20
285.0219644792
 11
461.659271978
 21
285.0219644792
  0
LINE
  8
0
 62
7
  6
CONTINUOUS
 10
461.559271978
 20
285.2060158914
 11
461.659271978
 21
285.2060158914
  0
LINE
  8
0
 62
7
  6
CONTINUOUS
 10
461.559271978
 20
285.2453432901
 11
461.659271978
 21
285.2453432901
  0
LINE
  8
0
 62
7
  6
CONTINUOUS
 10
461.559271978
 20
287.9355215502
 11
461.659271978
 21
287.9355215502
  0
LINE
  8
0
 62
7
  6
CONTINUOUS
 10
461.559271978
 20
288.4517377142
 11
461.659271978
 21
288.4517377142
  0
LINE
  8
SURFACE
 62
7
  6
CONTINUOUS
 10
460.4713678148
 20
289.6503654729
 11
449.559271978
 21
289.6503654729
  0
LINE
  8
0
 62
7
  6
CONTINUOUS
 10
461.559271978
 20
290.6456565352
 11
461.659271978
 21
290.6456565352
  0
LINE
  8
0
 62
7
  6
CONTINUOUS
 10
461.559271978
 20
290.9682916094
 11
461.659271978
 21
290.9682916094
  0
LINE
  8
0
 62
7
  6
CONTINUOUS
 10
461.559271978
 20
294.2809665222
 11
461.659271978
 21
294.2809665222
  0
LINE
  8
0
 62
7
  6
CONTINUOUS
 10
461.559271978
 20
294.5799109982
 11
461.659271978
 21
294.5799109982
  0
LINE
  8
0
 62
7
  6
CONTINUOUS
 10
461.559271978
 20
295.535085216
 11
461.659271978
 21
295.535085216
  0
LINE
  8
0
 62
7
  6
CONTINUOUS
 10
461.559271978
 20
296.0190471627
 11
461.659271978
 21
296.0190471627
  0
LINE
  8
0
 62
7
  6
CONTINUOUS
 10
461.559271978
 20
296.0988656504
 11
461.659271978
 21
296.0988656504
  0
LINE
  8
0
 62
7
  6
CONTINUOUS
 10
461.559271978
 20
296.4569025125
 11
461.659271978
 21
296.4569025125
  0
LINE
  8
0
 62
7
  6
CONTINUOUS
 10
461.559271978
 20
297.0505843779
 11
461.659271978
 21
297.0505843779
  0
LINE
  8
0
 62
7
  6
CONTINUOUS
 10
461.559271978
 20
297.5045249758
 11
461.659271978
 21
297.5045249758
  0
LINE
  8
0
 62
7
  6
CONTINUOUS
 10
461.559271978
 20
298.1242345498
 11
461.659271978
 21
298.1242345498
  0
LINE
  8
0
 62
7
  6
CONTINUOUS
 10
461.559271978
 20
298.2813324172
 11
461.659271978
 21
298.2813324172
  0
LINE
  8
0
 62
7
  6
CONTINUOUS
 10
461.559271978
 20
298.761297128
 11
461.659271978
 21
298.761297128
  0
LINE
  8
0
 62
7
  6
CONTINUOUS
 10
462.559271978
 20
335.2881506865
 11
461.559271978
 21
337.0202014941
  0
LINE
  8
0
 62
7
  6
CONTINUOUS
 10
461.559271978
 20
298.9357444041
 11
461.659271978
 21
298.9357444041
  0
LINE
  8
0
 62
7
  6
CONTINUOUS
 10
461.559271978
 20
298.9704504126
 11
461.659271978
 21
298.9704504126
  0
LINE
  8
0
 62
7
  6
CONTINUOUS
 10
461.559271978
 20
300.5548374597
 11
461.659271978
 21
300.5548374597
  0
LINE
  8
0
 62
7
  6
CONTINUOUS
 10
461.559271978
 20
304.1674909086
 11
461.659271978
 21
304.1674909086
  0
LINE
  8
0
 62
7
  6
CONTINUOUS
 10
461.559271978
 20
305.8958380278
 11
461.659271978
 21
305.8958380278
  0
LINE
  8
0
 62
7
  6
CONTINUOUS
 10
461.559271978
 20
306.1790464854
 11
461.659271978
 21
306.1790464854
  0
LINE
  8
0
 62
7
  6
CONTINUOUS
 10
461.559271978
 20
306.2365083662
 11
461.659271978
 21
306.2365083662
  0
LINE
  8
0
 62
7
  6
CONTINUOUS
 10
461.559271978
 20
307.5443277874
 11
461.659271978
 21
307.5443277874
  0
LINE
  8
0
 62
7
  6
CONTINUOUS
 10
461.559271978
 20
309.1911440569
 11
461.659271978
 21
309.1911440569
  0
LINE
  8
0
 62
7
  6
CONTINUOUS
 10
461.559271978
 20
309.4541911475
 11
461.659271978
 21
309.4541911475
  0
LINE
  8
0
 62
7
  6
CONTINUOUS
 10
461.559271978
 20
309.4885374411
 11
461.659271978
 21
309.4885374411
  0
LINE
  8
0
 62
7
  6
CONTINUOUS
 10
461.559271978
 20
315.5947834104
 11
461.659271978
 21
315.5947834104
  0
POLYLINE
  8
0
 62
7
  6
CONTINUOUS
 66
1
 70
0
  0
VERTEX
  8
0
 62
7
  6
CONTINUOUS
 10
438.7969726772
 20
318.1260884906
  0
VERTEX
  8
0
 62
7
  6
CONTINUOUS
 10
438.7655967525
 20
318.1255961759
  0
VERTEX
  8
0
 62
7
  6
CONTINUOUS
 10
438.7195895776
 20
318.1230901145
  0
VERTEX
  8
0
 62
7
  6
CONTINUOUS
 10
438.6744498184
 20
318.1185546697
  0
VERTEX
  8
0
 62
7
  6
CONTINUOUS
 10
438.6302435186
 20
318.1120921398
  0
VERTEX
  8
0
 62
7
  6
CONTINUOUS
 10
438.5870284384
 20
318.1038033334
  0
VERTEX
  8
0
 62
7
  6
CONTINUOUS
 10
438.5448546023
 20
318.0937871544
  0
VERTEX
  8
0
 62
7
  6
CONTINUOUS
 10
438.5037648412
 20
318.0821402462
  0
VERTEX
  8
0
 62
7
  6
CONTINUOUS
 10
438.4637953245
 20
318.0689566926
  0
VERTEX
  8
0
 62
7
  6
CONTINUOUS
 10
438.4249760754
 20
318.0543277672
  0
VERTEX
  8
0
 62
7
  6
CONTINUOUS
 10
438.3873314849
 20
318.0383417354
  0
VERTEX
  8
0
 62
7
  6
CONTINUOUS
 10
438.3508807928
 20
318.0210836945
  0
VERTEX
  8
0
 62
7
  6
CONTINUOUS
 10
438.3156385376
 20
318.0026354438
  0
VERTEX
  8
0
 62
7
  6
CONTINUOUS
 10
438.2816150053
 20
317.9830753964
  0
VERTEX
  8
0
 62
7
  6
CONTINUOUS
 10
438.2488166592
 20
317.9624785233
  0
VERTEX
  8
0
 62
7
  6
CONTINUOUS
 10
438.2172465503
 20
317.940916327
  0
VERTEX
  8
0
 62
7
  6
CONTINUOUS
 10
438.1869047077
 20
317.918456844
  0
VERTEX
  8
0
 62
7
  6
CONTINUOUS
 10
438.1577885116
 20
317.8951646733
  0
VERTEX
  8
0
 62
7
  6
CONTINUOUS
 10
438.1298930476
 20
317.8711010312
  0
VERTEX
  8
0
 62
7
  6
CONTINUOUS
 10
438.1032115654
 20
317.8463239494
  0
VERTEX
  8
0
 62
7
  6
CONTINUOUS
 10
438.0777409297
 20
317.8208937371
  0
VERTEX
  8
0
 62
7
  6
CONTINUOUS
 10
438.0534826635
 20
317.7948759564
  0
VERTEX
  8
0
 62
7
  6
CONTINUOUS
 10
438.0304354608
 20
317.7683350529
  0
VERTEX
  8
0
 62
7
  6
CONTINUOUS
 10
438.0085948216
 20
317.7413337037
  0
VERTEX
  8
0
 62
7
  6
CONTINUOUS
 10
437.9879532374
 20
317.7139326672
  0
VERTEX
  8
0
 62
7
  6
CONTINUOUS
 10
437.9685003798
 20
317.6861906437
  0
VERTEX
  8
0
 62
7
  6
CONTINUOUS
 10
437.9502233289
 20
317.6581642079
  0
VERTEX
  8
0
 62
7
  6
CONTINUOUS
 10
437.9331068099
 20
317.6299077889
  0
VERTEX
  8
0
 62
7
  6
CONTINUOUS
 10
437.9171335798
 20
317.6014739788
  0
VERTEX
  8
0
 62
7
  6
CONTINUOUS
 10
437.9022849399
 20
317.572914295
  0
VERTEX
  8
0
 62
7
  6
CONTINUOUS
 10
437.8885414719
 20
317.5442808459
  0
VERTEX
  8
0
 62
7
  6
CONTINUOUS
 10
437.8758846591
 20
317.5156309527
  0
VERTEX
  8
0
 62
7
  6
CONTINUOUS
 10
437.8643097834
 20
317.4870633462
  0
VERTEX
  8
0
 62
7
  6
CONTINUOUS
 10
437.8537966373
 20
317.458655666
  0
VERTEX
  8
0
 62
7
  6
CONTINUOUS
 10
437.8443091483
 20
317.430450988
  0
VERTEX
  8
0
 62
7
  6
CONTINUOUS
 10
437.8358043647
 20
317.4024695741
  0
VERTEX
  8
0
 62
7
  6
CONTINUOUS
 10
437.8282385759
 20
317.374720374
  0
VERTEX
  8
0
 62
7
  6
CONTINUOUS
 10
437.8215835998
 20
317.3472678206
  0
VERTEX
  8
0
 62
7
  6
CONTINUOUS
 10
437.8158560295
 20
317.3204225706
  0
VERTEX
  8
0
 62
7
  6
CONTINUOUS
 10
437.8110924406
 20
317.2947936346
  0
VERTEX
  8
0
 62
7
  6
CONTINUOUS
 10
437.8070807572
 20
317.2697007989
  0
VERTEX
  8
0
 62
7
  6
CONTINUOUS
 10
437.8037220859
 20
317.2448054873
  0
VERTEX
  8
0
 62
7
  6
CONTINUOUS
 10
437.8010848289
 20
317.2211677056
  0
VERTEX
  8
0
 62
7
  6
CONTINUOUS
 10
437.7991054846
 20
317.1994450223
  0
VERTEX
  8
0
 62
7
  6
CONTINUOUS
 10
437.7976420165
 20
317.1797985334
  0
VERTEX
  8
0
 62
7
  6
CONTINUOUS
 10
437.675794726
 20
315.1853407036
  0
SEQEND
  0
LINE
  8
0
 62
7
  6
CONTINUOUS
 10
438.7969698932
 20
318.126088945
 11
449.559271978
 21
318.126088945
  0
LINE
  8
0
 62
7
  6
CONTINUOUS
 10
461.559271978
 20
319.9001497366
 11
461.659271978
 21
319.9001497366
  0
LINE
  8
0
 62
7
  6
CONTINUOUS
 10
461.559271978
 20
321.1713520019
 11
461.659271978
 21
321.1713520019
  0
LINE
  8
0
 62
7
  6
CONTINUOUS
 10
461.559271978
 20
321.3445806628
 11
461.659271978
 21
321.3445806628
  0
LINE
  8
0
 62
7
  6
CONTINUOUS
 10
461.559271978
 20
323.1632376353
 11
461.659271978
 21
323.1632376353
  0
LINE
  8
0
 62
7
  6
CONTINUOUS
 10
461.559271978
 20
323.5537545265
 11
461.659271978
 21
323.5537545265
  0
LINE
  8
0
 62
7
  6
CONTINUOUS
 10
461.559271978
 20
323.6008465212
 11
461.659271978
 21
323.6008465212
  0
LINE
  8
0
 62
7
  6
CONTINUOUS
 10
461.559271978
 20
324.1707354063
 11
461.659271978
 21
324.1707354063
  0
LINE
  8
0
 62
7
  6
CONTINUOUS
 10
461.559271978
 20
324.6890974716
 11
461.659271978
 21
324.6890974716
  0
LINE
  8
0
 62
7
  6
CONTINUOUS
 10
461.559271978
 20
325.2005374663
 11
461.659271978
 21
325.2005374663
  0
LINE
  8
0
 62
7
  6
CONTINUOUS
 10
437.559271978
 20
325.2881506865
 11
430.409271978
 21
325.2881506865
  0
LINE
  8
SURFACE
 62
7
  6
CONTINUOUS
 10
461.659271978
 20
325.2881506865
 11
468.709271978
 21
325.2881506865
  0
LINE
  8
0
 62
7
  6
CONTINUOUS
 10
461.559271978
 20
325.5197113161
 11
461.659271978
 21
325.5197113161
  0
LINE
  8
0
 62
7
  6
CONTINUOUS
 10
461.559271978
 20
325.6981374037
 11
461.659271978
 21
325.6981374037
  0
LINE
  8
0
 62
7
  6
CONTINUOUS
 10
461.559271978
 20
325.8250410247
 11
461.659271978
 21
325.8250410247
  0
LINE
  8
SURFACE
 62
7
  6
CONTINUOUS
 10
460.4592185057
 20
334.5113210094
 11
449.559271978
 21
334.5113210094
  0
LINE
  8
SURFACE
 62
7
  6
CONTINUOUS
 10
460.4876767622
 20
334.5109149837
 11
460.4591824002
 21
334.5113208849
  0
POLYLINE
  8
0
 62
7
  6
CONTINUOUS
 66
1
 70
0
  0
VERTEX
  8
0
 62
7
  6
CONTINUOUS
 10
438.7795595584
 20
357.5438637134
  0
VERTEX
  8
0
 62
7
  6
CONTINUOUS
 10
438.749619193
 20
357.5428624531
  0
VERTEX
  8
0
 62
7
  6
CONTINUOUS
 10
438.720025732
 20
357.5409886041
  0
VERTEX
  8
0
 62
7
  6
CONTINUOUS
 10
438.6907986269
 20
357.5382703076
  0
VERTEX
  8
0
 62
7
  6
CONTINUOUS
 10
438.661955777
 20
357.5347354952
  0
VERTEX
  8
0
 62
7
  6
CONTINUOUS
 10
438.6335135931
 20
357.5304118341
  0
VERTEX
  8
0
 62
7
  6
CONTINUOUS
 10
438.6054870625
 20
357.5253266771
  0
VERTEX
  8
0
 62
7
  6
CONTINUOUS
 10
438.5778898123
 20
357.5195070171
  0
VERTEX
  8
0
 62
7
  6
CONTINUOUS
 10
438.5507341734
 20
357.5129794468
  0
VERTEX
  8
0
 62
7
  6
CONTINUOUS
 10
438.5240312423
 20
357.5057701214
  0
VERTEX
  8
0
 62
7
  6
CONTINUOUS
 10
438.497790943
 20
357.4979047263
  0
VERTEX
  8
0
 62
7
  6
CONTINUOUS
 10
438.4720220876
 20
357.4894084484
  0
VERTEX
  8
0
 62
7
  6
CONTINUOUS
 10
438.4467324355
 20
357.4803059506
  0
VERTEX
  8
0
 62
7
  6
CONTINUOUS
 10
438.4219287518
 20
357.4706213503
  0
VERTEX
  8
0
 62
7
  6
CONTINUOUS
 10
438.3976168639
 20
357.4603782004
  0
VERTEX
  8
0
 62
7
  6
CONTINUOUS
 10
438.3738017169
 20
357.4495994739
  0
VERTEX
  8
0
 62
7
  6
CONTINUOUS
 10
438.350487427
 20
357.4383075508
  0
VERTEX
  8
0
 62
7
  6
CONTINUOUS
 10
438.3276773346
 20
357.4265242077
  0
VERTEX
  8
0
 62
7
  6
CONTINUOUS
 10
438.3053740546
 20
357.4142706102
  0
VERTEX
  8
0
 62
7
  6
CONTINUOUS
 10
438.2835795257
 20
357.4015673074
  0
VERTEX
  8
0
 62
7
  6
CONTINUOUS
 10
438.2622950582
 20
357.3884342281
  0
VERTEX
  8
0
 62
7
  6
CONTINUOUS
 10
438.2415213801
 20
357.3748906795
  0
VERTEX
  8
0
 62
7
  6
CONTINUOUS
 10
438.2212586812
 20
357.3609553477
  0
VERTEX
  8
0
 62
7
  6
CONTINUOUS
 10
438.2015066565
 20
357.3466462998
  0
VERTEX
  8
0
 62
7
  6
CONTINUOUS
 10
438.1822645468
 20
357.331980987
  0
VERTEX
  8
0
 62
7
  6
CONTINUOUS
 10
438.1635311787
 20
357.3169762505
  0
VERTEX
  8
0
 62
7
  6
CONTINUOUS
 10
438.1453050028
 20
357.3016483271
  0
VERTEX
  8
0
 62
7
  6
CONTINUOUS
 10
438.1275841301
 20
357.2860128576
  0
VERTEX
  8
0
 62
7
  6
CONTINUOUS
 10
438.1103671578
 20
357.2700856437
  0
VERTEX
  8
0
 62
7
  6
CONTINUOUS
 10
438.0936548041
 20
357.2538844261
  0
VERTEX
  8
0
 62
7
  6
CONTINUOUS
 10
438.0774477225
 20
357.2374271652
  0
VERTEX
  8
0
 62
7
  6
CONTINUOUS
 10
438.0617459967
 20
357.2207315761
  0
VERTEX
  8
0
 62
7
  6
CONTINUOUS
 10
438.0465491588
 20
357.2038151139
  0
VERTEX
  8
0
 62
7
  6
CONTINUOUS
 10
438.0318562076
 20
357.1866949606
  0
VERTEX
  8
0
 62
7
  6
CONTINUOUS
 10
438.0176656266
 20
357.1693880128
  0
VERTEX
  8
0
 62
7
  6
CONTINUOUS
 10
438.0039754028
 20
357.1519108696
  0
VERTEX
  8
0
 62
7
  6
CONTINUOUS
 10
437.9907830448
 20
357.1342798226
  0
VERTEX
  8
0
 62
7
  6
CONTINUOUS
 10
437.9780856019
 20
357.1165108458
  0
VERTEX
  8
0
 62
7
  6
CONTINUOUS
 10
437.9658796822
 20
357.0986195872
  0
VERTEX
  8
0
 62
7
  6
CONTINUOUS
 10
437.954161472
 20
357.0806213616
  0
VERTEX
  8
0
 62
7
  6
CONTINUOUS
 10
437.9429267546
 20
357.0625311449
  0
VERTEX
  8
0
 62
7
  6
CONTINUOUS
 10
437.9321709304
 20
357.0443635707
  0
VERTEX
  8
0
 62
7
  6
CONTINUOUS
 10
437.9218890359
 20
357.0261329292
  0
VERTEX
  8
0
 62
7
  6
CONTINUOUS
 10
437.9120757651
 20
357.0078531694
  0
VERTEX
  8
0
 62
7
  6
CONTINUOUS
 10
437.9027254903
 20
356.9895379067
  0
VERTEX
  8
0
 62
7
  6
CONTINUOUS
 10
437.8938322842
 20
356.9712004366
  0
VERTEX
  8
0
 62
7
  6
CONTINUOUS
 10
437.8853902177
 20
356.9528543683
  0
VERTEX
  8
0
 62
7
  6
CONTINUOUS
 10
437.8773955079
 20
356.9345188381
  0
VERTEX
  8
0
 62
7
  6
CONTINUOUS
 10
437.8698448043
 20
356.9162158846
  0
VERTEX
  8
0
 62
7
  6
CONTINUOUS
 10
437.8627337077
 20
356.8979673637
  0
VERTEX
  8
0
 62
7
  6
CONTINUOUS
 10
437.8560567937
 20
356.8797948775
  0
VERTEX
  8
0
 62
7
  6
CONTINUOUS
 10
437.8498076488
 20
356.8617197244
  0
VERTEX
  8
0
 62
7
  6
CONTINUOUS
 10
437.8439789187
 20
356.8437628824
  0
VERTEX
  8
0
 62
7
  6
CONTINUOUS
 10
437.8385623819
 20
356.8259450848
  0
VERTEX
  8
0
 62
7
  6
CONTINUOUS
 10
437.8335490669
 20
356.8082871003
  0
VERTEX
  8
0
 62
7
  6
CONTINUOUS
 10
437.8289294382
 20
356.7908104166
  0
VERTEX
  8
0
 62
7
  6
CONTINUOUS
 10
437.824693701
 20
356.7735387611
  0
VERTEX
  8
0
 62
7
  6
CONTINUOUS
 10
437.8208348018
 20
356.7565127577
  0
VERTEX
  8
0
 62
7
  6
CONTINUOUS
 10
437.8173424395
 20
356.7397673413
  0
VERTEX
  8
0
 62
7
  6
CONTINUOUS
 10
437.814201457
 20
356.7233196174
  0
VERTEX
  8
0
 62
7
  6
CONTINUOUS
 10
437.8113952691
 20
356.7071799942
  0
VERTEX
  8
0
 62
7
  6
CONTINUOUS
 10
437.8089083765
 20
356.6913654232
  0
VERTEX
  8
0
 62
7
  6
CONTINUOUS
 10
437.806732982
 20
356.6759533023
  0
VERTEX
  8
0
 62
7
  6
CONTINUOUS
 10
437.8048847774
 20
356.6612544319
  0
VERTEX
  8
0
 62
7
  6
CONTINUOUS
 10
437.803306074
 20
356.6470386629
  0
VERTEX
  8
0
 62
7
  6
CONTINUOUS
 10
437.8019402597
 20
356.6329281266
  0
VERTEX
  8
0
 62
7
  6
CONTINUOUS
 10
437.8008227638
 20
356.6194809246
  0
VERTEX
  8
0
 62
7
  6
CONTINUOUS
 10
437.7999361745
 20
356.6069070814
  0
VERTEX
  8
0
 62
7
  6
CONTINUOUS
 10
437.799333073
 20
356.596894827
  0
VERTEX
  8
0
 62
7
  6
CONTINUOUS
 10
437.7534765695
 20
355.7181329634
  0
SEQEND
  0
POLYLINE
  8
0
 62
7
  6
CONTINUOUS
 66
1
 70
0
  0
VERTEX
  8
0
 62
7
  6
CONTINUOUS
 10
438.7978695597
 20
352.2520077133
  0
VERTEX
  8
0
 62
7
  6
CONTINUOUS
 10
438.7757853419
 20
352.25176383
  0
VERTEX
  8
0
 62
7
  6
CONTINUOUS
 10
438.7304915288
 20
352.24973526
  0
VERTEX
  8
0
 62
7
  6
CONTINUOUS
 10
438.6863760858
 20
352.2457729586
  0
VERTEX
  8
0
 62
7
  6
CONTINUOUS
 10
438.643470019
 20
352.2400163607
  0
VERTEX
  8
0
 62
7
  6
CONTINUOUS
 10
438.6017936354
 20
352.2325966844
  0
VERTEX
  8
0
 62
7
  6
CONTINUOUS
 10
438.5613578724
 20
352.2236367348
  0
VERTEX
  8
0
 62
7
  6
CONTINUOUS
 10
438.5221655376
 20
352.2132508157
  0
VERTEX
  8
0
 62
7
  6
CONTINUOUS
 10
438.4842124587
 20
352.2015447308
  0
VERTEX
  8
0
 62
7
  6
CONTINUOUS
 10
438.4474885469
 20
352.1886158617
  0
VERTEX
  8
0
 62
7
  6
CONTINUOUS
 10
438.4119787774
 20
352.174553307
  0
VERTEX
  8
0
 62
7
  6
CONTINUOUS
 10
438.3776640898
 20
352.1594380734
  0
VERTEX
  8
0
 62
7
  6
CONTINUOUS
 10
438.3445222134
 20
352.1433433084
  0
VERTEX
  8
0
 62
7
  6
CONTINUOUS
 10
438.3125374846
 20
352.1263395938
  0
VERTEX
  8
0
 62
7
  6
CONTINUOUS
 10
438.2817267318
 20
352.1085125758
  0
VERTEX
  8
0
 62
7
  6
CONTINUOUS
 10
438.2521102182
 20
352.0899524095
  0
VERTEX
  8
0
 62
7
  6
CONTINUOUS
 10
438.2237026496
 20
352.0707491519
  0
VERTEX
  8
0
 62
7
  6
CONTINUOUS
 10
438.1965133473
 20
352.050992405
  0
VERTEX
  8
0
 62
7
  6
CONTINUOUS
 10
438.1705464478
 20
352.0307709828
  0
VERTEX
  8
0
 62
7
  6
CONTINUOUS
 10
438.1458011266
 20
352.0101726014
  0
VERTEX
  8
0
 62
7
  6
CONTINUOUS
 10
438.1222718394
 20
351.9892835906
  0
VERTEX
  8
0
 62
7
  6
CONTINUOUS
 10
438.0999409216
 20
351.9681811655
  0
VERTEX
  8
0
 62
7
  6
CONTINUOUS
 10
438.0787645777
 20
351.9469160969
  0
VERTEX
  8
0
 62
7
  6
CONTINUOUS
 10
438.0586946141
 20
351.9255289964
  0
VERTEX
  8
0
 62
7
  6
CONTINUOUS
 10
438.0396835345
 20
351.9040547966
  0
VERTEX
  8
0
 62
7
  6
CONTINUOUS
 10
438.0216848225
 20
351.8825231216
  0
VERTEX
  8
0
 62
7
  6
CONTINUOUS
 10
438.0046531577
 20
351.8609586142
  0
VERTEX
  8
0
 62
7
  6
CONTINUOUS
 10
437.9885444877
 20
351.8393810883
  0
VERTEX
  8
0
 62
7
  6
CONTINUOUS
 10
437.9733163286
 20
351.8178059846
  0
VERTEX
  8
0
 62
7
  6
CONTINUOUS
 10
437.9589279435
 20
351.7962447159
  0
VERTEX
  8
0
 62
7
  6
CONTINUOUS
 10
437.9453404728
 20
351.7747049738
  0
VERTEX
  8
0
 62
7
  6
CONTINUOUS
 10
437.9325170477
 20
351.7531910284
  0
VERTEX
  8
0
 62
7
  6
CONTINUOUS
 10
437.9204228908
 20
351.7317040264
  0
VERTEX
  8
0
 62
7
  6
CONTINUOUS
 10
437.9090254083
 20
351.7102422975
  0
VERTEX
  8
0
 62
7
  6
CONTINUOUS
 10
437.8982942802
 20
351.688801683
  0
VERTEX
  8
0
 62
7
  6
CONTINUOUS
 10
437.8882047552
 20
351.667382923
  0
VERTEX
  8
0
 62
7
  6
CONTINUOUS
 10
437.8787412081
 20
351.6460024584
  0
VERTEX
  8
0
 62
7
  6
CONTINUOUS
 10
437.869888194
 20
351.6246761571
  0
VERTEX
  8
0
 62
7
  6
CONTINUOUS
 10
437.8616299364
 20
351.6034180541
  0
VERTEX
  8
0
 62
7
  6
CONTINUOUS
 10
437.8539504006
 20
351.5822401929
  0
VERTEX
  8
0
 62
7
  6
CONTINUOUS
 10
437.8468333198
 20
351.5611522693
  0
VERTEX
  8
0
 62
7
  6
CONTINUOUS
 10
437.8402622326
 20
351.5401611682
  0
VERTEX
  8
0
 62
7
  6
CONTINUOUS
 10
437.8342208748
 20
351.519271577
  0
VERTEX
  8
0
 62
7
  6
CONTINUOUS
 10
437.8286941545
 20
351.4984892777
  0
VERTEX
  8
0
 62
7
  6
CONTINUOUS
 10
437.8236701858
 20
351.4778309518
  0
VERTEX
  8
0
 62
7
  6
CONTINUOUS
 10
437.8191453044
 20
351.4573542932
  0
VERTEX
  8
0
 62
7
  6
CONTINUOUS
 10
437.8151711621
 20
351.4374310474
  0
VERTEX
  8
0
 62
7
  6
CONTINUOUS
 10
437.8117196044
 20
351.4181345579
  0
VERTEX
  8
0
 62
7
  6
CONTINUOUS
 10
437.8087018653
 20
351.3991561149
  0
VERTEX
  8
0
 62
7
  6
CONTINUOUS
 10
437.8060457896
 20
351.3801192036
  0
VERTEX
  8
0
 62
7
  6
CONTINUOUS
 10
437.8037883801
 20
351.3613731196
  0
VERTEX
  8
0
 62
7
  6
CONTINUOUS
 10
437.8020327318
 20
351.344266203
  0
VERTEX
  8
0
 62
7
  6
CONTINUOUS
 10
437.8006516732
 20
351.3283463403
  0
VERTEX
  8
0
 62
7
  6
CONTINUOUS
 10
437.7995909389
 20
351.3138209967
  0
SEQEND
  0
LINE
  8
0
 62
7
  6
CONTINUOUS
 10
438.7980088877
 20
357.544033916
 11
438.7795595584
 21
357.5438637134
  0
LINE
  8
0
 62
7
  6
CONTINUOUS
 10
438.7978644872
 20
352.2520081349
 11
449.559271978
 21
352.2520081349
  0
LINE
  8
SURFACE
 62
7
  6
CONTINUOUS
 10
460.3205406293
 20
357.5440344073
 11
449.559271978
 21
357.5440344073
  0
LINE
  8
0
 62
7
  6
CONTINUOUS
 10
438.7980033267
 20
357.5440344073
 11
449.559271978
 21
357.5440344073
  0
ARC
  8
0
 62
7
  6
CONTINUOUS
 10
110.6126563188
 20
119.8388806424
 40
110.0000000855
 50
348.6274276383
 51
353.3532027771
  0
ARC
  8
SURFACE
 62
7
  6
CONTINUOUS
 10
103.7005734888
 20
125.9624516818
 40
110.0000000855
 50
103.569874146
 51
108.2956492848
  0
ARC
  8
0
 62
7
  6
CONTINUOUS
 10
89.2124029878
 20
150.2079904919
 40
9.5
 50
318.4615384615
 51
20.7692307692
  0
ARC
  8
SURFACE
 62
7
  6
CONTINUOUS
 10
89.1344505214
 20
150.3209241364
 40
9.5
 50
48.4615384615
 51
110.7692307692
  0
ARC
  8
0
 62
7
  6
CONTINUOUS
 10
114.0431346992
 20
138.2736517527
 40
2.0
 50
48.4615384615
 51
117.9685873925
  0
ARC
  8
0
 62
7
  6
CONTINUOUS
 10
104.136432249
 20
137.9577967633
 40
2.0
 50
247.1804080055
 51
293.2428122537
  0
ARC
  8
SURFACE
 62
7
  6
CONTINUOUS
 10
121.5874358864
 20
131.5899841234
 40
2.0
 50
338.9544895306
 51
48.4615384615
  0
ARC
  8
SURFACE
 62
7
  6
CONTINUOUS
 10
122.468004861
 20
121.7174405761
 40
2.0
 50
163.6802646694
 51
209.7426689176
  0
ARC
  8
0
 62
7
  6
CONTINUOUS
 10
95.2181012426
 20
141.0020461163
 40
1.1
 50
138.4615384615
 51
244.1682051961
  0
ARC
  8
SURFACE
 62
7
  6
CONTINUOUS
 10
126.5650442216
 20
113.2310779549
 40
1.1
 50
212.754871727
 51
318.4615384615
  0
ARC
  8
0
 62
7
  6
CONTINUOUS
 10
118.7093278878
 20
210.0242039568
 40
180.0
 50
327.245128273
 51
330.2573310824
  0
ARC
  8
SURFACE
 62
7
  6
CONTINUOUS
 10
117.3565175697
 20
221.1655992975
 40
180.0
 50
43.5888227638
 51
46.6010255732
  0
ARC
  8
SURFACE
 62
7
  6
CONTINUOUS
 10
128.494010989
 20
184.2241150029
 40
180.0
 50
71.2811304561
 51
74.2933332655
  0
ARC
  8
0
 62
7
  6
CONTINUOUS
 10
71.6020539853
 20
172.4651854326
 40
110.0000000855
 50
320.935119946
 51
325.6608950848
  0
ARC
  8
SURFACE
 62
7
  6
CONTINUOUS
 10
68.3274739513
 20
181.0995433663
 40
110.0000000855
 50
75.8775664537
 51
80.6033415925
  0
ARC
  8
0
 62
7
  6
CONTINUOUS
 10
66.7662997842
 20
209.3008903532
 40
9.5
 50
290.7692307692
 51
353.0769230769
  0
ARC
  8
SURFACE
 62
7
  6
CONTINUOUS
 10
66.7497591846
 20
209.4371144466
 40
9.5
 50
20.7692307692
 51
83.0769230769
  0
ARC
  8
0
 62
7
  6
CONTINUOUS
 10
83.2066570444
 20
187.1941417993
 40
2.0
 50
20.7692307692
 51
90.2762797002
  0
ARC
  8
0
 62
7
  6
CONTINUOUS
 10
74.2879225328
 20
191.5183402828
 40
2.0
 50
219.4881003132
 51
265.5505045614
  0
ARC
  8
SURFACE
 62
7
  6
CONTINUOUS
 10
86.7807487683
 20
177.7700364449
 40
2.0
 50
311.2621818383
 51
20.7692307692
  0
ARC
  8
SURFACE
 62
7
  6
CONTINUOUS
 10
82.9724541194
 20
168.6191124653
 40
2.0
 50
135.9879569771
 51
182.0503612253
  0
ARC
  8
0
 62
7
  6
CONTINUOUS
 10
67.8058658204
 20
198.3584442906
 40
1.1
 50
110.7692307692
 51
216.4758975038
  0
ARC
  8
SURFACE
 62
7
  6
CONTINUOUS
 10
82.6563929522
 20
159.2008224188
 40
1.1
 50
185.0625640347
 51
290.7692307692
  0
ARC
  8
SURFACE
 62
7
  6
CONTINUOUS
 10
65.1404185727
 20
220.3103773502
 40
1.1
 50
157.3702563424
 51
263.0769230769
  0
ARC
  8
0
 62
7
  6
CONTINUOUS
 10
165.461007869
 20
151.4742135511
 40
180.0
 50
22.6297436576
 51
25.641946467
  0
ARC
  8
SURFACE
 62
7
  6
CONTINUOUS
 10
192.2523983443
 20
144.8707288791
 40
180.0
 50
126.6657458407
 51
129.6779486501
  0
ARC
  8
SURFACE
 62
7
  6
CONTINUOUS
 10
155.5233354092
 20
156.6899064082
 40
180.0
 50
98.9734381484
 51
101.9856409578
  0
ARC
  8
0
 62
7
  6
CONTINUOUS
 10
169.6114925145
 20
91.3697328177
 40
110.0000000855
 50
16.3197353306
 51
21.0455104694
  0
ARC
  8
SURFACE
 62
7
  6
CONTINUOUS
 10
160.6453817651
 20
93.579680635
 40
110.0000000855
 50
131.2621818383
 51
135.9879569771
  0
ARC
  8
0
 62
7
  6
CONTINUOUS
 10
136.5492801906
 20
108.3150505172
 40
9.5
 50
346.1538461538
 51
48.4615384615
  0
ARC
  8
SURFACE
 62
7
  6
CONTINUOUS
 10
197.7953986813
 20
93.2192381126
 40
9.5
 50
103.8461538462
 51
166.1538461538
  0
ARC
  8
SURFACE
 62
7
  6
CONTINUOUS
 10
136.427773828
 20
108.3788219757
 40
9.5
 50
76.1538461538
 51
138.4615384615
  0
ARC
  8
0
 62
7
  6
CONTINUOUS
 10
164.081964961
 20
109.2871347735
 40
2.0
 50
76.1538461538
 51
145.6608950848
  0
ARC
  8
0
 62
7
  6
CONTINUOUS
 10
155.4568007147
 20
104.4035848827
 40
2.0
 50
274.8727156978
 51
320.935119946
  0
ARC
  8
SURFACE
 62
7
  6
CONTINUOUS
 10
173.8681671281
 20
106.8750525762
 40
2.0
 50
6.6467972229
 51
76.1538461538
  0
ARC
  8
SURFACE
 62
7
  6
CONTINUOUS
 10
179.2358719861
 20
98.5425702108
 40
2.0
 50
191.3725723617
 51
237.4349766099
  0
ARC
  8
0
 62
7
  6
CONTINUOUS
 10
146.1452775705
 20
102.9545787413
 40
1.1
 50
166.1538461538
 51
271.8605128884
  0
ARC
  8
SURFACE
 62
7
  6
CONTINUOUS
 10
186.8074295318
 20
92.9322584196
 40
1.1
 50
240.4471794193
 51
346.1538461539
  0
ARC
  8
0
 62
7
  6
CONTINUOUS
 10
134.8695296205
 20
174.9875816665
 40
180.0
 50
354.9374359653
 51
357.9496387747
  0
ARC
  8
DEFAULT_3
 62
2
  6
PHANTOM
 10
155.0840507272
 20
225.2881506865
 40
3.2
 50
92.2544307753
 51
267.7455692247
  0
ARC
  8
DEFAULT_3
 62
2
  6
PHANTOM
 10
154.8322933663
 20
218.8931043042
 40
3.2
 50
45.0
 51
87.7455692247
  0
ARC
  8
DEFAULT_3
 62
2
  6
PHANTOM
 10
159.0749340534
 20
214.6504636171
 40
3.2
 50
3.5903778907
 51
45.0
  0
ARC
  8
DEFAULT_3
 62
2
  6
PHANTOM
 10
165.4623725126
 20
215.0512502574
 40
3.2
 50
183.5903778907
 51
225.0
  0
ARC
  8
DEFAULT_3
 62
2
  6
PHANTOM
 10
187.6271105599
 20
192.88651221
 40
3.2
 50
225.0
 51
266.4096221093
  0
ARC
  8
DEFAULT_3
 62
2
  6
PHANTOM
 10
187.2263239196
 20
186.4990737509
 40
3.2
 50
45.0
 51
86.4096221093
  0
ARC
  8
DEFAULT_3
 62
2
  6
PHANTOM
 10
191.4689646068
 20
182.2564330638
 40
3.2
 50
2.2544307753
 51
45.0
  0
ARC
  8
0
 62
7
  6
CONTINUOUS
 10
120.6825101362
 20
248.5576124923
 40
180.0
 50
299.5528205807
 51
302.5650233901
  0
ARC
  8
SURFACE
 62
7
  6
CONTINUOUS
 10
124.6623206722
 20
259.0515104332
 40
180.0
 50
15.8965150715
 51
18.9087178809
  0
ARC
  8
0
 62
7
  6
CONTINUOUS
 10
61.5165443798
 20
237.1925949768
 40
110.0000000855
 50
293.2428122537
 51
297.9685873925
  0
ARC
  8
SURFACE
 62
7
  6
CONTINUOUS
 10
62.6296339647
 20
246.3597124573
 40
110.0000000855
 50
48.1852587614
 51
52.9110339002
  0
ARC
  8
0
 62
7
  6
CONTINUOUS
 10
74.353102319
 20
272.0562788894
 40
9.5
 50
263.0769230769
 51
325.3846153846
  0
ARC
  8
SURFACE
 62
7
  6
CONTINUOUS
 10
74.4017628382
 20
272.1845861338
 40
9.5
 50
353.0769230769
 51
55.3846153846
  0
ARC
  8
0
 62
7
  6
CONTINUOUS
 10
78.6367974074
 20
244.8415101993
 40
2.0
 50
353.0769383978
 51
62.5839720079
  0
ARC
  8
0
 62
7
  6
CONTINUOUS
 10
72.7492054287
 20
252.8151403955
 40
2.0
 50
191.7957926208
 51
237.8581968691
  0
ARC
  8
SURFACE
 62
7
  6
CONTINUOUS
 10
77.4218983265
 20
234.8359160837
 40
2.0
 50
283.569874146
 51
353.0769230769
  0
ARC
  8
SURFACE
 62
7
  6
CONTINUOUS
 10
69.7971744634
 20
228.502978075
 40
2.0
 50
108.2956492848
 51
154.358053533
  0
ARC
  8
SURFACE
 62
7
  6
CONTINUOUS
 10
95.654884411
 20
289.7145177332
 40
2.0
 50
255.8775664537
 51
325.3846153846
  0
ARC
  8
SURFACE
 62
7
  6
CONTINUOUS
 10
85.9604636826
 20
287.6503654729
 40
2.0
 50
80.6033415925
 51
126.6657458407
  0
ARC
  8
0
 62
7
  6
CONTINUOUS
 10
70.1883840857
 20
261.8841136621
 40
1.1
 50
83.0769230769
 51
188.7835898114
  0
ARC
  8
SURFACE
 62
7
  6
CONTINUOUS
 10
78.0298197231
 20
282.5602801643
 40
1.1
 50
129.6779486501
 51
235.3846153846
  0
ARC
  8
0
 62
7
  6
CONTINUOUS
 10
82.6665962093
 20
299.1928397982
 40
110.0000000855
 50
265.5505045614
 51
270.2762797002
  0
ARC
  8
SURFACE
 62
7
  6
CONTINUOUS
 10
87.9123600034
 20
306.7926406865
 40
110.0000000855
 50
20.4929510691
 51
25.2187262079
  0
ARC
  8
0
 62
7
  6
CONTINUOUS
 10
110.2347655622
 20
324.0976528715
 40
9.5
 50
235.3846153846
 51
297.6923076923
  0
ARC
  8
SURFACE
 62
7
  6
CONTINUOUS
 10
110.3374796618
 20
324.1886496232
 40
9.5
 50
325.3846153846
 51
27.6923076923
  0
ARC
  8
0
 62
7
  6
CONTINUOUS
 10
101.3804555582
 20
298.0094395785
 40
2.0
 50
325.3846273387
 51
34.8916643156
  0
ARC
  8
0
 62
7
  6
CONTINUOUS
 10
99.8727824816
 20
307.805838902
 40
2.0
 50
164.1034849285
 51
210.1658891768
  0
ARC
  8
0
 62
7
  6
CONTINUOUS
 10
101.8198498164
 20
317.026088945
 40
1.1
 50
55.3846153846
 51
161.0912821191
  0
ARC
  8
SURFACE
 62
7
  6
CONTINUOUS
 10
118.3717899339
 20
331.689828319
 40
1.1
 50
101.9856409578
 51
207.6923076923
  0
ARC
  8
0
 62
7
  6
CONTINUOUS
 10
140.3370440921
 20
281.7602677556
 40
180.0
 50
271.8605128884
 51
274.8727156978
  0
ARC
  8
SURFACE
 62
7
  6
CONTINUOUS
 10
148.7377488503
 20
289.2026427435
 40
180.0
 50
348.2042073792
 51
351.2164101886
  0
ARC
  8
DEFAULT_3
 62
2
  6
PHANTOM
 10
191.4689646068
 20
268.3198683092
 40
3.2
 50
315.0
 51
357.7455692247
  0
ARC
  8
DEFAULT_3
 62
2
  6
PHANTOM
 10
187.2263239196
 20
264.0772276221
 40
3.2
 50
273.5903778907
 51
315.0
  0
ARC
  8
DEFAULT_3
 62
2
  6
PHANTOM
 10
187.6271105599
 20
257.6897891629
 40
3.2
 50
93.5903778907
 51
135.0
  0
ARC
  8
DEFAULT_3
 62
2
  6
PHANTOM
 10
165.4623725126
 20
235.5250511156
 40
3.2
 50
135.0
 51
176.4096221093
  0
ARC
  8
DEFAULT_3
 62
2
  6
PHANTOM
 10
159.0749340534
 20
235.9258377559
 40
3.2
 50
315.0
 51
356.4096221093
  0
ARC
  8
DEFAULT_3
 62
2
  6
PHANTOM
 10
154.8322933663
 20
231.6831970687
 40
3.2
 50
272.2544307753
 51
315.0
  0
ARC
  8
0
 62
7
  6
CONTINUOUS
 10
173.170312889
 20
302.0258415611
 40
180.0
 50
244.1682051961
 51
247.1804080055
  0
ARC
  8
SURFACE
 62
7
  6
CONTINUOUS
 10
184.0674116488
 20
304.7117351767
 40
180.0
 50
320.5118996868
 51
323.5241024962
  0
ARC
  8
0
 62
7
  6
CONTINUOUS
 10
193.2467874909
 20
362.0764129453
 40
110.0000000855
 50
210.1658891768
 51
214.8916643156
  0
ARC
  8
0
 62
7
  6
CONTINUOUS
 10
130.2069874856
 20
344.2624109921
 40
110.0000000855
 50
237.8581968691
 51
242.5839720079
  0
ARC
  8
SURFACE
 62
7
  6
CONTINUOUS
 10
138.3836842219
 20
348.5538724923
 40
110.0000000855
 50
352.8006433768
 51
357.5264185155
  0
ARC
  8
0
 62
7
  6
CONTINUOUS
 10
166.1912328859
 20
353.5029606865
 40
9.5
 50
207.6923076923
 51
270.0
  0
ARC
  8
SURFACE
 62
7
  6
CONTINUOUS
 10
166.3244700034
 20
353.5358006865
 40
9.5
 50
297.6923076923
 51
360.0
  0
ARC
  8
0
 62
7
  6
CONTINUOUS
 10
146.2273335054
 20
334.517798059
 40
2.0
 50
297.6923192459
 51
7.1993566233
  0
ARC
  8
0
 62
7
  6
CONTINUOUS
 10
149.4449690632
 20
343.8927294843
 40
2.0
 50
136.4111772362
 51
182.4735814844
  0
ARC
  8
SURFACE
 62
7
  6
CONTINUOUS
 10
137.3027496409
 20
329.8338151141
 40
2.0
 50
228.1852587614
 51
297.6923076923
  0
ARC
  8
SURFACE
 62
7
  6
CONTINUOUS
 10
127.7595070058
 20
332.5113210094
 40
2.0
 50
52.9110339002
 51
98.9734381484
  0
ARC
  8
SURFACE
 62
7
  6
CONTINUOUS
 10
192.8244700034
 20
346.0029606865
 40
2.0
 50
200.4929510691
 51
270.0
  0
ARC
  8
SURFACE
 62
7
  6
CONTINUOUS
 10
185.6186473407
 20
352.8087404042
 40
2.0
 50
25.2187262079
 51
71.2811304561
  0
ARC
  8
0
 62
7
  6
CONTINUOUS
 10
155.4538754142
 20
351.1520081349
 40
1.1
 50
27.6923076923
 51
133.3989744268
  0
ARC
  8
SURFACE
 62
7
  6
CONTINUOUS
 10
176.9244700034
 20
356.4440344073
 40
1.1
 50
74.2933332655
 51
180.0
  0
ARC
  8
0
 62
7
  6
CONTINUOUS
 10
240.2046865688
 20
156.6899064082
 40
180.0
 50
78.0143590422
 51
81.0265618516
  0
ARC
  8
0
 62
7
  6
CONTINUOUS
 10
203.4756236337
 20
144.8707288791
 40
180.0
 50
50.3220513499
 51
53.3342541593
  0
ARC
  8
SURFACE
 62
7
  6
CONTINUOUS
 10
230.2670141091
 20
151.4742135511
 40
180.0
 50
154.358053533
 51
157.3702563424
  0
ARC
  8
0
 62
7
  6
CONTINUOUS
 10
235.0826402129
 20
93.579680635
 40
110.0000000855
 50
44.0120430229
 51
48.7378181617
  0
ARC
  8
SURFACE
 62
7
  6
CONTINUOUS
 10
226.1165294635
 20
91.3697328177
 40
110.0000000855
 50
158.9544895306
 51
163.6802646694
  0
ARC
  8
0
 62
7
  6
CONTINUOUS
 10
259.30024815
 20
108.3788219757
 40
9.5
 50
41.5384615385
 51
103.8461538462
  0
ARC
  8
0
 62
7
  6
CONTINUOUS
 10
197.9326232967
 20
93.2192381126
 40
9.5
 50
13.8461538462
 51
76.1538461538
  0
ARC
  8
SURFACE
 62
7
  6
CONTINUOUS
 10
259.1787417874
 20
108.3150505172
 40
9.5
 50
131.5384615385
 51
193.8461538462
  0
ARC
  8
0
 62
7
  6
CONTINUOUS
 10
221.8598548499
 20
106.8750525762
 40
2.0
 50
103.8461770982
 51
173.3532027771
  0
ARC
  8
0
 62
7
  6
CONTINUOUS
 10
216.4921499919
 20
98.5425702108
 40
2.0
 50
302.5650233901
 51
348.6274276383
  0
ARC
  8
SURFACE
 62
7
  6
CONTINUOUS
 10
231.6460570171
 20
109.2871347735
 40
2.0
 50
34.3391049152
 51
103.8461538462
  0
ARC
  8
SURFACE
 62
7
  6
CONTINUOUS
 10
240.2712212634
 20
104.4035848827
 40
2.0
 50
219.064880054
 51
265.1272843022
  0
ARC
  8
0
 62
7
  6
CONTINUOUS
 10
208.9205924462
 20
92.9322584196
 40
1.1
 50
193.8461538462
 51
299.5528205807
  0
ARC
  8
SURFACE
 62
7
  6
CONTINUOUS
 10
249.5827444075
 20
102.9545787413
 40
1.1
 50
268.1394871116
 51
13.8461538462
  0
ARC
  8
SURFACE
 62
7
  6
CONTINUOUS
 10
260.8584923575
 20
174.9875816665
 40
180.0
 50
182.0503612253
 51
185.0625640347
  0
CIRCLE
  8
SURFACE
 62
7
  6
CONTINUOUS
 10
197.864010989
 20
225.2881506865
 40
100.0
  0
CIRCLE
  8
DEFAULT_3
 62
2
  6
PHANTOM
 10
197.864010989
 20
225.2881506865
 40
9.0
  0
ARC
  8
DEFAULT_3
 62
2
  6
PHANTOM
 10
197.864010989
 20
182.5081904247
 40
3.2
 50
182.2544307753
 51
357.7455692247
  0
ARC
  8
DEFAULT_3
 62
2
  6
PHANTOM
 10
204.2590573713
 20
182.2564330638
 40
3.2
 50
135.0
 51
177.7455692247
  0
ARC
  8
DEFAULT_3
 62
2
  6
PHANTOM
 10
208.5016980584
 20
186.4990737509
 40
3.2
 50
93.5903778907
 51
135.0
  0
ARC
  8
DEFAULT_3
 62
2
  6
PHANTOM
 10
208.1009114181
 20
192.88651221
 40
3.2
 50
273.5903778907
 51
315.0
  0
ARC
  8
DEFAULT_3
 62
2
  6
PHANTOM
 10
230.2656494655
 20
215.0512502574
 40
3.2
 50
315.0
 51
356.4096221093
  0
ARC
  8
DEFAULT_3
 62
2
  6
PHANTOM
 10
236.6530879246
 20
214.6504636171
 40
3.2
 50
135.0
 51
176.4096221093
  0
ARC
  8
DEFAULT_3
 62
2
  6
PHANTOM
 10
240.8957286117
 20
218.8931043042
 40
3.2
 50
92.2544307753
 51
135.0
  0
ARC
  8
DEFAULT_3
 62
2
  6
PHANTOM
 10
240.6439712508
 20
225.2881506865
 40
3.2
 50
272.2544307753
 51
87.7455692247
  0
ARC
  8
0
 62
7
  6
CONTINUOUS
 10
292.0274484892
 20
125.9624516818
 40
110.0000000855
 50
71.7043507152
 51
76.430125854
  0
ARC
  8
SURFACE
 62
7
  6
CONTINUOUS
 10
285.1153656592
 20
119.8388806424
 40
110.0000000855
 50
186.6467972229
 51
191.3725723617
  0
ARC
  8
0
 62
7
  6
CONTINUOUS
 10
306.5935714567
 20
150.3209241364
 40
9.5
 50
69.2307692308
 51
131.5384615385
  0
ARC
  8
SURFACE
 62
7
  6
CONTINUOUS
 10
306.5156189903
 20
150.2079904919
 40
9.5
 50
159.2307692308
 51
221.5384615385
  0
ARC
  8
0
 62
7
  6
CONTINUOUS
 10
274.1405860917
 20
131.5899841234
 40
2.0
 50
131.538479373
 51
201.0455104694
  0
ARC
  8
0
 62
7
  6
CONTINUOUS
 10
273.260017117
 20
121.7174405761
 40
2.0
 50
330.2573310824
 51
16.3197353306
  0
ARC
  8
SURFACE
 62
7
  6
CONTINUOUS
 10
281.6848872788
 20
138.2736517527
 40
2.0
 50
62.0314126075
 51
131.5384615385
  0
ARC
  8
SURFACE
 62
7
  6
CONTINUOUS
 10
291.5915897291
 20
137.9577967633
 40
2.0
 50
246.7571877463
 51
292.8195919945
  0
ARC
  8
0
 62
7
  6
CONTINUOUS
 10
269.1629777564
 20
113.2310779549
 40
1.1
 50
221.5384615385
 51
327.245128273
  0
ARC
  8
SURFACE
 62
7
  6
CONTINUOUS
 10
300.5099207354
 20
141.0020461163
 40
1.1
 50
295.8317948039
 51
41.5384615385
  0
ARC
  8
0
 62
7
  6
CONTINUOUS
 10
278.3715044084
 20
221.1655992975
 40
180.0
 50
133.3989744268
 51
136.4111772362
  0
ARC
  8
0
 62
7
  6
CONTINUOUS
 10
267.234010989
 20
184.2241150029
 40
180.0
 50
105.7066667345
 51
108.7188695439
  0
ARC
  8
SURFACE
 62
7
  6
CONTINUOUS
 10
277.0186940902
 20
210.0242039568
 40
180.0
 50
209.7426689176
 51
212.754871727
  0
ARC
  8
0
 62
7
  6
CONTINUOUS
 10
327.4005480267
 20
181.0995433663
 40
110.0000000855
 50
99.3966584075
 51
104.1224335463
  0
ARC
  8
SURFACE
 62
7
  6
CONTINUOUS
 10
324.1259679927
 20
172.4651854326
 40
110.0000000855
 50
214.3391049152
 51
219.064880054
  0
ARC
  8
0
 62
7
  6
CONTINUOUS
 10
328.9782627934
 20
209.4371144466
 40
9.5
 50
96.9230769231
 51
159.2307692308
  0
ARC
  8
SURFACE
 62
7
  6
CONTINUOUS
 10
328.9617221938
 20
209.3008903532
 40
9.5
 50
186.9230769231
 51
249.2307692308
  0
ARC
  8
0
 62
7
  6
CONTINUOUS
 10
308.9472732097
 20
177.7700364449
 40
2.0
 50
159.2307692308
 51
228.7378181617
  0
ARC
  8
0
 62
7
  6
CONTINUOUS
 10
312.7555678586
 20
168.6191124653
 40
2.0
 50
357.9496387747
 51
44.0120430229
  0
ARC
  8
SURFACE
 62
7
  6
CONTINUOUS
 10
312.5213649336
 20
187.1941417993
 40
2.0
 50
89.7237202998
 51
159.2307692308
  0
ARC
  8
SURFACE
 62
7
  6
CONTINUOUS
 10
321.4400994452
 20
191.5183402828
 40
2.0
 50
274.4494954386
 51
320.5118996868
  0
ARC
  8
0
 62
7
  6
CONTINUOUS
 10
330.5876034053
 20
220.3103773502
 40
1.1
 50
276.9230769231
 51
22.6297436576
  0
ARC
  8
0
 62
7
  6
CONTINUOUS
 10
313.0716290258
 20
159.2008224188
 40
1.1
 50
249.2307692308
 51
354.9374359653
  0
ARC
  8
SURFACE
 62
7
  6
CONTINUOUS
 10
327.9221561577
 20
198.3584442906
 40
1.1
 50
323.5241024962
 51
69.2307692308
  0
ARC
  8
0
 62
7
  6
CONTINUOUS
 10
246.9902731277
 20
289.2026427435
 40
180.0
 50
188.7835898114
 51
191.7957926208
  0
ARC
  8
SURFACE
 62
7
  6
CONTINUOUS
 10
255.3909778859
 20
281.7602677556
 40
180.0
 50
265.1272843022
 51
268.1394871116
  0
ARC
  8
DEFAULT_3
 62
2
  6
PHANTOM
 10
204.2590573713
 20
268.3198683092
 40
3.2
 50
182.2544307753
 51
225.0
  0
ARC
  8
DEFAULT_3
 62
2
  6
PHANTOM
 10
197.864010989
 20
268.0681109483
 40
3.2
 50
2.2544307753
 51
177.7455692247
  0
ARC
  8
DEFAULT_3
 62
2
  6
PHANTOM
 10
240.8957286117
 20
231.6831970687
 40
3.2
 50
225.0
 51
267.7455692247
  0
ARC
  8
DEFAULT_3
 62
2
  6
PHANTOM
 10
236.6530879246
 20
235.9258377559
 40
3.2
 50
183.5903778907
 51
225.0
  0
ARC
  8
DEFAULT_3
 62
2
  6
PHANTOM
 10
230.2656494655
 20
235.5250511156
 40
3.2
 50
3.5903778907
 51
45.0
  0
ARC
  8
DEFAULT_3
 62
2
  6
PHANTOM
 10
208.1009114181
 20
257.6897891629
 40
3.2
 50
45.0
 51
86.4096221093
  0
ARC
  8
DEFAULT_3
 62
2
  6
PHANTOM
 10
208.5016980584
 20
264.0772276221
 40
3.2
 50
225.0
 51
266.4096221093
  0
ARC
  8
0
 62
7
  6
CONTINUOUS
 10
211.6606103292
 20
304.7117351767
 40
180.0
 50
216.4758975038
 51
219.4881003132
  0
ARC
  8
SURFACE
 62
7
  6
CONTINUOUS
 10
222.5577090891
 20
302.0258415611
 40
180.0
 50
292.8195919945
 51
295.8317948039
  0
ARC
  8
0
 62
7
  6
CONTINUOUS
 10
257.3443377561
 20
348.5538724923
 40
110.0000000855
 50
182.4735814845
 51
187.1993566232
  0
ARC
  8
SURFACE
 62
7
  6
CONTINUOUS
 10
202.4812344871
 20
362.0764129453
 40
110.0000000855
 50
325.1083356844
 51
329.8341108232
  0
ARC
  8
SURFACE
 62
7
  6
CONTINUOUS
 10
265.5210344924
 20
344.2624109921
 40
110.0000000855
 50
297.4160279921
 51
302.1418031309
  0
ARC
  8
0
 62
7
  6
CONTINUOUS
 10
229.4035519746
 20
353.5358006865
 40
9.5
 50
180.0
 51
242.3076923077
  0
ARC
  8
SURFACE
 62
7
  6
CONTINUOUS
 10
229.5367890921
 20
353.5029606865
 40
9.5
 50
270.0
 51
332.3076923077
  0
ARC
  8
0
 62
7
  6
CONTINUOUS
 10
202.9035519746
 20
346.0029606865
 40
2.0
 50
270.0
 51
339.5070489309
  0
ARC
  8
0
 62
7
  6
CONTINUOUS
 10
210.1093746373
 20
352.8087404042
 40
2.0
 50
108.7188695439
 51
154.7812737921
  0
ARC
  8
0
 62
7
  6
CONTINUOUS
 10
258.4252723371
 20
329.8338151141
 40
2.0
 50
242.3076923077
 51
311.8147412386
  0
ARC
  8
SURFACE
 62
7
  6
CONTINUOUS
 10
249.5006884726
 20
334.517798059
 40
2.0
 50
172.8006433768
 51
242.3076923077
  0
ARC
  8
SURFACE
 62
7
  6
CONTINUOUS
 10
246.2830529148
 20
343.8927294843
 40
2.0
 50
357.5264185155
 51
43.5888227638
  0
CIRCLE
  8
0
 62
7
  6
CONTINUOUS
 10
197.864010989
 20
335.2881506865
 40
1.7320508076
  0
ARC
  8
0
 62
7
  6
CONTINUOUS
 10
218.8035519746
 20
356.4440344073
 40
1.1
 50
0.0
 51
105.7066667345
  0
ARC
  8
SURFACE
 62
7
  6
CONTINUOUS
 10
240.2741465638
 20
351.1520081349
 40
1.1
 50
46.6010255732
 51
152.3076923077
  0
ARC
  8
0
 62
7
  6
CONTINUOUS
 10
271.0657013058
 20
259.0515104332
 40
180.0
 50
161.0912821191
 51
164.1034849285
  0
ARC
  8
SURFACE
 62
7
  6
CONTINUOUS
 10
275.0455118418
 20
248.5576124923
 40
180.0
 50
237.4349766099
 51
240.4471794193
  0
ARC
  8
0
 62
7
  6
CONTINUOUS
 10
333.0983880133
 20
246.3597124573
 40
110.0000000855
 50
127.0889660998
 51
131.8147412386
  0
ARC
  8
SURFACE
 62
7
  6
CONTINUOUS
 10
334.2114775983
 20
237.1925949768
 40
110.0000000855
 50
242.0314126075
 51
246.7571877463
  0
ARC
  8
0
 62
7
  6
CONTINUOUS
 10
321.3262591398
 20
272.1845861338
 40
9.5
 50
124.6153846154
 51
186.9230769231
  0
ARC
  8
SURFACE
 62
7
  6
CONTINUOUS
 10
321.3749196591
 20
272.0562788894
 40
9.5
 50
214.6153846154
 51
276.9230769231
  0
ARC
  8
0
 62
7
  6
CONTINUOUS
 10
300.0731375671
 20
289.7145177332
 40
2.0
 50
214.6153846154
 51
284.1224335463
  0
ARC
  8
0
 62
7
  6
CONTINUOUS
 10
309.7675582954
 20
287.6503654729
 40
2.0
 50
53.3342541593
 51
99.3966584075
  0
ARC
  8
0
 62
7
  6
CONTINUOUS
 10
318.3061236515
 20
234.8359160837
 40
2.0
 50
186.9230769231
 51
256.430125854
  0
ARC
  8
0
 62
7
  6
CONTINUOUS
 10
325.9308475147
 20
228.502978075
 40
2.0
 50
25.641946467
 51
71.7043507152
  0
ARC
  8
SURFACE
 62
7
  6
CONTINUOUS
 10
317.0912245707
 20
244.8415101993
 40
2.0
 50
117.4160279921
 51
186.9230769231
  0
ARC
  8
SURFACE
 62
7
  6
CONTINUOUS
 10
322.9788165493
 20
252.8151403955
 40
2.0
 50
302.1418031309
 51
348.2042073792
  0
ARC
  8
0
 62
7
  6
CONTINUOUS
 10
317.6982022549
 20
282.5602801643
 40
1.1
 50
304.6153846154
 51
50.3220513499
  0
ARC
  8
SURFACE
 62
7
  6
CONTINUOUS
 10
325.5396378924
 20
261.8841136621
 40
1.1
 50
351.2164101886
 51
96.9230769231
  0
ARC
  8
0
 62
7
  6
CONTINUOUS
 10
307.8156619746
 20
306.7926406865
 40
110.0000000855
 50
154.7812737921
 51
159.5070489309
  0
ARC
  8
SURFACE
 62
7
  6
CONTINUOUS
 10
313.0614257687
 20
299.1928397982
 40
110.0000000855
 50
269.7237202998
 51
274.4494954386
  0
ARC
  8
0
 62
7
  6
CONTINUOUS
 10
285.3905423162
 20
324.1886496232
 40
9.5
 50
152.3076923077
 51
214.6153846154
  0
ARC
  8
SURFACE
 62
7
  6
CONTINUOUS
 10
285.4932564158
 20
324.0976528715
 40
9.5
 50
242.3076923077
 51
304.6153846154
  0
ARC
  8
0
 62
7
  6
CONTINUOUS
 10
267.9685149722
 20
332.5113210094
 40
2.0
 50
81.0265618516
 51
127.0889660998
  0
ARC
  8
SURFACE
 62
7
  6
CONTINUOUS
 10
294.3475664198
 20
298.0094395785
 40
2.0
 50
145.1083356844
 51
214.6153846154
  0
ARC
  8
SURFACE
 62
7
  6
CONTINUOUS
 10
295.8552394964
 20
307.805838902
 40
2.0
 50
329.8341108232
 51
15.8965150715
  0
ARC
  8
0
 62
7
  6
CONTINUOUS
 10
277.3562320441
 20
331.689828319
 40
1.1
 50
332.3076923077
 51
78.0143590422
  0
ARC
  8
SURFACE
 62
7
  6
CONTINUOUS
 10
293.9081721616
 20
317.026088945
 40
1.1
 50
18.9087178809
 51
124.6153846154
  0
ARC
  8
SURFACE
 62
7
  6
CONTINUOUS
 10
468.709271978
 20
323.2881506865
 40
2.0
 50
0.0
 51
90.0
  0
ARC
  8
SURFACE
 62
7
  6
CONTINUOUS
 10
468.709271978
 20
127.2881506865
 40
2.0
 50
270.0
 51
360.0
  0
ARC
  8
0
 62
7
  6
CONTINUOUS
 10
430.409271978
 20
127.2881506865
 40
2.0
 50
180.0
 51
270.0
  0
ARC
  8
0
 62
7
  6
CONTINUOUS
 10
430.409271978
 20
323.2881506865
 40
2.0
 50
90.0
 51
180.0
  0
ARC
  8
0
 62
7
  6
CONTINUOUS
 10
438.559271978
 20
190.1928397127
 40
1.0
 50
180.0
 51
270.0
  0
ENDSEC
  0
EOF
