  0
SECTION
  2
HEADER
  9
$EXTMAX
 10
420.0
 20
297.0
 30
0.0
  9
$EXTMIN
 10
0.0
 20
0.0
 30
0.0
  9
$LIMMIN
 10
0.0
 20
0.0
  9
$LIMMAX
 10
420.0
 20
297.0
  9
$VIEWCTR
 10
210.0
 20
148.5
  9
$VIEWSIZE
 40
297.0
  9
$CLAYER
  8
0
  9
$LTSCALE
 40
23.1
  9
$CELTYPE
  6
BYLAYER
  9
$DIMSCALE
 40
1.0
  9
$DIMASZ
 40
3.5
  9
$DIMEXO
 40
2.625
  9
$DIMDLI
 40
15.96
  9
$DIMEXE
 40
7.56
  9
$DIMCEN
 40
3.78
  9
$DIMLFAC
 40
1.0
  9
$DIMBLK
  1
_FILLED
  9
$DIMTXT
 40
3.5
  9
$PDMODE
 70
3
  9
$PDSIZE
 40
0.3125
  9
$TILEMODE
 70
1
  0
ENDSEC
  0
SECTION
  2
TABLES
  0
TABLE
  2
LTYPE
 70
6
  0
LTYPE
  2
BYBLOCK
 70
0
  3

 72
65
 73
0
 40
0.0
  0
LTYPE
  2
BYLAYER
 70
0
  3

 72
65
 73
0
 40
0.0
  0
LTYPE
  2
CONTINUOUS
 70
64
  3
Solid line
 72
65
 73
0
 40
0.0
  0
LTYPE
  2
CENTER
 70
64
  3
____ _ ____ _ ____ _ ____ _ ____ _ ____ _ ____
 72
65
 73
4
 40
0.6
 49
0.375
 49
-0.075
 49
0.075
 49
-0.075
  0
LTYPE
  2
HIDDEN
 70
64
  3
- - - - - - - - - - - - - - - - - - - -
 72
65
 73
2
 40
0.2
 49
0.1
 49
-0.1
  0
LTYPE
  2
PHANTOM
 70
64
  3
_____ _ _ _____ _ _ _____ _ _ _____
 72
65
 73
6
 40
0.8
 49
0.45
 49
-0.05
 49
0.1
 49
-0.05
 49
0.1
 49
-0.05
  0
LTYPE
  2
DOT
 70
64
  3
. . . . . . . . . . . . . . . . . . . .
 72
65
 73
2
 40
0.2
 49
0.1
 49
-0.1
  0
LTYPE
  2
DASHED
 70
64
  3
- - - - - - - - - - - - - - - - - - - -
 72
65
 73
2
 40
0.2
 49
0.1
 49
-0.1
  0
ENDTAB
  0
TABLE
  2
LAYER
 70
36
  0
LAYER
  2
0
 70
0
 62
7
  6
CONTINUOUS
  0
LAYER
  2
DEFAULT_1
 70
0
 62
7
  6
CENTER
  0
LAYER
  2
DEFAULT_2
 70
0
 62
8
  6
HIDDEN
  0
LAYER
  2
DEFAULT_3
 70
0
 62
7
  6
PHANTOM
  0
LAYER
  2
BLANK_CURVE
 70
0
 62
7
  6
CONTINUOUS
  0
LAYER
  2
CURVE
 70
0
 62
7
  6
CONTINUOUS
  0
LAYER
  2
CURVE_KW
 70
0
 62
7
  6
CONTINUOUS
  0
LAYER
  2
SURFACE
 70
0
 62
7
  6
CONTINUOUS
  0
LAYER
  2
SURF_PART
 70
0
 62
7
  6
CONTINUOUS
  0
LAYER
  2
XSEC_DATUMS
 70
0
 62
7
  6
CONTINUOUS
  0
ENDTAB
  0
TABLE
  2
STYLE
 70
1
  0
STYLE
  2
STANDARD
 70
0
 40
0.0
 41
0.8
 50
0.0
 71
0
 42
0.2
  3
txt
  4

  0
STYLE
  2
TEXTSTYLE_1
 70
0
 40
0.0
 41
0.8
 50
0.0
 71
0
 42
0.2
  3
gdt
  4

  0
STYLE
  2
TEXTSTYLE_2
 70
0
 40
0.0
 41
0.6
 50
0.0
 71
0
 42
0.2
  3
txt
  4

  0
STYLE
  2
TEXTSTYLE_3
 70
0
 40
0.0
 41
1.0
 50
0.0
 71
0
 42
0.2
  3
ftb_____.ttf
  4

  0
STYLE
  2
TEXTSTYLE_4
 70
0
 40
0.0
 41
1.0
 50
0.0
 71
0
 42
0.2
  3
fti_____.ttf
  4

  0
STYLE
  2
TEXTSTYLE_5
 70
0
 40
0.0
 41
1.0
 50
0.0
 71
0
 42
0.2
  3
frutiger light.ttf
  4

  0
STYLE
  2
TEXTSTYLE_6
 70
0
 40
0.0
 41
0.7
 50
0.0
 71
0
 42
0.2
  3
txt
  4

  0
STYLE
  2
TEXTSTYLE_7
 70
0
 40
0.0
 41
0.5
 50
0.0
 71
0
 42
0.2
  3
txt
  4

  0
ENDTAB
  0
ENDSEC
  0
SECTION
  2
BLOCKS
  0
BLOCK
  8
0
 62
2
  6
CONTINUOUS
  2
SYMBOL_5_BL1
 70
64
 10
382.7840918555
 20
35.5067593403
  0
TEXT
  8
0
 62
7
  6
CONTINUOUS
 10
373.842376864
 20
30.5995157174
  7
TEXTSTYLE_4
 40
1.0655737705
  1
The brand for plastic modular belts and chains
 41
1.0
 72
0
  0
LINE
  8
0
 62
7
  6
CONTINUOUS
 10
358.7621602445
 20
36.0805298321
 11
358.7621602445
 21
33.9493822911
  0
LINE
  8
0
 62
7
  6
CONTINUOUS
 10
359.0512227376
 20
30.9584509954
 11
359.0512227376
 21
31.0552420547
  0
LINE
  8
0
 62
7
  6
CONTINUOUS
 10
358.7621602445
 20
31.0229783683
 11
358.8199727462
 21
30.8293962497
  0
LINE
  8
0
 62
7
  6
CONTINUOUS
 10
360.1556028675
 20
33.867415078
 11
360.1556028675
 21
36.0805298321
  0
LINE
  8
0
 62
7
  6
CONTINUOUS
 10
361.0746601894
 20
32.0231527829
 11
361.0746601894
 21
30.5067593403
  0
LINE
  8
0
 62
7
  6
CONTINUOUS
 10
361.3637227445
 20
30.5067593403
 11
361.3637227445
 21
31.2488242184
  0
LINE
  8
0
 62
7
  6
CONTINUOUS
 10
361.3637227445
 20
31.3778789641
 11
361.3637227445
 21
32.0231527829
  0
LINE
  8
0
 62
7
  6
CONTINUOUS
 10
358.8199727462
 20
31.216560532
 11
358.7621602445
 21
31.0229783683
  0
LINE
  8
0
 62
7
  6
CONTINUOUS
 10
359.1668477307
 20
30.7971325633
 11
359.0512227376
 21
30.9584509954
  0
LINE
  8
0
 62
7
  6
CONTINUOUS
 10
360.2652852997
 20
31.3133515913
 11
360.3230977445
 21
31.216560532
  0
LINE
  8
0
 62
7
  6
CONTINUOUS
 10
360.6121602997
 20
31.216560532
 11
360.5543476894
 21
31.3456152777
  0
LINE
  8
0
 62
7
  6
CONTINUOUS
 10
362.0408487691
 20
36.0805298321
 11
362.0408487691
 21
34.2772511436
  0
LINE
  8
0
 62
7
  6
CONTINUOUS
 10
362.0408487691
 20
32.9657757338
 11
362.0408487691
 21
32.3100380288
  0
LINE
  8
0
 62
7
  6
CONTINUOUS
 10
362.4043477445
 20
31.1520331591
 11
362.4043477445
 21
30.5067593403
  0
LINE
  8
0
 62
7
  6
CONTINUOUS
 10
362.6934101343
 20
30.5067593403
 11
362.6934101343
 21
31.1520331591
  0
LINE
  8
0
 62
7
  6
CONTINUOUS
 10
359.0512227376
 20
31.0552420547
 11
359.1090352445
 21
31.1842968456
  0
LINE
  8
0
 62
7
  6
CONTINUOUS
 10
358.8199727462
 20
30.8293962497
 11
358.9355977445
 21
30.7003414814
  0
LINE
  8
0
 62
7
  6
CONTINUOUS
 10
362.3465351343
 20
31.2810879048
 11
362.4043477445
 21
31.1520331591
  0
LINE
  8
0
 62
7
  6
CONTINUOUS
 10
363.1559103548
 20
30.7971325633
 11
363.2137226343
 21
30.668077795
  0
LINE
  8
0
 62
7
  6
CONTINUOUS
 10
362.6934101343
 20
31.1520331591
 11
362.6355978548
 21
31.3133515913
  0
LINE
  8
0
 62
7
  6
CONTINUOUS
 10
363.1559103548
 20
31.3456152777
 11
363.1559103548
 21
31.2810879048
  0
LINE
  8
0
 62
7
  6
CONTINUOUS
 10
363.1559103548
 20
30.8939236226
 11
363.1559103548
 21
30.7971325633
  0
LINE
  8
0
 62
7
  6
CONTINUOUS
 10
363.4342913921
 20
32.3100380288
 11
363.4342913921
 21
36.0805298321
  0
LINE
  8
0
 62
7
  6
CONTINUOUS
 10
363.4449727445
 20
30.7648688543
 11
363.4449727445
 21
30.8293962497
  0
LINE
  8
0
 62
7
  6
CONTINUOUS
 10
363.7621602445
 20
36.0805298321
 11
363.7621602445
 21
32.3100380288
  0
LINE
  8
0
 62
7
  6
CONTINUOUS
 10
360.5543476894
 20
30.7003414814
 11
360.6121602997
 21
30.8293962497
  0
LINE
  8
0
 62
7
  6
CONTINUOUS
 10
364.9480979651
 20
30.6035504109
 11
364.890285024
 21
30.7648688543
  0
LINE
  8
0
 62
7
  6
CONTINUOUS
 10
364.6012229651
 20
31.2810879048
 11
364.6012229651
 21
31.1842968456
  0
LINE
  8
0
 62
7
  6
CONTINUOUS
 10
364.6012229651
 20
31.0552420547
 11
364.6012229651
 21
30.8616599362
  0
LINE
  8
0
 62
7
  6
CONTINUOUS
 10
364.890285024
 20
30.7648688543
 11
364.890285024
 21
31.2810879048
  0
LINE
  8
0
 62
7
  6
CONTINUOUS
 10
365.1556028675
 20
32.3100380288
 11
365.1556028675
 21
34.1133167174
  0
LINE
  8
0
 62
7
  6
CONTINUOUS
 10
365.1556028675
 20
35.4247921272
 11
365.1556028675
 21
36.0805298321
  0
LINE
  8
0
 62
7
  6
CONTINUOUS
 10
365.4684104651
 20
32.0231527829
 11
365.4684104651
 21
31.8618343508
  0
LINE
  8
0
 62
7
  6
CONTINUOUS
 10
365.4684104651
 20
31.5391973962
 11
365.4684104651
 21
30.5067593403
  0
LINE
  8
0
 62
7
  6
CONTINUOUS
 10
365.757472524
 20
30.5067593403
 11
365.757472524
 21
31.5391973962
  0
LINE
  8
0
 62
7
  6
CONTINUOUS
 10
365.757472524
 20
31.8618343508
 11
365.757472524
 21
32.0231527829
  0
LINE
  8
0
 62
7
  6
CONTINUOUS
 10
360.3230977445
 20
30.8293962497
 11
360.2652852997
 21
30.7326051679
  0
LINE
  8
0
 62
7
  6
CONTINUOUS
 10
362.6355978548
 20
31.3133515913
 11
362.5777852445
 21
31.3778789641
  0
LINE
  8
0
 62
7
  6
CONTINUOUS
 10
363.5027853548
 20
30.7003414814
 11
363.4449727445
 21
30.7648688543
  0
LINE
  8
0
 62
7
  6
CONTINUOUS
 10
364.6590352445
 20
30.5712867188
 11
364.716847524
 21
30.5067593403
  0
LINE
  8
0
 62
7
  6
CONTINUOUS
 10
364.6012229651
 20
30.668077795
 11
364.6590352445
 21
30.5712867188
  0
LINE
  8
0
 62
7
  6
CONTINUOUS
 10
365.0059102445
 20
30.5067593403
 11
364.9480979651
 21
30.6035504109
  0
LINE
  8
0
 62
7
  6
CONTINUOUS
 10
364.890285024
 20
31.2810879048
 11
364.8324727445
 21
31.3778789641
  0
LINE
  8
0
 62
7
  6
CONTINUOUS
 10
366.2199727445
 20
31.5391973962
 11
366.2199727445
 21
30.5067593403
  0
LINE
  8
0
 62
7
  6
CONTINUOUS
 10
366.5090354651
 20
30.5067593403
 11
366.5090354651
 21
31.2488242184
  0
LINE
  8
0
 62
7
  6
CONTINUOUS
 10
366.5090354651
 20
31.3778789641
 11
366.5090354651
 21
31.5391973962
  0
LINE
  8
0
 62
7
  6
CONTINUOUS
 10
367.0408487691
 20
34.5231527829
 11
367.0408487691
 21
32.3100380288
  0
LINE
  8
0
 62
7
  6
CONTINUOUS
 10
358.9355977445
 20
31.3456152777
 11
358.8199727462
 21
31.216560532
  0
LINE
  8
0
 62
7
  6
CONTINUOUS
 10
359.1090352445
 20
31.1842968456
 11
359.1668477307
 21
31.2488242184
  0
LINE
  8
0
 62
7
  6
CONTINUOUS
 10
358.9355977445
 20
30.7003414814
 11
359.0512227376
 21
30.6358140973
  0
LINE
  8
0
 62
7
  6
CONTINUOUS
 10
359.3402852307
 20
30.7003414814
 11
359.1668477307
 21
30.7971325633
  0
LINE
  8
0
 62
7
  6
CONTINUOUS
 10
364.543410024
 20
31.3456152777
 11
364.6012229651
 21
31.2810879048
  0
LINE
  8
0
 62
7
  6
CONTINUOUS
 10
367.491847524
 20
31.2810879048
 11
367.5496604651
 21
31.1197694727
  0
LINE
  8
0
 62
7
  6
CONTINUOUS
 10
367.838722524
 20
31.1197694727
 11
367.7809102445
 21
31.2810879048
  0
LINE
  8
0
 62
7
  6
CONTINUOUS
 10
367.5496604651
 20
31.1197694727
 11
367.5496604651
 21
30.5067593403
  0
LINE
  8
0
 62
7
  6
CONTINUOUS
 10
367.838722524
 20
30.5067593403
 11
367.838722524
 21
31.1197694727
  0
LINE
  8
0
 62
7
  6
CONTINUOUS
 10
368.3012227445
 20
31.3456152777
 11
368.3012227445
 21
31.2810879048
  0
LINE
  8
0
 62
7
  6
CONTINUOUS
 10
368.4342913921
 20
32.3100380288
 11
368.4342913921
 21
34.4411855698
  0
LINE
  8
0
 62
7
  6
CONTINUOUS
 10
368.7621602445
 20
36.0805298321
 11
368.7621602445
 21
32.3100380288
  0
LINE
  8
0
 62
7
  6
CONTINUOUS
 10
363.4449727445
 20
30.8293962497
 11
363.5027853548
 21
30.926187309
  0
LINE
  8
0
 62
7
  6
CONTINUOUS
 10
359.0512227376
 20
30.6358140973
 11
359.2246602583
 21
30.5712867188
  0
LINE
  8
0
 62
7
  6
CONTINUOUS
 10
360.5543476894
 20
31.3456152777
 11
360.3809101894
 21
31.4424063369
  0
LINE
  8
0
 62
7
  6
CONTINUOUS
 10
363.2137226343
 20
30.668077795
 11
363.3871601343
 21
30.5712867188
  0
LINE
  8
0
 62
7
  6
CONTINUOUS
 10
362.2309102445
 20
31.3456152777
 11
362.3465351343
 21
31.2810879048
  0
LINE
  8
0
 62
7
  6
CONTINUOUS
 10
362.5777852445
 20
31.3778789641
 11
362.4621603548
 21
31.4424063369
  0
LINE
  8
0
 62
7
  6
CONTINUOUS
 10
368.3012227445
 20
30.7648688543
 11
368.4168479651
 21
30.6358140973
  0
LINE
  8
0
 62
7
  6
CONTINUOUS
 10
368.6480977445
 20
30.7003414814
 11
368.5902854651
 21
30.7648688543
  0
LINE
  8
0
 62
7
  6
CONTINUOUS
 10
368.3012227445
 20
31.2810879048
 11
368.4168479651
 21
31.1520331591
  0
LINE
  8
0
 62
7
  6
CONTINUOUS
 10
367.7809102445
 20
31.2810879048
 11
367.7230979651
 21
31.3778789641
  0
LINE
  8
0
 62
7
  6
CONTINUOUS
 10
370.1512223035
 20
30.7003414814
 11
370.1512223035
 21
30.7648688543
  0
LINE
  8
0
 62
7
  6
CONTINUOUS
 10
370.1556028675
 20
32.3100380288
 11
370.1556028675
 21
36.0805298321
  0
LINE
  8
0
 62
7
  6
CONTINUOUS
 10
363.2137226343
 20
31.4101426505
 11
363.1559103548
 21
31.3456152777
  0
LINE
  8
0
 62
7
  6
CONTINUOUS
 10
360.091847717
 20
31.3778789641
 11
360.2652852997
 21
31.3133515913
  0
LINE
  8
0
 62
7
  6
CONTINUOUS
 10
364.8324727445
 20
31.3778789641
 11
364.716847524
 21
31.4424063369
  0
LINE
  8
0
 62
7
  6
CONTINUOUS
 10
368.6480977445
 20
31.216560532
 11
368.5902854651
 21
31.2810879048
  0
LINE
  8
0
 62
7
  6
CONTINUOUS
 10
369.8043479651
 20
30.8293962497
 11
369.8621602445
 21
30.7648688543
  0
LINE
  8
0
 62
7
  6
CONTINUOUS
 10
370.1512223035
 20
30.7648688543
 11
370.0355977445
 21
30.8939236226
  0
LINE
  8
0
 62
7
  6
CONTINUOUS
 10
369.8043479651
 20
31.3456152777
 11
369.8621602445
 21
31.2810879048
  0
LINE
  8
0
 62
7
  6
CONTINUOUS
 10
370.1512223035
 20
31.2810879048
 11
370.0355977445
 21
31.4101426505
  0
LINE
  8
0
 62
7
  6
CONTINUOUS
 10
363.4449727445
 20
31.2810879048
 11
363.5027853548
 21
31.3456152777
  0
LINE
  8
0
 62
7
  6
CONTINUOUS
 10
363.2715352445
 20
31.0229783683
 11
363.1559103548
 21
30.8939236226
  0
LINE
  8
0
 62
7
  6
CONTINUOUS
 10
364.6012229651
 20
30.8616599362
 11
364.543410024
 21
30.7971325633
  0
LINE
  8
0
 62
7
  6
CONTINUOUS
 10
364.543410024
 20
30.6035504109
 11
364.6012229651
 21
30.668077795
  0
LINE
  8
0
 62
7
  6
CONTINUOUS
 10
363.3871601343
 20
30.5712867188
 11
363.5027853548
 21
30.5390230296
  0
LINE
  8
0
 62
7
  6
CONTINUOUS
 10
360.3809101894
 20
31.4424063369
 11
360.1496602445
 21
31.5069337098
  0
LINE
  8
0
 62
7
  6
CONTINUOUS
 10
363.7340351343
 20
30.6358140973
 11
363.5027853548
 21
30.7003414814
  0
LINE
  8
0
 62
7
  6
CONTINUOUS
 10
362.4621603548
 20
31.4424063369
 11
362.2887228548
 21
31.5069337098
  0
LINE
  8
0
 62
7
  6
CONTINUOUS
 10
364.716847524
 20
31.4424063369
 11
364.543410024
 21
31.5069337098
  0
LINE
  8
0
 62
7
  6
CONTINUOUS
 10
367.3762229651
 20
31.3456152777
 11
367.491847524
 21
31.2810879048
  0
LINE
  8
0
 62
7
  6
CONTINUOUS
 10
367.7230979651
 20
31.3778789641
 11
367.6074727445
 21
31.4424063369
  0
LINE
  8
0
 62
7
  6
CONTINUOUS
 10
359.2246602583
 20
30.5712867188
 11
359.3980977583
 21
30.5390230296
  0
LINE
  8
0
 62
7
  6
CONTINUOUS
 10
359.6871602721
 20
30.6358140973
 11
359.3402852307
 21
30.7003414814
  0
LINE
  8
0
 62
7
  6
CONTINUOUS
 10
362.1152853548
 20
31.3778789641
 11
362.2309102445
 21
31.3456152777
  0
LINE
  8
0
 62
7
  6
CONTINUOUS
 10
364.4277854651
 20
31.3778789641
 11
364.543410024
 21
31.3456152777
  0
LINE
  8
0
 62
7
  6
CONTINUOUS
 10
368.7637229651
 20
30.668077795
 11
368.6480977445
 21
30.7003414814
  0
LINE
  8
0
 62
7
  6
CONTINUOUS
 10
367.2605977445
 20
31.3778789641
 11
367.3762229651
 21
31.3456152777
  0
LINE
  8
0
 62
7
  6
CONTINUOUS
 10
368.4168479651
 20
30.6358140973
 11
368.5902854651
 21
30.5712867188
  0
LINE
  8
0
 62
7
  6
CONTINUOUS
 10
367.6074727445
 20
31.4424063369
 11
367.4340352445
 21
31.5069337098
  0
LINE
  8
0
 62
7
  6
CONTINUOUS
 10
368.8215352445
 20
31.1520331591
 11
368.6480977445
 21
31.216560532
  0
LINE
  8
0
 62
7
  6
CONTINUOUS
 10
369.6309104651
 20
30.8939236226
 11
369.8043479651
 21
30.8293962497
  0
LINE
  8
0
 62
7
  6
CONTINUOUS
 10
370.0355977445
 20
31.4101426505
 11
369.8621602445
 21
31.4746700234
  0
LINE
  8
0
 62
7
  6
CONTINUOUS
 10
368.4168479651
 20
31.1520331591
 11
368.6480977445
 21
31.0552420547
  0
LINE
  8
0
 62
7
  6
CONTINUOUS
 10
370.0355977445
 20
30.8939236226
 11
369.8043479651
 21
30.9907146818
  0
LINE
  8
0
 62
7
  6
CONTINUOUS
 10
368.5902854651
 20
31.2810879048
 11
368.6480977445
 21
31.3456152777
  0
LINE
  8
0
 62
7
  6
CONTINUOUS
 10
359.0512227376
 20
31.4101426505
 11
358.9355977445
 21
31.3456152777
  0
LINE
  8
0
 62
7
  6
CONTINUOUS
 10
359.1668477307
 20
31.2488242184
 11
359.3402852307
 21
31.3456152777
  0
LINE
  8
0
 62
7
  6
CONTINUOUS
 10
361.4793477997
 20
31.4424063369
 11
361.3637227445
 21
31.3778789641
  0
LINE
  8
0
 62
7
  6
CONTINUOUS
 10
361.3637227445
 20
31.2488242184
 11
361.4793477997
 21
31.3133515913
  0
LINE
  8
0
 62
7
  6
CONTINUOUS
 10
360.3809101894
 20
30.6035504109
 11
360.5543476894
 21
30.7003414814
  0
LINE
  8
0
 62
7
  6
CONTINUOUS
 10
359.3980977583
 20
30.5390230296
 11
359.744972717
 21
30.5067593403
  0
LINE
  8
0
 62
7
  6
CONTINUOUS
 10
363.5027853548
 20
30.5390230296
 11
363.7340351343
 21
30.5067593403
  0
LINE
  8
0
 62
7
  6
CONTINUOUS
 10
361.8840352445
 20
31.4101426505
 11
362.1152853548
 21
31.3778789641
  0
LINE
  8
0
 62
7
  6
CONTINUOUS
 10
364.1965353548
 20
31.4101426505
 11
364.4277854651
 21
31.3778789641
  0
LINE
  8
0
 62
7
  6
CONTINUOUS
 10
368.6480977445
 20
31.0552420547
 11
369.6309104651
 21
30.8939236226
  0
LINE
  8
0
 62
7
  6
CONTINUOUS
 10
369.8043479651
 20
30.9907146818
 11
368.8215352445
 21
31.1520331591
  0
LINE
  8
0
 62
7
  6
CONTINUOUS
 10
362.2887228548
 20
31.5069337098
 11
362.1152853548
 21
31.5391973962
  0
LINE
  8
0
 62
7
  6
CONTINUOUS
 10
368.5902854651
 20
30.5712867188
 11
368.7637229651
 21
30.5390230296
  0
LINE
  8
0
 62
7
  6
CONTINUOUS
 10
367.4340352445
 20
31.5069337098
 11
367.2605977445
 21
31.5391973962
  0
LINE
  8
0
 62
7
  6
CONTINUOUS
 10
369.6887227445
 20
31.3778789641
 11
369.8043479651
 21
31.3456152777
  0
LINE
  8
0
 62
7
  6
CONTINUOUS
 10
369.8621602445
 20
30.7648688543
 11
369.8043479651
 21
30.7003414814
  0
LINE
  8
0
 62
7
  6
CONTINUOUS
 10
368.4168479651
 20
31.4424063369
 11
368.3012227445
 21
31.3456152777
  0
LINE
  8
0
 62
7
  6
CONTINUOUS
 10
363.3293478548
 20
31.4746700234
 11
363.2137226343
 21
31.4101426505
  0
LINE
  8
0
 62
7
  6
CONTINUOUS
 10
363.3871601343
 20
31.0875057863
 11
363.2715352445
 21
31.0229783683
  0
LINE
  8
0
 62
7
  6
CONTINUOUS
 10
363.5027853548
 20
30.926187309
 11
363.6184102445
 21
30.9907146818
  0
LINE
  8
0
 62
7
  6
CONTINUOUS
 10
361.0746601894
 20
30.5067593403
 11
361.3637227445
 21
30.5067593403
  0
LINE
  8
0
 62
7
  6
CONTINUOUS
 10
362.4043477445
 20
30.5067593403
 11
362.6934101343
 21
30.5067593403
  0
LINE
  8
0
 62
7
  6
CONTINUOUS
 10
363.7340351343
 20
30.5067593403
 11
364.0809101343
 21
30.5067593403
  0
LINE
  8
0
 62
7
  6
CONTINUOUS
 10
364.716847524
 20
30.5067593403
 11
365.0059102445
 21
30.5067593403
  0
LINE
  8
0
 62
7
  6
CONTINUOUS
 10
365.4684104651
 20
30.5067593403
 11
365.757472524
 21
30.5067593403
  0
LINE
  8
0
 62
7
  6
CONTINUOUS
 10
366.2199727445
 20
30.5067593403
 11
366.5090354651
 21
30.5067593403
  0
LINE
  8
0
 62
7
  6
CONTINUOUS
 10
367.5496604651
 20
30.5067593403
 11
367.838722524
 21
30.5067593403
  0
LINE
  8
0
 62
7
  6
CONTINUOUS
 10
369.1105979651
 20
30.5067593403
 11
369.4574729651
 21
30.5067593403
  0
LINE
  8
0
 62
7
  6
CONTINUOUS
 10
369.4574729651
 20
30.6358140973
 11
369.1105979651
 21
30.6358140973
  0
LINE
  8
0
 62
7
  6
CONTINUOUS
 10
364.0809101343
 20
30.6358140973
 11
363.7340351343
 21
30.6358140973
  0
LINE
  8
0
 62
7
  6
CONTINUOUS
 10
368.5902854651
 20
30.7648688543
 11
368.3012227445
 21
30.7648688543
  0
LINE
  8
0
 62
7
  6
CONTINUOUS
 10
360.6121602997
 20
30.8293962497
 11
360.3230977445
 21
30.8293962497
  0
LINE
  8
0
 62
7
  6
CONTINUOUS
 10
359.6871602721
 20
31.4101426505
 11
360.091847717
 21
31.3778789641
  0
LINE
  8
0
 62
7
  6
CONTINUOUS
 10
360.1496602445
 20
31.5069337098
 11
359.744972717
 21
31.5391973962
  0
LINE
  8
0
 62
7
  6
CONTINUOUS
 10
368.7637229651
 20
30.5390230296
 11
369.1105979651
 21
30.5067593403
  0
LINE
  8
0
 62
7
  6
CONTINUOUS
 10
369.1105979651
 20
30.6358140973
 11
368.7637229651
 21
30.668077795
  0
LINE
  8
0
 62
7
  6
CONTINUOUS
 10
364.543410024
 20
31.5069337098
 11
364.1965353548
 21
31.5391973962
  0
LINE
  8
0
 62
7
  6
CONTINUOUS
 10
369.3418477445
 20
31.4101426505
 11
369.6887227445
 21
31.3778789641
  0
LINE
  8
0
 62
7
  6
CONTINUOUS
 10
369.6887227445
 20
31.5069337098
 11
369.3418477445
 21
31.5391973962
  0
LINE
  8
0
 62
7
  6
CONTINUOUS
 10
367.0293479651
 20
31.4101426505
 11
367.2605977445
 21
31.3778789641
  0
LINE
  8
0
 62
7
  6
CONTINUOUS
 10
369.8621602445
 20
31.4746700234
 11
369.6887227445
 21
31.5069337098
  0
LINE
  8
0
 62
7
  6
CONTINUOUS
 10
370.0355977445
 20
30.6035504109
 11
370.1512223035
 21
30.7003414814
  0
LINE
  8
0
 62
7
  6
CONTINUOUS
 10
364.543410024
 20
30.7971325633
 11
364.369972524
 21
30.7003414814
  0
LINE
  8
0
 62
7
  6
CONTINUOUS
 10
366.624660024
 20
31.4424063369
 11
366.5090354651
 21
31.3778789641
  0
LINE
  8
0
 62
7
  6
CONTINUOUS
 10
366.5090354651
 20
31.2488242184
 11
366.624660024
 21
31.3133515913
  0
LINE
  8
0
 62
7
  6
CONTINUOUS
 10
359.2246602583
 20
31.4746700234
 11
359.0512227376
 21
31.4101426505
  0
LINE
  8
0
 62
7
  6
CONTINUOUS
 10
361.6527851343
 20
31.5069337098
 11
361.4793477997
 21
31.4424063369
  0
LINE
  8
0
 62
7
  6
CONTINUOUS
 10
361.4793477997
 20
31.3133515913
 11
361.6527851343
 21
31.3778789641
  0
LINE
  8
0
 62
7
  6
CONTINUOUS
 10
360.2652852997
 20
30.7326051679
 11
360.091847717
 21
30.668077795
  0
LINE
  8
0
 62
7
  6
CONTINUOUS
 10
369.6887227445
 20
30.668077795
 11
369.4574729651
 21
30.6358140973
  0
LINE
  8
0
 62
7
  6
CONTINUOUS
 10
364.0809101343
 20
30.5067593403
 11
364.369972524
 21
30.5390230296
  0
LINE
  8
0
 62
7
  6
CONTINUOUS
 10
369.4574729651
 20
30.5067593403
 11
369.8043479651
 21
30.5390230296
  0
LINE
  8
0
 62
7
  6
CONTINUOUS
 10
359.744972717
 20
30.5067593403
 11
360.1496602445
 21
30.5390230296
  0
LINE
  8
0
 62
7
  6
CONTINUOUS
 10
360.091847717
 20
30.668077795
 11
359.6871602721
 21
30.6358140973
  0
LINE
  8
0
 62
7
  6
CONTINUOUS
 10
363.9652852445
 20
31.0552420547
 11
364.6012229651
 21
31.0552420547
  0
LINE
  8
0
 62
7
  6
CONTINUOUS
 10
364.6012229651
 20
31.1842968456
 11
363.9652852445
 21
31.1842968456
  0
LINE
  8
0
 62
7
  6
CONTINUOUS
 10
360.3230977445
 20
31.216560532
 11
360.6121602997
 21
31.216560532
  0
LINE
  8
0
 62
7
  6
CONTINUOUS
 10
363.1559103548
 20
31.2810879048
 11
363.4449727445
 21
31.2810879048
  0
LINE
  8
0
 62
7
  6
CONTINUOUS
 10
369.8621602445
 20
31.2810879048
 11
370.1512223035
 21
31.2810879048
  0
LINE
  8
0
 62
7
  6
CONTINUOUS
 10
363.8496603548
 20
31.4101426505
 11
364.1965353548
 21
31.4101426505
  0
LINE
  8
0
 62
7
  6
CONTINUOUS
 10
368.9949727445
 20
31.4101426505
 11
369.3418477445
 21
31.4101426505
  0
LINE
  8
0
 62
7
  6
CONTINUOUS
 10
369.3418477445
 20
31.5391973962
 11
368.9949727445
 21
31.5391973962
  0
LINE
  8
0
 62
7
  6
CONTINUOUS
 10
367.2605977445
 20
31.5391973962
 11
367.0293479651
 21
31.5391973962
  0
LINE
  8
0
 62
7
  6
CONTINUOUS
 10
366.5090354651
 20
31.5391973962
 11
366.2199727445
 21
31.5391973962
  0
LINE
  8
0
 62
7
  6
CONTINUOUS
 10
365.757472524
 20
31.5391973962
 11
365.4684104651
 21
31.5391973962
  0
LINE
  8
0
 62
7
  6
CONTINUOUS
 10
364.1965353548
 20
31.5391973962
 11
363.8496603548
 21
31.5391973962
  0
LINE
  8
0
 62
7
  6
CONTINUOUS
 10
362.1152853548
 20
31.5391973962
 11
361.8840352445
 21
31.5391973962
  0
LINE
  8
0
 62
7
  6
CONTINUOUS
 10
365.4684104651
 20
31.8618343508
 11
365.757472524
 21
31.8618343508
  0
LINE
  8
0
 62
7
  6
CONTINUOUS
 10
365.757472524
 20
32.0231527829
 11
365.4684104651
 21
32.0231527829
  0
LINE
  8
0
 62
7
  6
CONTINUOUS
 10
361.3637227445
 20
32.0231527829
 11
361.0746601894
 21
32.0231527829
  0
LINE
  8
0
 62
7
  6
CONTINUOUS
 10
360.4015045068
 20
32.3100380288
 11
360.8140758554
 21
32.3100380288
  0
LINE
  8
0
 62
7
  6
CONTINUOUS
 10
362.0408487691
 20
32.3100380288
 11
363.4342913921
 21
32.3100380288
  0
LINE
  8
0
 62
7
  6
CONTINUOUS
 10
363.7621602445
 20
32.3100380288
 11
365.1556028675
 21
32.3100380288
  0
LINE
  8
0
 62
7
  6
CONTINUOUS
 10
367.0408487691
 20
32.3100380288
 11
368.4342913921
 21
32.3100380288
  0
LINE
  8
0
 62
7
  6
CONTINUOUS
 10
368.7621602445
 20
32.3100380288
 11
370.1556028675
 21
32.3100380288
  0
LINE
  8
0
 62
7
  6
CONTINUOUS
 10
366.798097524
 20
31.5069337098
 11
366.624660024
 21
31.4424063369
  0
LINE
  8
0
 62
7
  6
CONTINUOUS
 10
364.369972524
 20
30.5390230296
 11
364.543410024
 21
30.6035504109
  0
LINE
  8
0
 62
7
  6
CONTINUOUS
 10
369.8043479651
 20
30.5390230296
 11
370.0355977445
 21
30.6035504109
  0
LINE
  8
0
 62
7
  6
CONTINUOUS
 10
369.8043479651
 20
30.7003414814
 11
369.6887227445
 21
30.668077795
  0
LINE
  8
0
 62
7
  6
CONTINUOUS
 10
368.7637229651
 20
31.3778789641
 11
368.9949727445
 21
31.4101426505
  0
LINE
  8
0
 62
7
  6
CONTINUOUS
 10
366.798097524
 20
31.3778789641
 11
367.0293479651
 21
31.4101426505
  0
LINE
  8
0
 62
7
  6
CONTINUOUS
 10
363.7340351343
 20
31.0229783683
 11
363.9652852445
 21
31.0552420547
  0
LINE
  8
0
 62
7
  6
CONTINUOUS
 10
367.0293479651
 20
31.5391973962
 11
366.798097524
 21
31.5069337098
  0
LINE
  8
0
 62
7
  6
CONTINUOUS
 10
363.6184102445
 20
31.3778789641
 11
363.8496603548
 21
31.4101426505
  0
LINE
  8
0
 62
7
  6
CONTINUOUS
 10
368.9949727445
 20
31.5391973962
 11
368.6480977445
 21
31.5069337098
  0
LINE
  8
0
 62
7
  6
CONTINUOUS
 10
363.9652852445
 20
31.1842968456
 11
363.6184102445
 21
31.1520331591
  0
LINE
  8
0
 62
7
  6
CONTINUOUS
 10
359.744972717
 20
31.5391973962
 11
359.3980977583
 21
31.5069337098
  0
LINE
  8
0
 62
7
  6
CONTINUOUS
 10
363.8496603548
 20
31.5391973962
 11
363.4449727445
 21
31.5069337098
  0
LINE
  8
0
 62
7
  6
CONTINUOUS
 10
361.221176638
 20
33.4575790124
 11
360.565438933
 21
33.4575790124
  0
LINE
  8
0
 62
7
  6
CONTINUOUS
 10
366.624660024
 20
31.3133515913
 11
366.798097524
 21
31.3778789641
  0
LINE
  8
0
 62
7
  6
CONTINUOUS
 10
368.6480977445
 20
31.3456152777
 11
368.7637229651
 21
31.3778789641
  0
LINE
  8
0
 62
7
  6
CONTINUOUS
 10
368.6480977445
 20
31.5069337098
 11
368.4168479651
 21
31.4424063369
  0
LINE
  8
0
 62
7
  6
CONTINUOUS
 10
364.369972524
 20
30.7003414814
 11
364.0809101343
 21
30.6358140973
  0
LINE
  8
0
 62
7
  6
CONTINUOUS
 10
361.6527851343
 20
31.3778789641
 11
361.8840352445
 21
31.4101426505
  0
LINE
  8
0
 62
7
  6
CONTINUOUS
 10
361.8840352445
 20
31.5391973962
 11
361.6527851343
 21
31.5069337098
  0
LINE
  8
0
 62
7
  6
CONTINUOUS
 10
359.4559102445
 20
31.3778789641
 11
359.6871602721
 21
31.4101426505
  0
LINE
  8
0
 62
7
  6
CONTINUOUS
 10
365.9752749986
 20
34.9329888485
 11
366.6310127035
 21
34.9329888485
  0
LINE
  8
0
 62
7
  6
CONTINUOUS
 10
363.6184102445
 20
30.9907146818
 11
363.7340351343
 21
31.0229783683
  0
LINE
  8
0
 62
7
  6
CONTINUOUS
 10
363.6184102445
 20
31.1520331591
 11
363.3871601343
 21
31.0875057863
  0
LINE
  8
0
 62
7
  6
CONTINUOUS
 10
363.5027853548
 20
31.3456152777
 11
363.6184102445
 21
31.3778789641
  0
LINE
  8
0
 62
7
  6
CONTINUOUS
 10
360.1496602445
 20
30.5390230296
 11
360.3809101894
 21
30.6035504109
  0
LINE
  8
0
 62
7
  6
CONTINUOUS
 10
363.4449727445
 20
31.5069337098
 11
363.3293478548
 21
31.4746700234
  0
LINE
  8
0
 62
7
  6
CONTINUOUS
 10
359.3980977583
 20
31.5069337098
 11
359.2246602583
 21
31.4746700234
  0
LINE
  8
0
 62
7
  6
CONTINUOUS
 10
370.1556028675
 20
36.0805298321
 11
368.7621602445
 21
36.0805298321
  0
LINE
  8
0
 62
7
  6
CONTINUOUS
 10
366.7949471298
 20
36.0805298321
 11
366.3823757812
 21
36.0805298321
  0
LINE
  8
0
 62
7
  6
CONTINUOUS
 10
365.1556028675
 20
36.0805298321
 11
363.7621602445
 21
36.0805298321
  0
LINE
  8
0
 62
7
  6
CONTINUOUS
 10
363.4342913921
 20
36.0805298321
 11
362.0408487691
 21
36.0805298321
  0
LINE
  8
0
 62
7
  6
CONTINUOUS
 10
360.1556028675
 20
36.0805298321
 11
358.7621602445
 21
36.0805298321
  0
LINE
  8
0
 62
7
  6
CONTINUOUS
 10
359.3402852307
 20
31.3456152777
 11
359.4559102445
 21
31.3778789641
  0
CIRCLE
  8
0
 62
7
  6
CONTINUOUS
 10
369.458881556
 20
38.4165954059
 40
2.0901639344
  0
ARC
  8
0
 62
7
  6
CONTINUOUS
 10
360.4015045068
 20
33.9493822911
 40
1.6393442623
 50
180.0
 51
270.0
  0
ARC
  8
0
 62
7
  6
CONTINUOUS
 10
366.7949471298
 20
34.4411855698
 40
1.6393442623
 50
0.0
 51
90.0
  0
ARC
  8
0
 62
7
  6
CONTINUOUS
 10
360.8140758554
 20
33.7854478649
 40
1.4754098361
 50
270.0
 51
326.2510114041
  0
ARC
  8
0
 62
7
  6
CONTINUOUS
 10
366.3823757812
 20
34.6051199961
 40
1.4754098361
 50
90.0
 51
146.2510114041
  0
ARC
  8
0
 62
7
  6
CONTINUOUS
 10
361.221176638
 20
34.2772511436
 40
0.8196721311
 50
270.0
 51
360.0
  0
ARC
  8
0
 62
7
  6
CONTINUOUS
 10
365.9752749986
 20
34.1133167174
 40
0.8196721311
 50
90.0
 51
180.0
  0
ARC
  8
0
 62
7
  6
CONTINUOUS
 10
360.565438933
 20
33.867415078
 40
0.4098360656
 50
180.0
 51
270.0
  0
ARC
  8
0
 62
7
  6
CONTINUOUS
 10
366.6310127035
 20
34.5231527829
 40
0.4098360656
 50
0.0
 51
90.0
  0
SOLID
  8
0
 62
7
  6
CONTINUOUS
 10
365.4684104651
 20
31.8618347111
 11
365.4684104651
 21
32.0231531947
 12
365.757472524
 22
31.8618347111
 13
365.757472524
 23
32.0231531947
  0
SOLID
  8
0
 62
7
  6
CONTINUOUS
 10
359.744972717
 20
31.5391977439
 11
360.1496602445
 21
31.5069333244
 12
359.3980977583
 22
31.5069333244
 13
359.3980977583
 23
31.5069333244
  0
SOLID
  8
0
 62
7
  6
CONTINUOUS
 10
359.2246602583
 20
31.4746706537
 11
359.3980977583
 21
31.5069333244
 12
360.1496602445
 22
31.5069333244
 13
360.1496602445
 23
31.5069333244
  0
SOLID
  8
0
 62
7
  6
CONTINUOUS
 10
360.1496602445
 20
31.5069333244
 11
360.3809101894
 21
31.4424063504
 12
359.2246602583
 22
31.4746706537
 13
359.2246602583
 23
31.4746706537
  0
SOLID
  8
0
 62
7
  6
CONTINUOUS
 10
359.0512227376
 20
31.4101419116
 11
359.2246602583
 21
31.4746706537
 12
360.3809101894
 22
31.4424063504
 13
360.3809101894
 23
31.4424063504
  0
SOLID
  8
0
 62
7
  6
CONTINUOUS
 10
359.0512227376
 20
31.4101419116
 11
360.3809101894
 21
31.4424063504
 12
359.6871602721
 22
31.4101419116
 13
359.6871602721
 23
31.4101419116
  0
SOLID
  8
0
 62
7
  6
CONTINUOUS
 10
359.6871602721
 20
31.4101419116
 11
360.3809101894
 21
31.4424063504
 12
360.091847717
 22
31.3778792603
 13
360.091847717
 23
31.3778792603
  0
SOLID
  8
0
 62
7
  6
CONTINUOUS
 10
360.3809101894
 20
31.4424063504
 11
360.5543476894
 21
31.345614957
 12
360.091847717
 22
31.3778792603
 13
360.091847717
 23
31.3778792603
  0
SOLID
  8
0
 62
7
  6
CONTINUOUS
 10
360.2652852997
 20
31.3133521701
 11
360.091847717
 21
31.3778792603
 12
360.5543476894
 22
31.345614957
 13
360.5543476894
 23
31.345614957
  0
SOLID
  8
0
 62
7
  6
CONTINUOUS
 10
360.2652852997
 20
31.3133521701
 11
360.5543476894
 21
31.345614957
 12
360.3230977445
 22
31.2165606992
 13
360.3230977445
 23
31.2165606992
  0
SOLID
  8
0
 62
7
  6
CONTINUOUS
 10
360.5543476894
 20
31.345614957
 11
360.6121602997
 21
31.2165606992
 12
360.3230977445
 22
31.2165606992
 13
360.3230977445
 23
31.2165606992
  0
SOLID
  8
0
 62
7
  6
CONTINUOUS
 10
361.6527851343
 20
31.5069329918
 11
361.8840352445
 21
31.5391972951
 12
362.1152853548
 22
31.5391972951
 13
362.1152853548
 23
31.5391972951
  0
SOLID
  8
0
 62
7
  6
CONTINUOUS
 10
362.1152853548
 20
31.5391972951
 11
362.2887228548
 21
31.5069329918
 12
361.6527851343
 22
31.5069329918
 13
361.6527851343
 23
31.5069329918
  0
SOLID
  8
0
 62
7
  6
CONTINUOUS
 10
361.4793477997
 20
31.4424059016
 11
361.6527851343
 21
31.5069329918
 12
362.2887228548
 22
31.5069329918
 13
362.2887228548
 23
31.5069329918
  0
SOLID
  8
0
 62
7
  6
CONTINUOUS
 10
362.2887228548
 20
31.5069329918
 11
362.4621603548
 21
31.4424059016
 12
361.4793477997
 22
31.4424059016
 13
361.4793477997
 23
31.4424059016
  0
SOLID
  8
0
 62
7
  6
CONTINUOUS
 10
362.4621603548
 20
31.4424059016
 11
361.8840352445
 21
31.4101420472
 12
361.4793477997
 22
31.4424059016
 13
361.4793477997
 23
31.4424059016
  0
SOLID
  8
0
 62
7
  6
CONTINUOUS
 10
361.3637227445
 20
31.3778788115
 11
361.4793477997
 21
31.4424059016
 12
361.8840352445
 22
31.4101420472
 13
361.8840352445
 23
31.4101420472
  0
SOLID
  8
0
 62
7
  6
CONTINUOUS
 10
361.8840352445
 20
31.4101420472
 11
361.6527851343
 21
31.3778788115
 12
361.3637227445
 22
31.3778788115
 13
361.3637227445
 23
31.3778788115
  0
SOLID
  8
0
 62
7
  6
CONTINUOUS
 10
361.8840352445
 20
31.4101420472
 11
362.4621603548
 21
31.4424059016
 12
362.1152853548
 22
31.3778788115
 13
362.1152853548
 23
31.3778788115
  0
SOLID
  8
0
 62
7
  6
CONTINUOUS
 10
362.4621603548
 20
31.4424059016
 11
362.5777852445
 21
31.3778788115
 12
362.1152853548
 22
31.3778788115
 13
362.1152853548
 23
31.3778788115
  0
SOLID
  8
0
 62
7
  6
CONTINUOUS
 10
362.2309102445
 20
31.345614957
 11
362.1152853548
 21
31.3778788115
 12
362.5777852445
 22
31.3778788115
 13
362.5777852445
 23
31.3778788115
  0
SOLID
  8
0
 62
7
  6
CONTINUOUS
 10
362.5777852445
 20
31.3778788115
 11
362.6355978548
 21
31.3133517213
 12
362.2309102445
 22
31.345614957
 13
362.2309102445
 23
31.345614957
  0
SOLID
  8
0
 62
7
  6
CONTINUOUS
 10
362.3465351343
 20
31.2810878668
 11
362.2309102445
 21
31.345614957
 12
362.6355978548
 22
31.3133517213
 13
362.6355978548
 23
31.3133517213
  0
SOLID
  8
0
 62
7
  6
CONTINUOUS
 10
362.3465351343
 20
31.2810878668
 11
362.6355978548
 21
31.3133517213
 12
362.4043477445
 22
31.1520332377
 13
362.4043477445
 23
31.1520332377
  0
SOLID
  8
0
 62
7
  6
CONTINUOUS
 10
362.6355978548
 20
31.3133517213
 11
362.6934101343
 21
31.1520332377
 12
362.4043477445
 22
31.1520332377
 13
362.4043477445
 23
31.1520332377
  0
SOLID
  8
0
 62
7
  6
CONTINUOUS
 10
361.6527851343
 20
31.3778788115
 11
361.4793477997
 21
31.3133517213
 12
361.3637227445
 22
31.3778788115
 13
361.3637227445
 23
31.3778788115
  0
SOLID
  8
0
 62
7
  6
CONTINUOUS
 10
361.4793477997
 20
31.3133517213
 11
361.3637227445
 21
31.2488235635
 12
361.3637227445
 22
31.3778788115
 13
361.3637227445
 23
31.3778788115
  0
SOLID
  8
0
 62
7
  6
CONTINUOUS
 10
361.3637227445
 20
31.2488235635
 11
361.0746601894
 21
30.5067593033
 12
361.3637227445
 22
31.3778788115
 13
361.3637227445
 23
31.3778788115
  0
SOLID
  8
0
 62
7
  6
CONTINUOUS
 10
361.3637227445
 20
31.3778788115
 11
361.0746601894
 21
30.5067593033
 12
361.3637227445
 22
32.0231527459
 13
361.3637227445
 23
32.0231527459
  0
SOLID
  8
0
 62
7
  6
CONTINUOUS
 10
361.0746601894
 20
30.5067593033
 11
361.0746601894
 21
32.0231527459
 12
361.3637227445
 22
32.0231527459
 13
361.3637227445
 23
32.0231527459
  0
SOLID
  8
0
 62
7
  6
CONTINUOUS
 10
361.3637227445
 20
31.2488235635
 11
361.3637227445
 21
30.5067593033
 12
361.0746601894
 22
30.5067593033
 13
361.0746601894
 23
30.5067593033
  0
SOLID
  8
0
 62
7
  6
CONTINUOUS
 10
362.4043477445
 20
30.5067593033
 11
362.4043477445
 21
31.1520332377
 12
362.6934101343
 22
31.1520332377
 13
362.6934101343
 23
31.1520332377
  0
SOLID
  8
0
 62
7
  6
CONTINUOUS
 10
362.6934101343
 20
31.1520332377
 11
362.6934101343
 21
30.5067593033
 12
362.4043477445
 22
30.5067593033
 13
362.4043477445
 23
30.5067593033
  0
SOLID
  8
0
 62
7
  6
CONTINUOUS
 10
363.4449727445
 20
31.506933758
 11
363.8496603548
 21
31.5391977507
 12
364.1965353548
 22
31.5391977507
 13
364.1965353548
 23
31.5391977507
  0
SOLID
  8
0
 62
7
  6
CONTINUOUS
 10
364.1965353548
 20
31.5391977507
 11
364.543410024
 21
31.506933758
 12
363.4449727445
 22
31.506933758
 13
363.4449727445
 23
31.506933758
  0
SOLID
  8
0
 62
7
  6
CONTINUOUS
 10
363.3293478548
 20
31.4746706537
 11
363.4449727445
 21
31.506933758
 12
364.543410024
 22
31.506933758
 13
364.543410024
 23
31.506933758
  0
SOLID
  8
0
 62
7
  6
CONTINUOUS
 10
364.543410024
 20
31.506933758
 11
364.716847524
 21
31.4424063504
 12
363.3293478548
 22
31.4746706537
 13
363.3293478548
 23
31.4746706537
  0
SOLID
  8
0
 62
7
  6
CONTINUOUS
 10
363.2137226343
 20
31.4101417797
 11
363.3293478548
 21
31.4746706537
 12
364.716847524
 22
31.4424063504
 13
364.716847524
 23
31.4424063504
  0
SOLID
  8
0
 62
7
  6
CONTINUOUS
 10
363.2137226343
 20
31.4101417797
 11
364.716847524
 21
31.4424063504
 12
363.8496603548
 22
31.4101417797
 13
363.8496603548
 23
31.4101417797
  0
SOLID
  8
0
 62
7
  6
CONTINUOUS
 10
363.8496603548
 20
31.4101417797
 11
364.716847524
 21
31.4424063504
 12
364.1965353548
 22
31.4101417797
 13
364.1965353548
 23
31.4101417797
  0
SOLID
  8
0
 62
7
  6
CONTINUOUS
 10
364.1965353548
 20
31.4101417797
 11
364.716847524
 21
31.4424063504
 12
364.4277854651
 22
31.3778793357
 13
364.4277854651
 23
31.3778793357
  0
SOLID
  8
0
 62
7
  6
CONTINUOUS
 10
364.716847524
 20
31.4424063504
 11
364.8324727445
 21
31.3778793357
 12
364.4277854651
 22
31.3778793357
 13
364.4277854651
 23
31.3778793357
  0
SOLID
  8
0
 62
7
  6
CONTINUOUS
 10
363.1559103548
 20
31.3456153429
 11
363.2137226343
 21
31.4101417797
 12
363.8496603548
 22
31.4101417797
 13
363.8496603548
 23
31.4101417797
  0
SOLID
  8
0
 62
7
  6
CONTINUOUS
 10
364.543410024
 20
31.3456153429
 11
364.4277854651
 21
31.3778793357
 12
364.8324727445
 22
31.3778793357
 13
364.8324727445
 23
31.3778793357
  0
SOLID
  8
0
 62
7
  6
CONTINUOUS
 10
364.543410024
 20
31.3456153429
 11
364.8324727445
 21
31.3778793357
 12
364.6012229651
 22
31.2810881318
 13
364.6012229651
 23
31.2810881318
  0
SOLID
  8
0
 62
7
  6
CONTINUOUS
 10
364.8324727445
 20
31.3778793357
 11
364.890285024
 21
31.2810881318
 12
364.6012229651
 22
31.2810881318
 13
364.6012229651
 23
31.2810881318
  0
SOLID
  8
0
 62
7
  6
CONTINUOUS
 10
364.6012229651
 20
31.1842964734
 11
364.6012229651
 21
31.2810881318
 12
364.890285024
 22
31.2810881318
 13
364.890285024
 23
31.2810881318
  0
SOLID
  8
0
 62
7
  6
CONTINUOUS
 10
364.6012229651
 20
31.1842964734
 11
364.890285024
 21
31.2810881318
 12
364.6012229651
 22
31.0552422931
 13
364.6012229651
 23
31.0552422931
  0
SOLID
  8
0
 62
7
  6
CONTINUOUS
 10
364.6012229651
 20
31.0552422931
 11
364.890285024
 21
31.2810881318
 12
364.6012229651
 22
30.8616599362
 13
364.6012229651
 23
30.8616599362
  0
SOLID
  8
0
 62
7
  6
CONTINUOUS
 10
364.890285024
 20
31.2810881318
 11
364.890285024
 21
30.7648681127
 12
364.6012229651
 22
30.8616599362
 13
364.6012229651
 23
30.8616599362
  0
SOLID
  8
0
 62
7
  6
CONTINUOUS
 10
366.798097524
 20
31.5069339419
 11
367.0293479651
 21
31.5391976292
 12
367.2605977445
 22
31.5391976292
 13
367.2605977445
 23
31.5391976292
  0
SOLID
  8
0
 62
7
  6
CONTINUOUS
 10
367.2605977445
 20
31.5391976292
 11
367.4340352445
 21
31.5069339419
 12
366.798097524
 22
31.5069339419
 13
366.798097524
 23
31.5069339419
  0
SOLID
  8
0
 62
7
  6
CONTINUOUS
 10
366.624660024
 20
31.4424065674
 11
366.798097524
 21
31.5069339419
 12
367.4340352445
 22
31.5069339419
 13
367.4340352445
 23
31.5069339419
  0
SOLID
  8
0
 62
7
  6
CONTINUOUS
 10
367.4340352445
 20
31.5069339419
 11
367.6074727445
 21
31.4424065674
 12
366.624660024
 22
31.4424065674
 13
366.624660024
 23
31.4424065674
  0
SOLID
  8
0
 62
7
  6
CONTINUOUS
 10
367.6074727445
 20
31.4424065674
 11
367.0293479651
 21
31.4101420472
 12
366.624660024
 22
31.4424065674
 13
366.624660024
 23
31.4424065674
  0
SOLID
  8
0
 62
7
  6
CONTINUOUS
 10
366.5090354651
 20
31.377879193
 11
366.624660024
 21
31.4424065674
 12
367.0293479651
 22
31.4101420472
 13
367.0293479651
 23
31.4101420472
  0
SOLID
  8
0
 62
7
  6
CONTINUOUS
 10
367.0293479651
 20
31.4101420472
 11
366.798097524
 21
31.377879193
 12
366.5090354651
 22
31.377879193
 13
366.5090354651
 23
31.377879193
  0
SOLID
  8
0
 62
7
  6
CONTINUOUS
 10
367.0293479651
 20
31.4101420472
 11
367.6074727445
 21
31.4424065674
 12
367.2605977445
 22
31.377879193
 13
367.2605977445
 23
31.377879193
  0
SOLID
  8
0
 62
7
  6
CONTINUOUS
 10
367.6074727445
 20
31.4424065674
 11
367.7230979651
 21
31.377879193
 12
367.2605977445
 22
31.377879193
 13
367.2605977445
 23
31.377879193
  0
SOLID
  8
0
 62
7
  6
CONTINUOUS
 10
367.3762229651
 20
31.345614957
 11
367.2605977445
 21
31.377879193
 12
367.7230979651
 22
31.377879193
 13
367.7230979651
 23
31.377879193
  0
SOLID
  8
0
 62
7
  6
CONTINUOUS
 10
367.3762229651
 20
31.345614957
 11
367.7230979651
 21
31.377879193
 12
367.491847524
 22
31.2810881312
 13
367.491847524
 23
31.2810881312
  0
SOLID
  8
0
 62
7
  6
CONTINUOUS
 10
367.7230979651
 20
31.377879193
 11
367.7809102445
 21
31.2810881312
 12
367.491847524
 22
31.2810881312
 13
367.491847524
 23
31.2810881312
  0
SOLID
  8
0
 62
7
  6
CONTINUOUS
 10
367.5496604651
 20
31.119769695
 11
367.491847524
 21
31.2810881312
 12
367.7809102445
 22
31.2810881312
 13
367.7809102445
 23
31.2810881312
  0
SOLID
  8
0
 62
7
  6
CONTINUOUS
 10
367.7809102445
 20
31.2810881312
 11
367.838722524
 21
31.119769695
 12
367.5496604651
 22
31.119769695
 13
367.5496604651
 23
31.119769695
  0
SOLID
  8
0
 62
7
  6
CONTINUOUS
 10
366.798097524
 20
31.377879193
 11
366.624660024
 21
31.3133521701
 12
366.5090354651
 22
31.377879193
 13
366.5090354651
 23
31.377879193
  0
SOLID
  8
0
 62
7
  6
CONTINUOUS
 10
366.624660024
 20
31.3133521701
 11
366.5090354651
 21
31.2488235635
 12
366.5090354651
 22
31.377879193
 13
366.5090354651
 23
31.377879193
  0
SOLID
  8
0
 62
7
  6
CONTINUOUS
 10
366.5090354651
 20
31.2488235635
 11
366.2199727445
 21
30.5067596374
 12
366.5090354651
 22
31.377879193
 13
366.5090354651
 23
31.377879193
  0
SOLID
  8
0
 62
7
  6
CONTINUOUS
 10
366.5090354651
 20
31.377879193
 11
366.2199727445
 21
30.5067596374
 12
366.5090354651
 22
31.5391976292
 13
366.5090354651
 23
31.5391976292
  0
SOLID
  8
0
 62
7
  6
CONTINUOUS
 10
366.2199727445
 20
30.5067596374
 11
366.2199727445
 21
31.5391976292
 12
366.5090354651
 22
31.5391976292
 13
366.5090354651
 23
31.5391976292
  0
SOLID
  8
0
 62
7
  6
CONTINUOUS
 10
366.5090354651
 20
31.2488235635
 11
366.5090354651
 21
30.5067596374
 12
366.2199727445
 22
30.5067596374
 13
366.2199727445
 23
30.5067596374
  0
SOLID
  8
0
 62
7
  6
CONTINUOUS
 10
367.5496604651
 20
30.5067596374
 11
367.5496604651
 21
31.119769695
 12
367.838722524
 22
31.119769695
 13
367.838722524
 23
31.119769695
  0
SOLID
  8
0
 62
7
  6
CONTINUOUS
 10
367.838722524
 20
31.119769695
 11
367.838722524
 21
30.5067596374
 12
367.5496604651
 22
30.5067596374
 13
367.5496604651
 23
30.5067596374
  0
SOLID
  8
0
 62
7
  6
CONTINUOUS
 10
368.6480977445
 20
31.5069334157
 11
368.9949727445
 21
31.539197762
 12
369.3418477445
 22
31.539197762
 13
369.3418477445
 23
31.539197762
  0
SOLID
  8
0
 62
7
  6
CONTINUOUS
 10
369.3418477445
 20
31.539197762
 11
369.6887227445
 21
31.5069334157
 12
368.6480977445
 22
31.5069334157
 13
368.6480977445
 23
31.5069334157
  0
SOLID
  8
0
 62
7
  6
CONTINUOUS
 10
368.4168479651
 20
31.4424063504
 11
368.6480977445
 21
31.5069334157
 12
369.6887227445
 22
31.5069334157
 13
369.6887227445
 23
31.5069334157
  0
SOLID
  8
0
 62
7
  6
CONTINUOUS
 10
368.4168479651
 20
31.4424063504
 11
369.6887227445
 21
31.5069334406
 12
369.8621602445
 22
31.4746706537
 13
369.8621602445
 23
31.4746706537
  0
SOLID
  8
0
 62
7
  6
CONTINUOUS
 10
368.4168479651
 20
31.4424063504
 11
369.8621602445
 21
31.4746706537
 12
368.9949727445
 22
31.4101421267
 13
368.9949727445
 23
31.4101421267
  0
SOLID
  8
0
 62
7
  6
CONTINUOUS
 10
368.9949727445
 20
31.4101421267
 11
369.8621602445
 21
31.4746706537
 12
369.3418477445
 22
31.4101421267
 13
369.3418477445
 23
31.4101421267
  0
SOLID
  8
0
 62
7
  6
CONTINUOUS
 10
369.8621602445
 20
31.4746706537
 11
370.0355977445
 21
31.4101421267
 12
369.3418477445
 22
31.4101421267
 13
369.3418477445
 23
31.4101421267
  0
SOLID
  8
0
 62
7
  6
CONTINUOUS
 10
369.6887227445
 20
31.3778792603
 11
369.3418477445
 21
31.4101421267
 12
370.0355977445
 22
31.4101421267
 13
370.0355977445
 23
31.4101421267
  0
SOLID
  8
0
 62
7
  6
CONTINUOUS
 10
368.3012227445
 20
31.3456148845
 11
368.4168479651
 21
31.4424063504
 12
368.9949727445
 22
31.4101421267
 13
368.9949727445
 23
31.4101421267
  0
SOLID
  8
0
 62
7
  6
CONTINUOUS
 10
369.6887227445
 20
31.3778792603
 11
370.0355977445
 21
31.4101421267
 12
369.8043479651
 22
31.3456148845
 13
369.8043479651
 23
31.3456148845
  0
SOLID
  8
0
 62
7
  6
CONTINUOUS
 10
369.8043479651
 20
31.3456148845
 11
370.0355977445
 21
31.4101421267
 12
369.8621602445
 22
31.281087868
 13
369.8621602445
 23
31.281087868
  0
SOLID
  8
0
 62
7
  6
CONTINUOUS
 10
370.0355977445
 20
31.4101421267
 11
370.1512223035
 21
31.281087868
 12
369.8621602445
 22
31.281087868
 13
369.8621602445
 23
31.281087868
  0
SOLID
  8
0
 62
7
  6
CONTINUOUS
 10
359.4559102445
 20
31.3778792603
 11
358.9355977445
 21
31.3456148963
 12
359.6871602721
 22
31.4101421155
 13
359.6871602721
 23
31.4101421155
  0
SOLID
  8
0
 62
7
  6
CONTINUOUS
 10
358.9355977445
 20
31.3456148963
 11
359.0512227376
 21
31.4101421155
 12
359.6871602721
 22
31.4101421155
 13
359.6871602721
 23
31.4101421155
  0
SOLID
  8
0
 62
7
  6
CONTINUOUS
 10
359.4559102445
 20
31.3778792603
 11
359.3402852307
 21
31.3456148963
 12
358.9355977445
 22
31.3456148963
 13
358.9355977445
 23
31.3456148963
  0
SOLID
  8
0
 62
7
  6
CONTINUOUS
 10
358.8199727462
 20
31.2165607767
 11
358.9355977445
 21
31.3456148963
 12
359.3402852307
 22
31.3456148963
 13
359.3402852307
 23
31.3456148963
  0
SOLID
  8
0
 62
7
  6
CONTINUOUS
 10
363.1559103548
 20
31.3456149608
 11
363.8496603548
 21
31.4101420472
 12
363.6184102445
 22
31.3778792603
 13
363.6184102445
 23
31.3778792603
  0
SOLID
  8
0
 62
7
  6
CONTINUOUS
 10
363.6184102445
 20
31.3778792603
 11
363.5027853548
 21
31.3456149608
 12
363.1559103548
 22
31.3456149608
 13
363.1559103548
 23
31.3456149608
  0
SOLID
  8
0
 62
7
  6
CONTINUOUS
 10
363.1559103548
 20
31.2810878707
 11
363.1559103548
 21
31.3456149608
 12
363.5027853548
 22
31.3456149608
 13
363.5027853548
 23
31.3456149608
  0
SOLID
  8
0
 62
7
  6
CONTINUOUS
 10
363.5027853548
 20
31.3456149608
 11
363.4449727445
 21
31.2810878707
 12
363.1559103548
 22
31.2810878707
 13
363.1559103548
 23
31.2810878707
  0
SOLID
  8
0
 62
7
  6
CONTINUOUS
 10
368.3012227445
 20
31.3456149608
 11
368.9949727445
 21
31.4101420472
 12
368.7637229651
 22
31.3778792603
 13
368.7637229651
 23
31.3778792603
  0
SOLID
  8
0
 62
7
  6
CONTINUOUS
 10
368.7637229651
 20
31.3778792603
 11
368.6480977445
 21
31.3456149608
 12
368.3012227445
 22
31.3456149608
 13
368.3012227445
 23
31.3456149608
  0
SOLID
  8
0
 62
7
  6
CONTINUOUS
 10
368.3012227445
 20
31.2810878707
 11
368.3012227445
 21
31.3456149608
 12
368.6480977445
 22
31.3456149608
 13
368.6480977445
 23
31.3456149608
  0
SOLID
  8
0
 62
7
  6
CONTINUOUS
 10
368.6480977445
 20
31.3456149608
 11
368.5902854651
 21
31.2810878707
 12
368.3012227445
 22
31.2810878707
 13
368.3012227445
 23
31.2810878707
  0
SOLID
  8
0
 62
7
  6
CONTINUOUS
 10
368.4168479651
 20
31.1520336865
 11
368.3012227445
 21
31.2810878707
 12
368.5902854651
 22
31.2810878707
 13
368.5902854651
 23
31.2810878707
  0
SOLID
  8
0
 62
7
  6
CONTINUOUS
 10
358.8199727462
 20
31.2165607767
 11
359.3402852307
 21
31.345614957
 12
359.1668477307
 22
31.2488235635
 13
359.1668477307
 23
31.2488235635
  0
SOLID
  8
0
 62
7
  6
CONTINUOUS
 10
359.1668477307
 20
31.2488235635
 11
359.1090352445
 21
31.1842964734
 12
358.8199727462
 22
31.2165607767
 13
358.8199727462
 23
31.2165607767
  0
SOLID
  8
0
 62
7
  6
CONTINUOUS
 10
358.7621602445
 20
31.0229779898
 11
358.8199727462
 21
31.2165607767
 12
359.1090352445
 22
31.1842964734
 13
359.1090352445
 23
31.1842964734
  0
SOLID
  8
0
 62
7
  6
CONTINUOUS
 10
363.6184102445
 20
31.1520336865
 11
363.9652852445
 21
31.1842964611
 12
364.6012229651
 22
31.1842964611
 13
364.6012229651
 23
31.1842964611
  0
SOLID
  8
0
 62
7
  6
CONTINUOUS
 10
363.6184102445
 20
31.1520336865
 11
364.6012229651
 21
31.1842964611
 12
363.3871601343
 22
31.0875057863
 13
363.3871601343
 23
31.0875057863
  0
SOLID
  8
0
 62
7
  6
CONTINUOUS
 10
363.3871601343
 20
31.0875057863
 11
364.6012229651
 21
31.1842964611
 12
363.9652852445
 22
31.0552422808
 13
363.9652852445
 23
31.0552422808
  0
SOLID
  8
0
 62
7
  6
CONTINUOUS
 10
364.6012229651
 20
31.1842964611
 11
364.6012229651
 21
31.0552422808
 12
363.9652852445
 22
31.0552422808
 13
363.9652852445
 23
31.0552422808
  0
SOLID
  8
0
 62
7
  6
CONTINUOUS
 10
368.4168479651
 20
31.1520338754
 11
368.5902854651
 21
31.2810878668
 12
368.6480977445
 22
31.2165607767
 13
368.6480977445
 23
31.2165607767
  0
SOLID
  8
0
 62
7
  6
CONTINUOUS
 10
368.6480977445
 20
31.2165607767
 11
368.8215352445
 21
31.1520338754
 12
368.4168479651
 22
31.1520338754
 13
368.4168479651
 23
31.1520338754
  0
SOLID
  8
0
 62
7
  6
CONTINUOUS
 10
368.6480977445
 20
31.0552422931
 11
368.4168479651
 21
31.1520338754
 12
368.8215352445
 22
31.1520338754
 13
368.8215352445
 23
31.1520338754
  0
SOLID
  8
0
 62
7
  6
CONTINUOUS
 10
368.8215352445
 20
31.1520338754
 11
369.8043479651
 21
30.9907152029
 12
368.6480977445
 22
31.0552422931
 13
368.6480977445
 23
31.0552422931
  0
SOLID
  8
0
 62
7
  6
CONTINUOUS
 10
369.6309104651
 20
30.8939239876
 11
368.6480977445
 21
31.0552422931
 12
369.8043479651
 22
30.9907152029
 13
369.8043479651
 23
30.9907152029
  0
SOLID
  8
0
 62
7
  6
CONTINUOUS
 10
369.8043479651
 20
30.9907152029
 11
370.0355977445
 21
30.8939239876
 12
369.6309104651
 22
30.8939239876
 13
369.6309104651
 23
30.8939239876
  0
SOLID
  8
0
 62
7
  6
CONTINUOUS
 10
369.8043479651
 20
30.8293967193
 11
369.6309104651
 21
30.8939239876
 12
370.0355977445
 22
30.8939239876
 13
370.0355977445
 23
30.8939239876
  0
SOLID
  8
0
 62
7
  6
CONTINUOUS
 10
369.8043479651
 20
30.8293967193
 11
370.0355977445
 21
30.8939239876
 12
369.8621602445
 22
30.7648682694
 13
369.8621602445
 23
30.7648682694
  0
SOLID
  8
0
 62
7
  6
CONTINUOUS
 10
370.0355977445
 20
30.8939239876
 11
370.1512223035
 21
30.7648682694
 12
369.8621602445
 22
30.7648682694
 13
369.8621602445
 23
30.7648682694
  0
SOLID
  8
0
 62
7
  6
CONTINUOUS
 10
369.8043479651
 20
30.7003411846
 11
369.8621602445
 21
30.7648682694
 12
370.1512223035
 22
30.7648682694
 13
370.1512223035
 23
30.7648682694
  0
SOLID
  8
0
 62
7
  6
CONTINUOUS
 10
370.1512223035
 20
30.7648682694
 11
370.1512223035
 21
30.7003411846
 12
369.8043479651
 22
30.7003411846
 13
369.8043479651
 23
30.7003411846
  0
SOLID
  8
0
 62
7
  6
CONTINUOUS
 10
369.6887227445
 20
30.6680782357
 11
369.8043479651
 21
30.7003411846
 12
370.1512223035
 22
30.7003411846
 13
370.1512223035
 23
30.7003411846
  0
SOLID
  8
0
 62
7
  6
CONTINUOUS
 10
369.6887227445
 20
30.6680782357
 11
370.1512223035
 21
30.7003411846
 12
369.4574729651
 22
30.6358140998
 13
369.4574729651
 23
30.6358140998
  0
SOLID
  8
0
 62
7
  6
CONTINUOUS
 10
370.1512223035
 20
30.7003411846
 11
370.0355977445
 21
30.6035511455
 12
369.4574729651
 22
30.6358140998
 13
369.4574729651
 23
30.6358140998
  0
SOLID
  8
0
 62
7
  6
CONTINUOUS
 10
370.0355977445
 20
30.6035511455
 11
368.5902854651
 21
30.5712868422
 12
369.4574729651
 22
30.6358140998
 13
369.4574729651
 23
30.6358140998
  0
SOLID
  8
0
 62
7
  6
CONTINUOUS
 10
369.4574729651
 20
30.6358140998
 11
368.5902854651
 21
30.5712868422
 12
369.1105979651
 22
30.6358140998
 13
369.1105979651
 23
30.6358140998
  0
SOLID
  8
0
 62
7
  6
CONTINUOUS
 10
368.5902854651
 20
30.5712868422
 11
368.4168479651
 21
30.6358140998
 12
369.1105979651
 22
30.6358140998
 13
369.1105979651
 23
30.6358140998
  0
SOLID
  8
0
 62
7
  6
CONTINUOUS
 10
368.5902854651
 20
30.5712868422
 11
370.0355977445
 21
30.6035511455
 12
368.7637229651
 22
30.5390223111
 13
368.7637229651
 23
30.5390223111
  0
SOLID
  8
0
 62
7
  6
CONTINUOUS
 10
370.0355977445
 20
30.6035511455
 11
369.8043479651
 21
30.5390223111
 12
368.7637229651
 22
30.5390223111
 13
368.7637229651
 23
30.5390223111
  0
SOLID
  8
0
 62
7
  6
CONTINUOUS
 10
369.1105979651
 20
30.5067599302
 11
368.7637229651
 21
30.5390223111
 12
369.8043479651
 22
30.5390223111
 13
369.8043479651
 23
30.5390223111
  0
SOLID
  8
0
 62
7
  6
CONTINUOUS
 10
369.8043479651
 20
30.5390223111
 11
369.4574729651
 21
30.5067599302
 12
369.1105979651
 22
30.5067599302
 13
369.1105979651
 23
30.5067599302
  0
SOLID
  8
0
 62
7
  6
CONTINUOUS
 10
358.7621602445
 20
31.0229779898
 11
359.1090352445
 21
31.1842964734
 12
359.0512227376
 22
31.0552422931
 13
359.0512227376
 23
31.0552422931
  0
SOLID
  8
0
 62
7
  6
CONTINUOUS
 10
359.0512227376
 20
31.0552422931
 11
359.0512227376
 21
30.9584509954
 12
358.7621602445
 22
31.0229779898
 13
358.7621602445
 23
31.0229779898
  0
SOLID
  8
0
 62
7
  6
CONTINUOUS
 10
358.8199727462
 20
30.8293967193
 11
358.7621602445
 21
31.0229779898
 12
359.0512227376
 22
30.9584509954
 13
359.0512227376
 23
30.9584509954
  0
SOLID
  8
0
 62
7
  6
CONTINUOUS
 10
359.0512227376
 20
30.9584509954
 11
359.1668477307
 21
30.797132416
 12
358.8199727462
 22
30.8293967193
 13
358.8199727462
 23
30.8293967193
  0
SOLID
  8
0
 62
7
  6
CONTINUOUS
 10
358.9355977445
 20
30.7003413087
 11
358.8199727462
 21
30.8293967193
 12
359.1668477307
 22
30.797132416
 13
359.1668477307
 23
30.797132416
  0
SOLID
  8
0
 62
7
  6
CONTINUOUS
 10
359.1668477307
 20
30.797132416
 11
359.3402852307
 21
30.7003413087
 12
358.9355977445
 22
30.7003413087
 13
358.9355977445
 23
30.7003413087
  0
SOLID
  8
0
 62
7
  6
CONTINUOUS
 10
359.0512227376
 20
30.6358140759
 11
358.9355977445
 21
30.7003413087
 12
359.3402852307
 22
30.7003413087
 13
359.3402852307
 23
30.7003413087
  0
SOLID
  8
0
 62
7
  6
CONTINUOUS
 10
359.3402852307
 20
30.7003413087
 11
359.6871602721
 21
30.6358140759
 12
359.0512227376
 22
30.6358140759
 13
359.0512227376
 23
30.6358140759
  0
SOLID
  8
0
 62
7
  6
CONTINUOUS
 10
359.2246602583
 20
30.5712868422
 11
359.0512227376
 21
30.6358140759
 12
359.6871602721
 22
30.6358140759
 13
359.6871602721
 23
30.6358140759
  0
SOLID
  8
0
 62
7
  6
CONTINUOUS
 10
363.2715352445
 20
31.0229779808
 11
363.3871601343
 21
31.0875057863
 12
363.9652852445
 22
31.0552422931
 13
363.9652852445
 23
31.0552422931
  0
SOLID
  8
0
 62
7
  6
CONTINUOUS
 10
363.9652852445
 20
31.0552422931
 11
363.7340351343
 21
31.0229779808
 12
363.2715352445
 22
31.0229779808
 13
363.2715352445
 23
31.0229779808
  0
SOLID
  8
0
 62
7
  6
CONTINUOUS
 10
363.1559103548
 20
30.8939238094
 11
363.2715352445
 21
31.0229779808
 12
363.7340351343
 22
31.0229779808
 13
363.7340351343
 23
31.0229779808
  0
SOLID
  8
0
 62
7
  6
CONTINUOUS
 10
363.5027853548
 20
30.926187309
 11
363.1559103548
 21
30.8939238094
 12
363.6184102445
 22
30.9907152029
 13
363.6184102445
 23
30.9907152029
  0
SOLID
  8
0
 62
7
  6
CONTINUOUS
 10
363.1559103548
 20
30.8939238094
 11
363.7340351343
 21
31.0229779898
 12
363.6184102445
 22
30.9907152029
 13
363.6184102445
 23
30.9907152029
  0
SOLID
  8
0
 62
7
  6
CONTINUOUS
 10
363.5027853548
 20
30.926187309
 11
363.4449727445
 21
30.8293967193
 12
363.1559103548
 22
30.8939238094
 13
363.1559103548
 23
30.8939238094
  0
SOLID
  8
0
 62
7
  6
CONTINUOUS
 10
363.1559103548
 20
30.797132416
 11
363.1559103548
 21
30.8939238094
 12
363.4449727445
 22
30.8293967193
 13
363.4449727445
 23
30.8293967193
  0
SOLID
  8
0
 62
7
  6
CONTINUOUS
 10
363.4449727445
 20
30.8293967193
 11
363.4449727445
 21
30.7648681127
 12
363.1559103548
 22
30.797132416
 13
363.1559103548
 23
30.797132416
  0
SOLID
  8
0
 62
7
  6
CONTINUOUS
 10
363.2137226343
 20
30.6680782357
 11
363.1559103548
 21
30.797132416
 12
363.4449727445
 22
30.7648681127
 13
363.4449727445
 23
30.7648681127
  0
SOLID
  8
0
 62
7
  6
CONTINUOUS
 10
364.6012229651
 20
30.8616599362
 11
364.890285024
 21
30.7648681127
 12
364.543410024
 22
30.797132416
 13
364.543410024
 23
30.797132416
  0
SOLID
  8
0
 62
7
  6
CONTINUOUS
 10
364.369972524
 20
30.7003410226
 11
364.543410024
 21
30.797132416
 12
364.890285024
 22
30.7648681127
 13
364.890285024
 23
30.7648681127
  0
SOLID
  8
0
 62
7
  6
CONTINUOUS
 10
364.369972524
 20
30.7003410226
 11
364.890285024
 21
30.7648681127
 12
364.6012229651
 22
30.6680782357
 13
364.6012229651
 23
30.6680782357
  0
SOLID
  8
0
 62
7
  6
CONTINUOUS
 10
364.890285024
 20
30.7648681127
 11
364.9480979651
 21
30.6035511455
 12
364.6012229651
 22
30.6680782357
 13
364.6012229651
 23
30.6680782357
  0
SOLID
  8
0
 62
7
  6
CONTINUOUS
 10
364.6590352445
 20
30.5712868422
 11
364.6012229651
 21
30.6680782357
 12
364.9480979651
 22
30.6035511455
 13
364.9480979651
 23
30.6035511455
  0
SOLID
  8
0
 62
7
  6
CONTINUOUS
 10
364.6590352445
 20
30.5712868422
 11
364.9480979651
 21
30.6035511455
 12
364.716847524
 22
30.5067598731
 13
364.716847524
 23
30.5067598731
  0
SOLID
  8
0
 62
7
  6
CONTINUOUS
 10
364.9480979651
 20
30.6035511455
 11
365.0059102445
 21
30.5067598731
 12
364.716847524
 22
30.5067598731
 13
364.716847524
 23
30.5067598731
  0
SOLID
  8
0
 62
7
  6
CONTINUOUS
 10
360.2652852997
 20
30.7326051679
 11
360.3230977445
 21
30.8293966612
 12
360.6121602997
 22
30.8293966612
 13
360.6121602997
 23
30.8293966612
  0
SOLID
  8
0
 62
7
  6
CONTINUOUS
 10
360.6121602997
 20
30.8293966612
 11
360.5543476894
 21
30.7003410226
 12
360.2652852997
 22
30.7326051679
 13
360.2652852997
 23
30.7326051679
  0
SOLID
  8
0
 62
7
  6
CONTINUOUS
 10
360.091847717
 20
30.6680782357
 11
360.2652852997
 21
30.7326051679
 12
360.5543476894
 22
30.7003410226
 13
360.5543476894
 23
30.7003410226
  0
SOLID
  8
0
 62
7
  6
CONTINUOUS
 10
360.091847717
 20
30.6680782357
 11
360.5543476894
 21
30.7003410226
 12
359.6871602721
 22
30.6358139324
 13
359.6871602721
 23
30.6358139324
  0
SOLID
  8
0
 62
7
  6
CONTINUOUS
 10
360.5543476894
 20
30.7003410226
 11
360.3809101894
 21
30.6035511455
 12
359.6871602721
 22
30.6358139324
 13
359.6871602721
 23
30.6358139324
  0
SOLID
  8
0
 62
7
  6
CONTINUOUS
 10
359.2246602583
 20
30.5712868422
 11
359.6871602721
 21
30.6358139324
 12
360.3809101894
 22
30.6035511455
 13
360.3809101894
 23
30.6035511455
  0
SOLID
  8
0
 62
7
  6
CONTINUOUS
 10
359.2246602583
 20
30.5712868422
 11
360.3809101894
 21
30.6035511455
 12
359.3980977583
 22
30.5390224228
 13
359.3980977583
 23
30.5390224228
  0
SOLID
  8
0
 62
7
  6
CONTINUOUS
 10
360.3809101894
 20
30.6035511455
 11
360.1496602445
 21
30.5390224228
 12
359.3980977583
 22
30.5390224228
 13
359.3980977583
 23
30.5390224228
  0
SOLID
  8
0
 62
7
  6
CONTINUOUS
 10
359.744972717
 20
30.5067597521
 11
359.3980977583
 21
30.5390224228
 12
360.1496602445
 22
30.5390224228
 13
360.1496602445
 23
30.5390224228
  0
SOLID
  8
0
 62
7
  6
CONTINUOUS
 10
363.2137226343
 20
30.6680782357
 11
363.4449727445
 21
30.7648681127
 12
363.5027853548
 22
30.7003410226
 13
363.5027853548
 23
30.7003410226
  0
SOLID
  8
0
 62
7
  6
CONTINUOUS
 10
363.5027853548
 20
30.7003410226
 11
363.7340351343
 21
30.6358139324
 12
363.2137226343
 22
30.6680782357
 13
363.2137226343
 23
30.6680782357
  0
SOLID
  8
0
 62
7
  6
CONTINUOUS
 10
363.3871601343
 20
30.5712868422
 11
363.2137226343
 21
30.6680782357
 12
363.7340351343
 22
30.6358139324
 13
363.7340351343
 23
30.6358139324
  0
SOLID
  8
0
 62
7
  6
CONTINUOUS
 10
364.0809101343
 20
30.6358139363
 11
364.369972524
 21
30.7003410226
 12
364.6012229651
 22
30.6680782357
 13
364.6012229651
 23
30.6680782357
  0
SOLID
  8
0
 62
7
  6
CONTINUOUS
 10
364.6012229651
 20
30.6680782357
 11
364.543410024
 21
30.6035511455
 12
364.0809101343
 22
30.6358139363
 13
364.0809101343
 23
30.6358139363
  0
SOLID
  8
0
 62
7
  6
CONTINUOUS
 10
364.543410024
 20
30.6035511455
 11
363.3871601343
 21
30.5712868422
 12
364.0809101343
 22
30.6358139363
 13
364.0809101343
 23
30.6358139363
  0
SOLID
  8
0
 62
7
  6
CONTINUOUS
 10
363.3871601343
 20
30.5712868422
 11
363.7340351343
 21
30.6358139363
 12
364.0809101343
 22
30.6358139363
 13
364.0809101343
 23
30.6358139363
  0
SOLID
  8
0
 62
7
  6
CONTINUOUS
 10
363.3871601343
 20
30.5712868422
 11
364.543410024
 21
30.6035511455
 12
363.5027853548
 22
30.5390225267
 13
363.5027853548
 23
30.5390225267
  0
SOLID
  8
0
 62
7
  6
CONTINUOUS
 10
364.543410024
 20
30.6035511455
 11
364.369972524
 21
30.5390225267
 12
363.5027853548
 22
30.5390225267
 13
363.5027853548
 23
30.5390225267
  0
SOLID
  8
0
 62
7
  6
CONTINUOUS
 10
363.7340351343
 20
30.5067596914
 11
363.5027853548
 21
30.5390225267
 12
364.369972524
 22
30.5390225267
 13
364.369972524
 23
30.5390225267
  0
SOLID
  8
0
 62
7
  6
CONTINUOUS
 10
364.369972524
 20
30.5390225267
 11
364.0809101343
 21
30.5067596914
 12
363.7340351343
 22
30.5067596914
 13
363.7340351343
 23
30.5067596914
  0
SOLID
  8
0
 62
7
  6
CONTINUOUS
 10
368.7637229651
 20
30.6680782357
 11
368.4168479651
 21
30.6358138717
 12
368.6480977445
 22
30.7003410226
 13
368.6480977445
 23
30.7003410226
  0
SOLID
  8
0
 62
7
  6
CONTINUOUS
 10
368.6480977445
 20
30.7003410226
 11
368.4168479651
 21
30.6358138717
 12
368.5902854651
 22
30.7648680521
 13
368.5902854651
 23
30.7648680521
  0
SOLID
  8
0
 62
7
  6
CONTINUOUS
 10
368.4168479651
 20
30.6358138717
 11
368.3012227445
 21
30.7648680521
 12
368.5902854651
 22
30.7648680521
 13
368.5902854651
 23
30.7648680521
  0
SOLID
  8
0
 62
7
  6
CONTINUOUS
 10
368.7637229651
 20
30.6680782357
 11
369.1105979651
 21
30.6358138717
 12
368.4168479651
 22
30.6358138717
 13
368.4168479651
 23
30.6358138717
  0
SOLID
  8
0
 62
7
  6
CONTINUOUS
 10
365.4684104651
 20
30.5067597521
 11
365.4684104651
 21
31.5391977439
 12
365.757472524
 22
30.5067597521
 13
365.757472524
 23
31.5391977439
  0
ENDBLK
  8
0
  6
BYBLOCK
 62
0
  0
BLOCK
  8
0
 62
2
  6
CONTINUOUS
  2
SYMBOL_0_BL0
 70
64
 10
240.8592468615
 20
19.762288695
  0
TEXT
  8
0
 62
7
  6
CONTINUOUS
 10
227.1239507038
 20
19.1357028027
  7
TEXTSTYLE_3
 40
2.7338706658
  1
Ammeraal Beltech
 41
1.0
 51
15.0
 72
0
  0
TEXT
  8
0
 62
7
  6
CONTINUOUS
 10
237.9247515296
 20
16.8621661299
  7
TEXTSTYLE_4
 40
1.0935482663
  1
Innovation & Service in Belting
 41
1.0
 72
0
  0
LINE
  8
0
 62
7
  6
CONTINUOUS
 10
221.0994100525
 20
19.9022961113
 11
221.8775620458
 21
23.5632134089
  0
LINE
  8
0
 62
7
  6
CONTINUOUS
 10
231.9727303357
 20
27.2266073205
 11
222.3653797889
 21
24.1049898993
  0
LINE
  8
0
 62
7
  6
CONTINUOUS
 10
221.3246933848
 20
19.2089453082
 11
228.8317686459
 21
12.4495443822
  0
LINE
  8
0
 62
7
  6
CONTINUOUS
 10
221.5872277955
 20
20.4440726016
 11
232.3954971607
 21
23.9558922005
  0
LINE
  8
0
 62
7
  6
CONTINUOUS
 10
232.3912920235
 20
13.6061036368
 11
223.9458323548
 21
21.2104296785
  0
LINE
  8
0
 62
7
  6
CONTINUOUS
 10
232.9111147433
 20
26.3816822048
 11
231.9345552061
 21
21.7873308023
  0
LINE
  8
0
 62
7
  6
CONTINUOUS
 10
231.2347532584
 20
18.4950214885
 11
230.5483050469
 21
15.2655365641
  0
LINE
  8
0
 62
7
  6
CONTINUOUS
 10
233.5922108419
 20
13.9963058145
 11
234.5484423775
 21
18.4950214885
  0
LINE
  8
0
 62
7
  6
CONTINUOUS
 10
235.2482443252
 20
21.7873308023
 11
235.6924861276
 21
23.8773241617
  0
LINE
  8
0
 62
7
  6
CONTINUOUS
 10
229.5448697213
 20
12.2979700695
 11
233.1043930989
 21
13.4545293241
  0
LINE
  8
0
 62
7
  6
CONTINUOUS
 10
232.685831411
 20
27.0750330078
 11
235.4672027953
 21
24.5706749648
  0
ARC
  8
0
 62
7
  6
CONTINUOUS
 10
222.5906631212
 20
23.4116390962
 40
0.7290321776
 50
108.0
 51
168.0
  0
ARC
  8
0
 62
7
  6
CONTINUOUS
 10
232.198013668
 20
26.5332565175
 40
0.7290321776
 50
348.0
 51
108.0
  0
ARC
  8
0
 62
7
  6
CONTINUOUS
 10
234.9793850522
 20
24.0288984744
 40
0.7290321776
 50
348.0
 51
48.0
  0
ARC
  8
0
 62
7
  6
CONTINUOUS
 10
229.319586389
 20
12.9913208726
 40
0.7290321776
 50
228.0
 51
288.0
  0
ARC
  8
0
 62
7
  6
CONTINUOUS
 10
221.8125111278
 20
19.7507217986
 40
0.7290321776
 50
108.0
 51
228.0
  0
ARC
  8
0
 62
7
  6
CONTINUOUS
 10
232.8791097665
 20
14.1478801272
 40
0.7290321776
 50
228.0
 51
348.0
  0
ENDBLK
  8
0
  6
BYBLOCK
 62
0
  0
ENDSEC
  0
SECTION
  2
ENTITIES
  0
TEXT
  8
0
 62
5
  6
CONTINUOUS
 10
304.937007874
 20
25.636
  7
TEXTSTYLE_2
 40
2.8
  1
Scale :
 41
0.6
 51
0.000019
 72
0
  0
TEXT
  8
0
 62
5
  6
CONTINUOUS
 10
324.937007874
 20
25.636
  7
TEXTSTYLE_2
 40
2.8
  1
Belt type:
 41
0.6
 51
0.000019
 72
0
  0
INSERT
  8
0
 62
2
  6
CONTINUOUS
  2
SYMBOL_0_BL0
 10
240.8592468615
 20
19.762288695
  0
INSERT
  8
0
 62
2
  6
CONTINUOUS
  2
SYMBOL_5_BL1
 10
382.7840918555
 20
35.5067593403
  0
LINE
  8
0
 62
2
  6
CONTINUOUS
 10
218.937007874
 20
30.0
 11
408.937007874
 21
30.0
  0
LINE
  8
0
 62
2
  6
CONTINUOUS
 10
218.937007874
 20
30.0
 11
218.937007874
 21
10.0
  0
LINE
  8
0
 62
2
  6
CONTINUOUS
 10
218.937007874
 20
10.0
 11
408.937007874
 21
10.0
  0
LINE
  8
0
 62
2
  6
CONTINUOUS
 10
303.937007874
 20
30.0
 11
303.937007874
 21
10.0
  0
LINE
  8
0
 62
2
  6
CONTINUOUS
 10
323.937007874
 20
30.0
 11
323.937007874
 21
10.0
  0
LINE
  8
0
 62
2
  6
CONTINUOUS
 10
408.937007874
 20
30.0
 11
408.937007874
 21
10.0
  0
TEXT
  8
0
 62
5
  6
CONTINUOUS
 10
221.937007874
 20
23.303
  7
TEXTSTYLE_5
 40
1.52
  1
                                                                     Ammeraal Beltech Modular A/S
 41
1.0
 72
0
  0
TEXT
  8
0
 62
5
  6
CONTINUOUS
 10
221.937007874
 20
20.595
  7
TEXTSTYLE_5
 40
1.5
  1
                                                                      Hjulmagervej 21, 7100 Vejle,  DK
 41
1.0
 72
0
  0
TEXT
  8
0
 62
5
  6
CONTINUOUS
 10
221.937007874
 20
17.881
  7
TEXTSTYLE_5
 40
1.495
  1
                                                                      tel: 
 41
1.0
 72
0
  0
TEXT
  8
0
 62
5
  6
CONTINUOUS
 10
266.9239544389
 20
17.881
  7
TEXTSTYLE_5
 40
1.51
  1
+45 75723100     fax: +45 75723348
 41
1.0
 72
0
  0
TEXT
  8
0
 62
5
  6
CONTINUOUS
 10
221.937007874
 20
15.177
  7
TEXTSTYLE_5
 40
1.5
  1
                                                                      admin@unichains.dk  www.unichains.com
 41
1.0
 72
0
  0
TEXT
  8
0
 62
5
  6
CONTINUOUS
 10
308.687007874
 20
13.75
  7
TEXTSTYLE_6
 40
5.0
  1
1:1
 41
0.7
 72
1
 11
313.937007874
 21
13.75
  0
TEXT
  8
0
 62
5
  6
CONTINUOUS
 10
326.937007874
 20
13.75
  7
TEXTSTYLE_7
 40
7.5
  1
uni XLB M2-CP 35mm-K800
 41
0.4343297101
 72
0
  0
LINE
  8
0
 62
7
  6
CONTINUOUS
 10
0.0
 20
0.0
 11
0.0
 21
297.0
  0
LINE
  8
0
 62
7
  6
CONTINUOUS
 10
8.937007874
 20
10.0
 11
8.937007874
 21
287.0
  0
LINE
  8
0
 62
7
  6
CONTINUOUS
 10
0.0
 20
0.0
 11
420.0
 21
0.0
  0
LINE
  8
0
 62
7
  6
CONTINUOUS
 10
408.937007874
 20
10.0
 11
8.937007874
 21
10.0
  0
LINE
  8
0
 62
7
  6
CONTINUOUS
 10
218.937007874
 20
30.0
 11
408.937007874
 21
30.0
  0
LINE
  8
0
 62
7
  6
CONTINUOUS
 10
210.0
 20
297.0
 11
210.0
 21
292.0
  0
LINE
  8
0
 62
7
  6
CONTINUOUS
 10
210.0
 20
0.0
 11
210.0
 21
5.0
  0
LINE
  8
0
 62
7
  6
CONTINUOUS
 10
8.937007874
 20
287.0
 11
408.937007874
 21
287.0
  0
LINE
  8
0
 62
7
  6
CONTINUOUS
 10
0.0
 20
297.0
 11
420.0
 21
297.0
  0
LINE
  8
0
 62
7
  6
CONTINUOUS
 10
408.937007874
 20
287.0
 11
408.937007874
 21
10.0
  0
LINE
  8
0
 62
7
  6
CONTINUOUS
 10
420.0
 20
0.0
 11
420.0
 21
297.0
  0
LINE
  8
0
 62
7
  6
CONTINUOUS
 10
56.6054854315
 20
74.3486054105
 11
56.6054854315
 21
138.5308829971
  0
POLYLINE
  8
0
 62
7
  6
CONTINUOUS
 66
1
 70
0
  0
VERTEX
  8
0
 62
7
  6
CONTINUOUS
 10
56.6054854315
 20
138.5308823642
  0
VERTEX
  8
0
 62
7
  6
CONTINUOUS
 10
56.609769973
 20
138.6550032421
  0
VERTEX
  8
0
 62
7
  6
CONTINUOUS
 10
56.6221329435
 20
138.7751238508
  0
VERTEX
  8
0
 62
7
  6
CONTINUOUS
 10
56.642900205
 20
138.8959759407
  0
VERTEX
  8
0
 62
7
  6
CONTINUOUS
 10
56.670373211
 20
139.0098245135
  0
VERTEX
  8
0
 62
7
  6
CONTINUOUS
 10
56.7070389206
 20
139.1269355915
  0
VERTEX
  8
0
 62
7
  6
CONTINUOUS
 10
56.7499645239
 20
139.2374589875
  0
VERTEX
  8
0
 62
7
  6
CONTINUOUS
 10
56.8024329131
 20
139.3495536189
  0
VERTEX
  8
0
 62
7
  6
CONTINUOUS
 10
56.8600670614
 20
139.453748585
  0
VERTEX
  8
0
 62
7
  6
CONTINUOUS
 10
56.9278051235
 20
139.558725206
  0
VERTEX
  8
0
 62
7
  6
CONTINUOUS
 10
57.000391574
 20
139.6559206977
  0
VERTEX
  8
0
 62
7
  6
CONTINUOUS
 10
57.0814457804
 20
139.7502752469
  0
VERTEX
  8
0
 62
7
  6
CONTINUOUS
 10
57.1697983993
 20
139.8397282522
  0
VERTEX
  8
0
 62
7
  6
CONTINUOUS
 10
57.2639790604
 20
139.9226306191
  0
VERTEX
  8
0
 62
7
  6
CONTINUOUS
 10
57.3654103854
 20
139.9999786505
  0
VERTEX
  8
0
 62
7
  6
CONTINUOUS
 10
57.4731104009
 20
140.0705825955
  0
VERTEX
  8
0
 62
7
  6
CONTINUOUS
 10
57.5858260496
 20
140.1334298667
  0
VERTEX
  8
0
 62
7
  6
CONTINUOUS
 10
57.7046759375
 20
140.1888528263
  0
VERTEX
  8
0
 62
7
  6
CONTINUOUS
 10
57.8283465317
 20
140.235848842
  0
VERTEX
  8
0
 62
7
  6
CONTINUOUS
 10
57.9543191939
 20
140.2734233325
  0
VERTEX
  8
0
 62
7
  6
CONTINUOUS
 10
58.0872041082
 20
140.3025191778
  0
VERTEX
  8
0
 62
7
  6
CONTINUOUS
 10
58.2181980878
 20
140.3211123637
  0
VERTEX
  8
0
 62
7
  6
CONTINUOUS
 10
58.3562235451
 20
140.3302081453
  0
VERTEX
  8
0
 62
7
  6
CONTINUOUS
 10
58.4054854315
 20
140.3308823642
  0
SEQEND
  0
LINE
  8
0
 62
7
  6
CONTINUOUS
 10
73.5237148146
 20
164.2275616369
 11
73.5211971039
 21
164.1842230569
  0
LINE
  8
0
 62
7
  6
CONTINUOUS
 10
72.9554854315
 20
115.9704094678
 11
72.9554854315
 21
81.2826643882
  0
LINE
  8
0
 62
7
  6
CONTINUOUS
 10
73.4216562357
 20
152.1231740211
 11
73.4212740742
 21
144.5422349814
  0
LINE
  8
0
 62
7
  6
CONTINUOUS
 10
73.4234601289
 20
153.6085873857
 11
73.4216562357
 21
152.1231740211
  0
LINE
  8
0
 62
7
  6
CONTINUOUS
 10
73.4263589594
 20
154.9281441123
 11
73.4234601289
 21
153.6085873857
  0
LINE
  8
0
 62
7
  6
CONTINUOUS
 10
73.4300356958
 20
156.0995310462
 11
73.4263589594
 21
154.9281441123
  0
LINE
  8
0
 62
7
  6
CONTINUOUS
 10
73.4357931499
 20
157.4659153394
 11
73.4300356958
 21
156.0995310462
  0
LINE
  8
0
 62
7
  6
CONTINUOUS
 10
73.4437887371
 20
158.8910720332
 11
73.4357931499
 21
157.4659153394
  0
LINE
  8
0
 62
7
  6
CONTINUOUS
 10
72.9140167549
 20
79.2367125548
 11
72.9232315062
 21
80.7463892663
  0
LINE
  8
0
 62
7
  6
CONTINUOUS
 10
73.4535438287
 20
160.2156028322
 11
73.4437887371
 21
158.8910720332
  0
LINE
  8
0
 62
7
  6
CONTINUOUS
 10
72.9027929546
 20
77.8602234487
 11
72.9140167549
 21
79.2367125548
  0
LINE
  8
0
 62
7
  6
CONTINUOUS
 10
73.4648540914
 20
161.3946950092
 11
73.4535438287
 21
160.2156028322
  0
POLYLINE
  8
0
 62
7
  6
CONTINUOUS
 66
1
 70
0
  0
VERTEX
  8
0
 62
7
  6
CONTINUOUS
 10
73.4212741654
 20
144.5422349814
  0
VERTEX
  8
0
 62
7
  6
CONTINUOUS
 10
73.4177553774
 20
144.2249134765
  0
VERTEX
  8
0
 62
7
  6
CONTINUOUS
 10
73.4064611291
 20
143.9062659935
  0
VERTEX
  8
0
 62
7
  6
CONTINUOUS
 10
73.3873694208
 20
143.6016511127
  0
VERTEX
  8
0
 62
7
  6
CONTINUOUS
 10
73.360522063
 20
143.310626227
  0
VERTEX
  8
0
 62
7
  6
CONTINUOUS
 10
73.3259730649
 20
143.0326323536
  0
VERTEX
  8
0
 62
7
  6
CONTINUOUS
 10
73.283780371
 20
142.7671711896
  0
VERTEX
  8
0
 62
7
  6
CONTINUOUS
 10
73.2340147279
 20
142.5139174322
  0
VERTEX
  8
0
 62
7
  6
CONTINUOUS
 10
73.1767386817
 20
142.2726030859
  0
VERTEX
  8
0
 62
7
  6
CONTINUOUS
 10
73.1119757979
 20
142.0429529726
  0
VERTEX
  8
0
 62
7
  6
CONTINUOUS
 10
73.0397783607
 20
141.8249604562
  0
VERTEX
  8
0
 62
7
  6
CONTINUOUS
 10
72.9602736023
 20
141.6189069362
  0
VERTEX
  8
0
 62
7
  6
CONTINUOUS
 10
72.8733284696
 20
141.4245473215
  0
VERTEX
  8
0
 62
7
  6
CONTINUOUS
 10
72.778723096
 20
141.2418337524
  0
VERTEX
  8
0
 62
7
  6
CONTINUOUS
 10
72.682163088
 20
141.0802986997
  0
SEQEND
  0
LINE
  8
0
 62
7
  6
CONTINUOUS
 10
72.8901981153
 20
76.6973034624
 11
72.9027929546
 21
77.8602234487
  0
LINE
  8
0
 62
7
  6
CONTINUOUS
 10
73.476145872
 20
162.3039293547
 11
73.4648540914
 21
161.3946950092
  0
LINE
  8
0
 62
7
  6
CONTINUOUS
 10
72.8767316228
 20
75.770698094
 11
72.8901981153
 21
76.6973034624
  0
LINE
  8
0
 62
7
  6
CONTINUOUS
 10
73.4871670232
 20
162.9924367785
 11
73.476145872
 21
162.3039293547
  0
LINE
  8
0
 62
7
  6
CONTINUOUS
 10
72.8669554064
 20
75.2604696521
 11
72.8767316228
 21
75.770698094
  0
LINE
  8
0
 62
7
  6
CONTINUOUS
 10
73.4962307079
 20
163.4356597278
 11
73.4871670232
 21
162.9924367785
  0
LINE
  8
0
 62
7
  6
CONTINUOUS
 10
72.8601831365
 20
74.9761372901
 11
72.8669554064
 21
75.2604696521
  0
LINE
  8
0
 62
7
  6
CONTINUOUS
 10
73.5032432229
 20
163.7112522978
 11
73.4962307079
 21
163.4356597278
  0
POLYLINE
  8
0
 62
7
  6
CONTINUOUS
 66
1
 70
0
  0
VERTEX
  8
0
 62
7
  6
CONTINUOUS
 10
72.9554854315
 20
81.2826643882
  0
VERTEX
  8
0
 62
7
  6
CONTINUOUS
 10
72.9481742887
 20
81.0240641526
  0
VERTEX
  8
0
 62
7
  6
CONTINUOUS
 10
72.9264781954
 20
80.7691245487
  0
VERTEX
  8
0
 62
7
  6
CONTINUOUS
 10
72.8910873022
 20
80.5212960992
  0
VERTEX
  8
0
 62
7
  6
CONTINUOUS
 10
72.8430831666
 20
80.2836374345
  0
VERTEX
  8
0
 62
7
  6
CONTINUOUS
 10
72.783843751
 20
80.058665669
  0
VERTEX
  8
0
 62
7
  6
CONTINUOUS
 10
72.7149276269
 20
79.8482659842
  0
VERTEX
  8
0
 62
7
  6
CONTINUOUS
 10
72.6379734702
 20
79.6537130808
  0
VERTEX
  8
0
 62
7
  6
CONTINUOUS
 10
72.5546035596
 20
79.4756990231
  0
VERTEX
  8
0
 62
7
  6
CONTINUOUS
 10
72.4663325353
 20
79.3143787259
  0
VERTEX
  8
0
 62
7
  6
CONTINUOUS
 10
72.3745213938
 20
79.1694904337
  0
VERTEX
  8
0
 62
7
  6
CONTINUOUS
 10
72.2803429223
 20
79.0404529528
  0
VERTEX
  8
0
 62
7
  6
CONTINUOUS
 10
72.1847680286
 20
78.926463974
  0
VERTEX
  8
0
 62
7
  6
CONTINUOUS
 10
72.0885728446
 20
78.8265935055
  0
VERTEX
  8
0
 62
7
  6
CONTINUOUS
 10
71.9923395718
 20
78.7398446979
  0
VERTEX
  8
0
 62
7
  6
CONTINUOUS
 10
71.8964886632
 20
78.665226364
  0
VERTEX
  8
0
 62
7
  6
CONTINUOUS
 10
71.8012924687
 20
78.6017880149
  0
VERTEX
  8
0
 62
7
  6
CONTINUOUS
 10
71.7069030608
 20
78.5486552274
  0
VERTEX
  8
0
 62
7
  6
CONTINUOUS
 10
71.6133641953
 20
78.5050454494
  0
VERTEX
  8
0
 62
7
  6
CONTINUOUS
 10
71.5206500014
 20
78.4702909789
  0
VERTEX
  8
0
 62
7
  6
CONTINUOUS
 10
71.4286653066
 20
78.4438374925
  0
VERTEX
  8
0
 62
7
  6
CONTINUOUS
 10
71.3372619862
 20
78.4252510427
  0
VERTEX
  8
0
 62
7
  6
CONTINUOUS
 10
71.2462683638
 20
78.4142233432
  0
VERTEX
  8
0
 62
7
  6
CONTINUOUS
 10
71.1554854315
 20
78.4105681627
  0
SEQEND
  0
LINE
  8
0
 62
7
  6
CONTINUOUS
 10
72.8547435135
 20
74.7851771082
 11
72.8601831365
 21
74.9761372901
  0
LINE
  8
0
 62
7
  6
CONTINUOUS
 10
73.5082869954
 20
163.8761138304
 11
73.5032432229
 21
163.7112522978
  0
LINE
  8
0
 62
7
  6
CONTINUOUS
 10
72.8504223052
 20
74.6557251196
 11
72.8547435135
 21
74.7851771082
  0
LINE
  8
0
 62
7
  6
CONTINUOUS
 10
73.5118243977
 20
163.9761121854
 11
73.5082869954
 21
163.8761138304
  0
LINE
  8
0
 62
7
  6
CONTINUOUS
 10
72.8471623433
 20
74.5703801839
 11
72.8504223052
 21
74.6557251196
  0
LINE
  8
0
 62
7
  6
CONTINUOUS
 10
73.5152918604
 20
164.0623145486
 11
73.5118243977
 21
163.9761121854
  0
LINE
  8
0
 62
7
  6
CONTINUOUS
 10
72.8438490092
 20
74.4938877389
 11
72.8471623433
 21
74.5703801839
  0
LINE
  8
0
 62
7
  6
CONTINUOUS
 10
73.5176167617
 20
164.1138983544
 11
73.5152918604
 21
164.0623145486
  0
LINE
  8
0
 62
7
  6
CONTINUOUS
 10
72.8415803752
 20
74.4471374683
 11
72.8438490092
 21
74.4938877389
  0
POLYLINE
  8
0
 62
7
  6
CONTINUOUS
 66
1
 70
0
  0
VERTEX
  8
0
 62
7
  6
CONTINUOUS
 10
73.5211971039
 20
164.1842230569
  0
VERTEX
  8
0
 62
7
  6
CONTINUOUS
 10
73.5199846265
 20
164.1615957977
  0
VERTEX
  8
0
 62
7
  6
CONTINUOUS
 10
73.5176167617
 20
164.1138983544
  0
SEQEND
  0
LINE
  8
0
 62
7
  6
CONTINUOUS
 10
72.8392286709
 20
74.4031936224
 11
72.8415803752
 21
74.4471374683
  0
LINE
  8
0
 62
7
  6
CONTINUOUS
 10
72.8367458001
 20
74.3614337567
 11
72.8392286709
 21
74.4031936224
  0
POLYLINE
  8
0
 62
7
  6
CONTINUOUS
 66
1
 70
0
  0
VERTEX
  8
0
 62
7
  6
CONTINUOUS
 10
72.9573548265
 20
94.7464900851
  0
VERTEX
  8
0
 62
7
  6
CONTINUOUS
 10
72.9789357191
 20
95.0618224993
  0
VERTEX
  8
0
 62
7
  6
CONTINUOUS
 10
73.0111327771
 20
95.3808381638
  0
VERTEX
  8
0
 62
7
  6
CONTINUOUS
 10
73.0533115965
 20
95.6872717264
  0
VERTEX
  8
0
 62
7
  6
CONTINUOUS
 10
73.1054224205
 20
95.9798248659
  0
VERTEX
  8
0
 62
7
  6
CONTINUOUS
 10
73.1671574975
 20
96.2570798116
  0
VERTEX
  8
0
 62
7
  6
CONTINUOUS
 10
73.2380260878
 20
96.5179385123
  0
VERTEX
  8
0
 62
7
  6
CONTINUOUS
 10
73.3172325302
 20
96.7611353623
  0
VERTEX
  8
0
 62
7
  6
CONTINUOUS
 10
73.403710392
 20
96.9855324587
  0
VERTEX
  8
0
 62
7
  6
CONTINUOUS
 10
73.4902429487
 20
97.1780542937
  0
SEQEND
  0
POLYLINE
  8
0
 62
7
  6
CONTINUOUS
 66
1
 70
0
  0
VERTEX
  8
0
 62
7
  6
CONTINUOUS
 10
72.682163143
 20
141.0802986644
  0
VERTEX
  8
0
 62
7
  6
CONTINUOUS
 10
72.6405402683
 20
141.0169034954
  0
VERTEX
  8
0
 62
7
  6
CONTINUOUS
 10
72.5859127765
 20
140.9381297376
  0
VERTEX
  8
0
 62
7
  6
CONTINUOUS
 10
72.5304031728
 20
140.8632198031
  0
VERTEX
  8
0
 62
7
  6
CONTINUOUS
 10
72.4739686996
 20
140.7923273384
  0
VERTEX
  8
0
 62
7
  6
CONTINUOUS
 10
72.4166332147
 20
140.7256846884
  0
VERTEX
  8
0
 62
7
  6
CONTINUOUS
 10
72.3583612995
 20
140.6634456269
  0
VERTEX
  8
0
 62
7
  6
CONTINUOUS
 10
72.2990505132
 20
140.6057146653
  0
VERTEX
  8
0
 62
7
  6
CONTINUOUS
 10
72.2386869323
 20
140.5527166983
  0
VERTEX
  8
0
 62
7
  6
CONTINUOUS
 10
72.1773481487
 20
140.5047625313
  0
VERTEX
  8
0
 62
7
  6
CONTINUOUS
 10
72.1151112094
 20
140.4621503536
  0
VERTEX
  8
0
 62
7
  6
CONTINUOUS
 10
72.0520713503
 20
140.4251753775
  0
VERTEX
  8
0
 62
7
  6
CONTINUOUS
 10
71.9888174955
 20
140.3943202057
  0
VERTEX
  8
0
 62
7
  6
CONTINUOUS
 10
71.9255968745
 20
140.3697059255
  0
VERTEX
  8
0
 62
7
  6
CONTINUOUS
 10
71.8626779985
 20
140.3513212318
  0
VERTEX
  8
0
 62
7
  6
CONTINUOUS
 10
71.8008216044
 20
140.339063708
  0
VERTEX
  8
0
 62
7
  6
CONTINUOUS
 10
71.7405334436
 20
140.332483132
  0
VERTEX
  8
0
 62
7
  6
CONTINUOUS
 10
71.6920265432
 20
140.3308825428
  0
SEQEND
  0
POLYLINE
  8
0
 62
7
  6
CONTINUOUS
 66
1
 70
0
  0
VERTEX
  8
0
 62
7
  6
CONTINUOUS
 10
89.6966073731
 20
164.2379714284
  0
VERTEX
  8
0
 62
7
  6
CONTINUOUS
 10
89.6950024622
 20
164.2624804544
  0
VERTEX
  8
0
 62
7
  6
CONTINUOUS
 10
89.6933407242
 20
164.286097925
  0
VERTEX
  8
0
 62
7
  6
CONTINUOUS
 10
89.6915997789
 20
164.3090802692
  0
VERTEX
  8
0
 62
7
  6
CONTINUOUS
 10
89.6897466182
 20
164.3317530721
  0
VERTEX
  8
0
 62
7
  6
CONTINUOUS
 10
89.6877380248
 20
164.3544701866
  0
VERTEX
  8
0
 62
7
  6
CONTINUOUS
 10
89.6855187438
 20
164.3776041061
  0
VERTEX
  8
0
 62
7
  6
CONTINUOUS
 10
89.6830252984
 20
164.4014820436
  0
VERTEX
  8
0
 62
7
  6
CONTINUOUS
 10
89.6801769926
 20
164.4264556349
  0
VERTEX
  8
0
 62
7
  6
CONTINUOUS
 10
89.6768694751
 20
164.4529166021
  0
VERTEX
  8
0
 62
7
  6
CONTINUOUS
 10
89.6729709467
 20
164.4812780258
  0
VERTEX
  8
0
 62
7
  6
CONTINUOUS
 10
89.6683180422
 20
164.5119573519
  0
VERTEX
  8
0
 62
7
  6
CONTINUOUS
 10
89.6627119719
 20
164.5453586118
  0
VERTEX
  8
0
 62
7
  6
CONTINUOUS
 10
89.6559872988
 20
164.5814873399
  0
VERTEX
  8
0
 62
7
  6
CONTINUOUS
 10
89.6480633497
 20
164.6198708463
  0
VERTEX
  8
0
 62
7
  6
CONTINUOUS
 10
89.6389368452
 20
164.6598165814
  0
VERTEX
  8
0
 62
7
  6
CONTINUOUS
 10
89.6283374518
 20
164.7018438854
  0
VERTEX
  8
0
 62
7
  6
CONTINUOUS
 10
89.6156051387
 20
164.7475880379
  0
VERTEX
  8
0
 62
7
  6
CONTINUOUS
 10
89.5997586398
 20
164.7990135341
  0
VERTEX
  8
0
 62
7
  6
CONTINUOUS
 10
89.5799559777
 20
164.856783852
  0
VERTEX
  8
0
 62
7
  6
CONTINUOUS
 10
89.55574557
 20
164.9200447343
  0
VERTEX
  8
0
 62
7
  6
CONTINUOUS
 10
89.5268491296
 20
164.9875764405
  0
VERTEX
  8
0
 62
7
  6
CONTINUOUS
 10
89.4927940885
 20
165.0587457429
  0
VERTEX
  8
0
 62
7
  6
CONTINUOUS
 10
89.4529140446
 20
165.1332569875
  0
VERTEX
  8
0
 62
7
  6
CONTINUOUS
 10
89.4065320741
 20
165.2106777593
  0
VERTEX
  8
0
 62
7
  6
CONTINUOUS
 10
89.352989013
 20
165.2904184398
  0
VERTEX
  8
0
 62
7
  6
CONTINUOUS
 10
89.2916438844
 20
165.3717626554
  0
VERTEX
  8
0
 62
7
  6
CONTINUOUS
 10
89.2216779684
 20
165.4541018263
  0
VERTEX
  8
0
 62
7
  6
CONTINUOUS
 10
89.1420370698
 20
165.5368689997
  0
VERTEX
  8
0
 62
7
  6
CONTINUOUS
 10
89.0520691092
 20
165.6188556623
  0
VERTEX
  8
0
 62
7
  6
CONTINUOUS
 10
88.9526536657
 20
165.6976253605
  0
VERTEX
  8
0
 62
7
  6
CONTINUOUS
 10
88.8453762073
 20
165.7708286949
  0
VERTEX
  8
0
 62
7
  6
CONTINUOUS
 10
88.7322554033
 20
165.8365667989
  0
VERTEX
  8
0
 62
7
  6
CONTINUOUS
 10
88.6148980354
 20
165.8938165154
  0
VERTEX
  8
0
 62
7
  6
CONTINUOUS
 10
88.4939294395
 20
165.9423323666
  0
VERTEX
  8
0
 62
7
  6
CONTINUOUS
 10
88.3698912599
 20
165.9819395466
  0
VERTEX
  8
0
 62
7
  6
CONTINUOUS
 10
88.2433248325
 20
166.0124802063
  0
VERTEX
  8
0
 62
7
  6
CONTINUOUS
 10
88.1147710885
 20
166.0338119941
  0
VERTEX
  8
0
 62
7
  6
CONTINUOUS
 10
87.9847761995
 20
166.045805827
  0
VERTEX
  8
0
 62
7
  6
CONTINUOUS
 10
87.8844167521
 20
166.0486042165
  0
SEQEND
  0
POLYLINE
  8
0
 62
7
  6
CONTINUOUS
 66
1
 70
0
  0
VERTEX
  8
0
 62
7
  6
CONTINUOUS
 10
90.2342909627
 20
74.3603864169
  0
VERTEX
  8
0
 62
7
  6
CONTINUOUS
 10
90.2359187665
 20
74.3354605049
  0
VERTEX
  8
0
 62
7
  6
CONTINUOUS
 10
90.237623125
 20
74.3112069002
  0
VERTEX
  8
0
 62
7
  6
CONTINUOUS
 10
90.2394246056
 20
74.2874486434
  0
VERTEX
  8
0
 62
7
  6
CONTINUOUS
 10
90.2413507117
 20
74.2639707137
  0
VERTEX
  8
0
 62
7
  6
CONTINUOUS
 10
90.2434373919
 20
74.2405241649
  0
VERTEX
  8
0
 62
7
  6
CONTINUOUS
 10
90.2457303194
 20
74.2168359441
  0
VERTEX
  8
0
 62
7
  6
CONTINUOUS
 10
90.2482948106
 20
74.192540958
  0
VERTEX
  8
0
 62
7
  6
CONTINUOUS
 10
90.2512237184
 20
74.167171015
  0
VERTEX
  8
0
 62
7
  6
CONTINUOUS
 10
90.2546439026
 20
74.1401765969
  0
VERTEX
  8
0
 62
7
  6
CONTINUOUS
 10
90.2587111805
 20
74.1110368322
  0
VERTEX
  8
0
 62
7
  6
CONTINUOUS
 10
90.2636034458
 20
74.0793389097
  0
VERTEX
  8
0
 62
7
  6
CONTINUOUS
 10
90.2695382438
 20
74.0446788744
  0
VERTEX
  8
0
 62
7
  6
CONTINUOUS
 10
90.2767172025
 20
74.0069768941
  0
VERTEX
  8
0
 62
7
  6
CONTINUOUS
 10
90.2851542385
 20
73.9671258053
  0
VERTEX
  8
0
 62
7
  6
CONTINUOUS
 10
90.294754379
 20
73.9262050988
  0
VERTEX
  8
0
 62
7
  6
CONTINUOUS
 10
90.3059084044
 20
73.8831554251
  0
VERTEX
  8
0
 62
7
  6
CONTINUOUS
 10
90.3194844355
 20
73.8357288343
  0
VERTEX
  8
0
 62
7
  6
CONTINUOUS
 10
90.3363923566
 20
73.7824620544
  0
VERTEX
  8
0
 62
7
  6
CONTINUOUS
 10
90.3573640591
 20
73.7231375331
  0
VERTEX
  8
0
 62
7
  6
CONTINUOUS
 10
90.3830674231
 20
73.6580741646
  0
VERTEX
  8
0
 62
7
  6
CONTINUOUS
 10
90.4139301344
 20
73.5883028844
  0
VERTEX
  8
0
 62
7
  6
CONTINUOUS
 10
90.4502375681
 20
73.5150313226
  0
VERTEX
  8
0
 62
7
  6
CONTINUOUS
 10
90.492367244
 20
73.4391144538
  0
VERTEX
  8
0
 62
7
  6
CONTINUOUS
 10
90.5406738767
 20
73.3613690781
  0
VERTEX
  8
0
 62
7
  6
CONTINUOUS
 10
90.5954221584
 20
73.2826765134
  0
VERTEX
  8
0
 62
7
  6
CONTINUOUS
 10
90.6570063731
 20
73.2036795485
  0
VERTEX
  8
0
 62
7
  6
CONTINUOUS
 10
90.7259834526
 20
73.124869818
  0
VERTEX
  8
0
 62
7
  6
CONTINUOUS
 10
90.8029125805
 20
73.0468552886
  0
VERTEX
  8
0
 62
7
  6
CONTINUOUS
 10
90.888150863
 20
72.9705327927
  0
VERTEX
  8
0
 62
7
  6
CONTINUOUS
 10
90.9816325486
 20
72.8971472123
  0
VERTEX
  8
0
 62
7
  6
CONTINUOUS
 10
91.083098208
 20
72.8279575929
  0
VERTEX
  8
0
 62
7
  6
CONTINUOUS
 10
91.1921174859
 20
72.7641797492
  0
VERTEX
  8
0
 62
7
  6
CONTINUOUS
 10
91.3079694081
 20
72.7070116409
  0
VERTEX
  8
0
 62
7
  6
CONTINUOUS
 10
91.4295455856
 20
72.657590864
  0
VERTEX
  8
0
 62
7
  6
CONTINUOUS
 10
91.5555420473
 20
72.6168287252
  0
VERTEX
  8
0
 62
7
  6
CONTINUOUS
 10
91.6845167804
 20
72.5853677448
  0
VERTEX
  8
0
 62
7
  6
CONTINUOUS
 10
91.8149380888
 20
72.5635598699
  0
VERTEX
  8
0
 62
7
  6
CONTINUOUS
 10
91.9452307989
 20
72.5514569279
  0
VERTEX
  8
0
 62
7
  6
CONTINUOUS
 10
92.0465541089
 20
72.5486044853
  0
SEQEND
  0
LINE
  8
0
 62
7
  6
CONTINUOUS
 10
89.6997035859
 20
164.1854967043
 11
89.6966073731
 21
164.2379714284
  0
LINE
  8
0
 62
7
  6
CONTINUOUS
 10
90.2312051546
 20
74.4128393281
 11
90.2342909627
 21
74.3603864169
  0
LINE
  8
0
 62
7
  6
CONTINUOUS
 10
90.2282782003
 20
74.4695067957
 11
90.2312051546
 21
74.4128393281
  0
LINE
  8
0
 62
7
  6
CONTINUOUS
 10
89.7027186256
 20
164.1271672027
 11
89.6997035859
 21
164.1854967043
  0
LINE
  8
0
 62
7
  6
CONTINUOUS
 10
90.2254444625
 20
74.5313588617
 11
90.2282782003
 21
74.4695067957
  0
LINE
  8
0
 62
7
  6
CONTINUOUS
 10
89.7057189158
 20
164.0613863673
 11
89.7027186256
 21
164.1271672027
  0
LINE
  8
0
 62
7
  6
CONTINUOUS
 10
89.7087506456
 20
163.9865319389
 11
89.7057189158
 21
164.0613863673
  0
LINE
  8
0
 62
7
  6
CONTINUOUS
 10
90.2212754401
 20
74.6358001887
 11
90.2254444625
 21
74.5313588617
  0
LINE
  8
0
 62
7
  6
CONTINUOUS
 10
89.7134861016
 20
163.851676166
 11
89.7087506456
 21
163.9865319389
  0
LINE
  8
0
 62
7
  6
CONTINUOUS
 10
90.2171390074
 20
74.7562696686
 11
90.2212754401
 21
74.6358001887
  0
LINE
  8
0
 62
7
  6
CONTINUOUS
 10
89.7185711551
 20
163.6810228708
 11
89.7134861016
 21
163.851676166
  0
LINE
  8
0
 62
7
  6
CONTINUOUS
 10
90.2116148897
 20
74.9450139509
 11
90.2171390074
 21
74.7562696686
  0
LINE
  8
0
 62
7
  6
CONTINUOUS
 10
89.7257619801
 20
163.3907613321
 11
89.7185711551
 21
163.6810228708
  0
LINE
  8
0
 62
7
  6
CONTINUOUS
 10
90.2045006434
 20
75.2382996027
 11
90.2116148897
 21
74.9450139509
  0
LINE
  8
0
 62
7
  6
CONTINUOUS
 10
89.7332458731
 20
163.0227476811
 11
89.7257619801
 21
163.3907613321
  0
LINE
  8
0
 62
7
  6
CONTINUOUS
 10
90.1968594818
 20
75.6216558362
 11
90.2045006434
 21
75.2382996027
  0
LINE
  8
0
 62
7
  6
CONTINUOUS
 10
89.7408670686
 20
162.5716747827
 11
89.7332458731
 21
163.0227476811
  0
LINE
  8
0
 62
7
  6
CONTINUOUS
 10
90.1883324824
 20
76.142376148
 11
90.1968594818
 21
75.6216558362
  0
LINE
  8
0
 62
7
  6
CONTINUOUS
 10
89.7486212964
 20
162.0235653893
 11
89.7408670686
 21
162.5716747827
  0
LINE
  8
0
 62
7
  6
CONTINUOUS
 10
90.1793421711
 20
76.8133368513
 11
90.1883324824
 21
76.142376148
  0
LINE
  8
0
 62
7
  6
CONTINUOUS
 10
89.7565429245
 20
161.3556530417
 11
89.7486212964
 21
162.0235653893
  0
LINE
  8
0
 62
7
  6
CONTINUOUS
 10
90.1702000964
 20
77.6501796061
 11
90.1793421711
 21
76.8133368513
  0
LINE
  8
0
 62
7
  6
CONTINUOUS
 10
89.7627718835
 20
160.7392257838
 11
89.7565429245
 21
161.3556530417
  0
LINE
  8
0
 62
7
  6
CONTINUOUS
 10
90.1629081396
 20
78.4578664089
 11
90.1702000964
 21
77.6501796061
  0
LINE
  8
0
 62
7
  6
CONTINUOUS
 10
89.7692708603
 20
159.9909883223
 11
89.7627718835
 21
160.7392257838
  0
LINE
  8
0
 62
7
  6
CONTINUOUS
 10
90.1557865015
 20
79.4048441503
 11
90.1629081396
 21
78.4578664089
  0
LINE
  8
0
 62
7
  6
CONTINUOUS
 10
89.7758268613
 20
159.0974042146
 11
89.7692708603
 21
159.9909883223
  0
LINE
  8
0
 62
7
  6
CONTINUOUS
 10
89.7823113707
 20
158.024251644
 11
89.7758268613
 21
159.0974042146
  0
LINE
  8
0
 62
7
  6
CONTINUOUS
 10
90.1477453906
 20
80.7463470135
 11
90.1557865015
 21
79.4048441503
  0
LINE
  8
0
 62
7
  6
CONTINUOUS
 10
89.7866028437
 20
157.1628441609
 11
89.7823113707
 21
158.024251644
  0
LINE
  8
0
 62
7
  6
CONTINUOUS
 10
89.7907394213
 20
156.1533933457
 11
89.7866028437
 21
157.1628441609
  0
LINE
  8
0
 62
7
  6
CONTINUOUS
 10
89.79429377
 20
155.044848727
 11
89.7907394213
 21
156.1533933457
  0
LINE
  8
0
 62
7
  6
CONTINUOUS
 10
89.7969404433
 20
153.9195957824
 11
89.79429377
 21
155.044848727
  0
LINE
  8
0
 62
7
  6
CONTINUOUS
 10
89.7987058154
 20
152.7767020249
 11
89.7969404433
 21
153.9195957824
  0
LINE
  8
0
 62
7
  6
CONTINUOUS
 10
89.7995903137
 20
151.6161418118
 11
89.7987058154
 21
152.7767020249
  0
LINE
  8
0
 62
7
  6
CONTINUOUS
 10
89.7995903137
 20
151.6161418118
 11
89.7996967888
 21
144.5422349815
  0
LINE
  8
0
 62
7
  6
CONTINUOUS
 10
90.1154854315
 20
81.2826643882
 11
90.1154854315
 21
115.9704094678
  0
POLYLINE
  8
0
 62
7
  6
CONTINUOUS
 66
1
 70
0
  0
VERTEX
  8
0
 62
7
  6
CONTINUOUS
 10
73.4902429026
 20
97.1780543159
  0
VERTEX
  8
0
 62
7
  6
CONTINUOUS
 10
73.5231824562
 20
97.2454414943
  0
VERTEX
  8
0
 62
7
  6
CONTINUOUS
 10
73.5662585613
 20
97.3310243675
  0
VERTEX
  8
0
 62
7
  6
CONTINUOUS
 10
73.6094200056
 20
97.4135719922
  0
VERTEX
  8
0
 62
7
  6
CONTINUOUS
 10
73.652778555
 20
97.4929881213
  0
VERTEX
  8
0
 62
7
  6
CONTINUOUS
 10
73.6964010895
 20
97.56912147
  0
VERTEX
  8
0
 62
7
  6
CONTINUOUS
 10
73.740375312
 20
97.6418846198
  0
VERTEX
  8
0
 62
7
  6
CONTINUOUS
 10
73.7848427794
 20
97.7112854415
  0
VERTEX
  8
0
 62
7
  6
CONTINUOUS
 10
73.8298858998
 20
97.7772359361
  0
VERTEX
  8
0
 62
7
  6
CONTINUOUS
 10
73.875520431
 20
97.8395578372
  0
VERTEX
  8
0
 62
7
  6
CONTINUOUS
 10
73.9217328001
 20
97.8980602176
  0
VERTEX
  8
0
 62
7
  6
CONTINUOUS
 10
73.9686437922
 20
97.9527254031
  0
VERTEX
  8
0
 62
7
  6
CONTINUOUS
 10
74.0163567568
 20
98.0034839854
  0
VERTEX
  8
0
 62
7
  6
CONTINUOUS
 10
74.06492848
 20
98.0501925596
  0
VERTEX
  8
0
 62
7
  6
CONTINUOUS
 10
74.1144042611
 20
98.0926830649
  0
VERTEX
  8
0
 62
7
  6
CONTINUOUS
 10
74.1642555633
 20
98.1303756876
  0
VERTEX
  8
0
 62
7
  6
CONTINUOUS
 10
74.2139757861
 20
98.1629400253
  0
VERTEX
  8
0
 62
7
  6
CONTINUOUS
 10
74.2632572746
 20
98.1903793764
  0
VERTEX
  8
0
 62
7
  6
CONTINUOUS
 10
74.3121613081
 20
98.2130067058
  0
VERTEX
  8
0
 62
7
  6
CONTINUOUS
 10
74.361728387
 20
98.2314766524
  0
VERTEX
  8
0
 62
7
  6
CONTINUOUS
 10
74.4134471201
 20
98.2462404084
  0
VERTEX
  8
0
 62
7
  6
CONTINUOUS
 10
74.468794053
 20
98.2573075375
  0
VERTEX
  8
0
 62
7
  6
CONTINUOUS
 10
74.5294465502
 20
98.2642791747
  0
VERTEX
  8
0
 62
7
  6
CONTINUOUS
 10
74.5862245384
 20
98.2663263852
  0
SEQEND
  0
POLYLINE
  8
0
 62
7
  6
CONTINUOUS
 66
1
 70
0
  0
VERTEX
  8
0
 62
7
  6
CONTINUOUS
 10
89.3921630714
 20
97.5169100428
  0
VERTEX
  8
0
 62
7
  6
CONTINUOUS
 10
89.4850103743
 20
97.36202018
  0
VERTEX
  8
0
 62
7
  6
CONTINUOUS
 10
89.5787286737
 20
97.1821849265
  0
VERTEX
  8
0
 62
7
  6
CONTINUOUS
 10
89.6662109632
 20
96.988041951
  0
VERTEX
  8
0
 62
7
  6
CONTINUOUS
 10
89.7469418871
 20
96.7801538629
  0
VERTEX
  8
0
 62
7
  6
CONTINUOUS
 10
89.8203639209
 20
96.5595135424
  0
VERTEX
  8
0
 62
7
  6
CONTINUOUS
 10
89.8860935226
 20
96.3270925852
  0
VERTEX
  8
0
 62
7
  6
CONTINUOUS
 10
89.9439565813
 20
96.0835597939
  0
VERTEX
  8
0
 62
7
  6
CONTINUOUS
 10
89.9938307736
 20
95.8297533469
  0
VERTEX
  8
0
 62
7
  6
CONTINUOUS
 10
90.0356742352
 20
95.5666894645
  0
VERTEX
  8
0
 62
7
  6
CONTINUOUS
 10
90.0695842934
 20
95.2952287939
  0
VERTEX
  8
0
 62
7
  6
CONTINUOUS
 10
90.0957665284
 20
95.0160549601
  0
VERTEX
  8
0
 62
7
  6
CONTINUOUS
 10
90.1136160741
 20
94.746490299
  0
SEQEND
  0
POLYLINE
  8
0
 62
7
  6
CONTINUOUS
 66
1
 70
0
  0
VERTEX
  8
0
 62
7
  6
CONTINUOUS
 10
106.1021630165
 20
141.0802984621
  0
VERTEX
  8
0
 62
7
  6
CONTINUOUS
 10
106.0545123957
 20
141.007964495
  0
VERTEX
  8
0
 62
7
  6
CONTINUOUS
 10
105.9972226854
 20
140.9260614439
  0
VERTEX
  8
0
 62
7
  6
CONTINUOUS
 10
105.9406635416
 20
140.8506071822
  0
VERTEX
  8
0
 62
7
  6
CONTINUOUS
 10
105.8842245833
 20
140.7806207796
  0
VERTEX
  8
0
 62
7
  6
CONTINUOUS
 10
105.8272606439
 20
140.7153019945
  0
VERTEX
  8
0
 62
7
  6
CONTINUOUS
 10
105.7692265577
 20
140.6541865192
  0
VERTEX
  8
0
 62
7
  6
CONTINUOUS
 10
105.7100335806
 20
140.5974303732
  0
VERTEX
  8
0
 62
7
  6
CONTINUOUS
 10
105.6497820709
 20
140.545386968
  0
VERTEX
  8
0
 62
7
  6
CONTINUOUS
 10
105.588689268
 20
140.4984700239
  0
VERTEX
  8
0
 62
7
  6
CONTINUOUS
 10
105.5269609303
 20
140.4570197772
  0
VERTEX
  8
0
 62
7
  6
CONTINUOUS
 10
105.4648037435
 20
140.4213124489
  0
VERTEX
  8
0
 62
7
  6
CONTINUOUS
 10
105.4027107502
 20
140.3916717564
  0
VERTEX
  8
0
 62
7
  6
CONTINUOUS
 10
105.3407902677
 20
140.3680875487
  0
VERTEX
  8
0
 62
7
  6
CONTINUOUS
 10
105.2792403378
 20
140.35049019
  0
VERTEX
  8
0
 62
7
  6
CONTINUOUS
 10
105.21865345
 20
140.3387364644
  0
VERTEX
  8
0
 62
7
  6
CONTINUOUS
 10
105.159375613
 20
140.3324071652
  0
VERTEX
  8
0
 62
7
  6
CONTINUOUS
 10
105.1120264848
 20
140.3308825481
  0
SEQEND
  0
LINE
  8
0
 62
7
  6
CONTINUOUS
 10
106.5093152184
 20
86.4748648332
 11
106.5096967888
 21
94.0549737209
  0
LINE
  8
0
 62
7
  6
CONTINUOUS
 10
106.8416556445
 20
152.1223438686
 11
106.8412740742
 21
144.542234981
  0
LINE
  8
0
 62
7
  6
CONTINUOUS
 10
106.507511368
 20
84.9889890098
 11
106.5093152184
 21
86.4748648332
  0
LINE
  8
0
 62
7
  6
CONTINUOUS
 10
106.8434594949
 20
153.6082196921
 11
106.8416556445
 21
152.1223438686
  0
LINE
  8
0
 62
7
  6
CONTINUOUS
 10
106.5046118673
 20
83.6690510667
 11
106.507511368
 21
84.9889890098
  0
LINE
  8
0
 62
7
  6
CONTINUOUS
 10
106.8463589957
 20
154.9281576351
 11
106.8434594949
 21
153.6082196921
  0
LINE
  8
0
 62
7
  6
CONTINUOUS
 10
106.5009338252
 20
82.4973060868
 11
106.5046118673
 21
83.6690510667
  0
LINE
  8
0
 62
7
  6
CONTINUOUS
 10
106.8500370378
 20
156.099902615
 11
106.8463589957
 21
154.9281576351
  0
LINE
  8
0
 62
7
  6
CONTINUOUS
 10
106.4951739255
 20
81.1305124754
 11
106.5009338252
 21
82.4973060868
  0
LINE
  8
0
 62
7
  6
CONTINUOUS
 10
106.8557969374
 20
157.4666962264
 11
106.8500370378
 21
156.099902615
  0
LINE
  8
0
 62
7
  6
CONTINUOUS
 10
106.8637953712
 20
158.8921027171
 11
106.8557969374
 21
157.4666962264
  0
LINE
  8
0
 62
7
  6
CONTINUOUS
 10
106.4871754917
 20
79.7051059848
 11
106.4951739255
 21
81.1305124754
  0
LINE
  8
0
 62
7
  6
CONTINUOUS
 10
106.8735528125
 20
160.2166718987
 11
106.8637953712
 21
158.8921027171
  0
LINE
  8
0
 62
7
  6
CONTINUOUS
 10
106.4774180504
 20
78.3805368032
 11
106.4871754917
 21
79.7051059848
  0
LINE
  8
0
 62
7
  6
CONTINUOUS
 10
106.884866329
 20
161.3958105951
 11
106.8735528125
 21
160.2166718987
  0
LINE
  8
0
 62
7
  6
CONTINUOUS
 10
106.466104534
 20
77.2013981067
 11
106.4774180504
 21
78.3805368032
  0
POLYLINE
  8
0
 62
7
  6
CONTINUOUS
 66
1
 70
0
  0
VERTEX
  8
0
 62
7
  6
CONTINUOUS
 10
106.8412741746
 20
144.542234981
  0
VERTEX
  8
0
 62
7
  6
CONTINUOUS
 10
106.8377262503
 20
144.2236336461
  0
VERTEX
  8
0
 62
7
  6
CONTINUOUS
 10
106.8264002851
 20
143.9050196504
  0
VERTEX
  8
0
 62
7
  6
CONTINUOUS
 10
106.807275661
 20
143.6004372787
  0
VERTEX
  8
0
 62
7
  6
CONTINUOUS
 10
106.7803943472
 20
143.3094441758
  0
VERTEX
  8
0
 62
7
  6
CONTINUOUS
 10
106.7458104185
 20
143.0314817201
  0
VERTEX
  8
0
 62
7
  6
CONTINUOUS
 10
106.7035818099
 20
142.766052085
  0
VERTEX
  8
0
 62
7
  6
CONTINUOUS
 10
106.6537793149
 20
142.5128305763
  0
VERTEX
  8
0
 62
7
  6
CONTINUOUS
 10
106.5964655631
 20
142.2715497316
  0
VERTEX
  8
0
 62
7
  6
CONTINUOUS
 10
106.5316640238
 20
142.0419344583
  0
VERTEX
  8
0
 62
7
  6
CONTINUOUS
 10
106.4594269437
 20
141.8239785741
  0
VERTEX
  8
0
 62
7
  6
CONTINUOUS
 10
106.3798818738
 20
141.6179647114
  0
VERTEX
  8
0
 62
7
  6
CONTINUOUS
 10
106.2928955211
 20
141.4236479278
  0
VERTEX
  8
0
 62
7
  6
CONTINUOUS
 10
106.1982473215
 20
141.2409801216
  0
VERTEX
  8
0
 62
7
  6
CONTINUOUS
 10
106.1021629657
 20
141.0802984947
  0
SEQEND
  0
POLYLINE
  8
0
 62
7
  6
CONTINUOUS
 66
1
 70
0
  0
VERTEX
  8
0
 62
7
  6
CONTINUOUS
 10
106.5096966883
 20
94.0549737209
  0
VERTEX
  8
0
 62
7
  6
CONTINUOUS
 10
106.5132446127
 20
94.3735750557
  0
VERTEX
  8
0
 62
7
  6
CONTINUOUS
 10
106.5245705779
 20
94.6921890515
  0
VERTEX
  8
0
 62
7
  6
CONTINUOUS
 10
106.5436952019
 20
94.9967714231
  0
VERTEX
  8
0
 62
7
  6
CONTINUOUS
 10
106.5705765158
 20
95.2877645261
  0
VERTEX
  8
0
 62
7
  6
CONTINUOUS
 10
106.6051604445
 20
95.5657269817
  0
VERTEX
  8
0
 62
7
  6
CONTINUOUS
 10
106.647389053
 20
95.8311566168
  0
VERTEX
  8
0
 62
7
  6
CONTINUOUS
 10
106.6971915481
 20
96.0843781256
  0
VERTEX
  8
0
 62
7
  6
CONTINUOUS
 10
106.7545052998
 20
96.3256589702
  0
VERTEX
  8
0
 62
7
  6
CONTINUOUS
 10
106.8193068391
 20
96.5552742435
  0
VERTEX
  8
0
 62
7
  6
CONTINUOUS
 10
106.8915439193
 20
96.7732301278
  0
VERTEX
  8
0
 62
7
  6
CONTINUOUS
 10
106.9710889891
 20
96.9792439904
  0
VERTEX
  8
0
 62
7
  6
CONTINUOUS
 10
107.0580753419
 20
97.173560774
  0
VERTEX
  8
0
 62
7
  6
CONTINUOUS
 10
107.1527235415
 20
97.3562285802
  0
VERTEX
  8
0
 62
7
  6
CONTINUOUS
 10
107.2488078972
 20
97.5169102071
  0
SEQEND
  0
LINE
  8
0
 62
7
  6
CONTINUOUS
 10
106.8961615358
 20
162.3050371844
 11
106.884866329
 21
161.3958105951
  0
LINE
  8
0
 62
7
  6
CONTINUOUS
 10
106.4548093271
 20
76.2921715174
 11
106.466104534
 21
77.2013981067
  0
LINE
  8
0
 62
7
  6
CONTINUOUS
 10
106.9071856782
 20
162.9934568764
 11
106.8961615358
 21
162.3050371844
  0
LINE
  8
0
 62
7
  6
CONTINUOUS
 10
106.4437851848
 20
75.6037518254
 11
106.4548093271
 21
76.2921715174
  0
LINE
  8
0
 62
7
  6
CONTINUOUS
 10
106.9162513218
 20
163.4365527343
 11
106.9071856782
 21
162.9934568764
  0
LINE
  8
0
 62
7
  6
CONTINUOUS
 10
106.4347195412
 20
75.1606559675
 11
106.4437851848
 21
75.6037518254
  0
LINE
  8
0
 62
7
  6
CONTINUOUS
 10
106.9232629824
 20
163.7119511179
 11
106.9162513218
 21
163.4365527343
  0
LINE
  8
0
 62
7
  6
CONTINUOUS
 10
106.4277078805
 20
74.8852575839
 11
106.4347195412
 21
75.1606559675
  0
LINE
  8
0
 62
7
  6
CONTINUOUS
 10
106.9283056621
 20
163.8766745892
 11
106.9232629824
 21
163.7119511179
  0
LINE
  8
0
 62
7
  6
CONTINUOUS
 10
106.4226652009
 20
74.7205341126
 11
106.4277078805
 21
74.8852575839
  0
LINE
  8
0
 62
7
  6
CONTINUOUS
 10
106.9318434895
 20
163.9766182608
 11
106.9283056621
 21
163.8766745892
  0
LINE
  8
0
 62
7
  6
CONTINUOUS
 10
106.4191273735
 20
74.620590441
 11
106.4226652009
 21
74.7205341126
  0
LINE
  8
0
 62
7
  6
CONTINUOUS
 10
106.9353119575
 20
164.06278135
 11
106.9318434895
 21
163.9766182608
  0
LINE
  8
0
 62
7
  6
CONTINUOUS
 10
106.4156589055
 20
74.5344273519
 11
106.4191273735
 21
74.620590441
  0
LINE
  8
0
 62
7
  6
CONTINUOUS
 10
106.9376376427
 20
164.1143399223
 11
106.9353119575
 21
164.06278135
  0
LINE
  8
0
 62
7
  6
CONTINUOUS
 10
106.4133332202
 20
74.4828687796
 11
106.4156589055
 21
74.5344273519
  0
LINE
  8
0
 62
7
  6
CONTINUOUS
 10
106.9400064986
 20
164.1620145037
 11
106.9376376427
 21
164.1143399223
  0
LINE
  8
0
 62
7
  6
CONTINUOUS
 10
106.4109643643
 20
74.4351941981
 11
106.4133332202
 21
74.4828687796
  0
LINE
  8
0
 62
7
  6
CONTINUOUS
 10
106.9424608384
 20
164.2065741006
 11
106.9400064986
 21
164.1620145037
  0
LINE
  8
0
 62
7
  6
CONTINUOUS
 10
106.4085100245
 20
74.3906346013
 11
106.4109643643
 21
74.4351941981
  0
LINE
  8
0
 62
7
  6
CONTINUOUS
 10
106.9450651482
 20
164.248900624
 11
106.9424608384
 21
164.2065741006
  0
LINE
  8
0
 62
7
  6
CONTINUOUS
 10
106.4059057148
 20
74.3483080778
 11
106.4085100245
 21
74.3906346013
  0
POLYLINE
  8
0
 62
7
  6
CONTINUOUS
 66
1
 70
0
  0
VERTEX
  8
0
 62
7
  6
CONTINUOUS
 10
138.0144167562
 20
72.5486044853
  0
VERTEX
  8
0
 62
7
  6
CONTINUOUS
 10
138.1184894025
 20
72.5516139575
  0
VERTEX
  8
0
 62
7
  6
CONTINUOUS
 10
138.2484711856
 20
72.5638777755
  0
VERTEX
  8
0
 62
7
  6
CONTINUOUS
 10
138.3774646276
 20
72.585575416
  0
VERTEX
  8
0
 62
7
  6
CONTINUOUS
 10
138.5038850546
 20
72.6163920283
  0
VERTEX
  8
0
 62
7
  6
CONTINUOUS
 10
138.6262322862
 20
72.6557062915
  0
VERTEX
  8
0
 62
7
  6
CONTINUOUS
 10
138.7431353244
 20
72.7026111898
  0
VERTEX
  8
0
 62
7
  6
CONTINUOUS
 10
138.8533955609
 20
72.7559465445
  0
VERTEX
  8
0
 62
7
  6
CONTINUOUS
 10
138.9560406068
 20
72.8143535122
  0
VERTEX
  8
0
 62
7
  6
CONTINUOUS
 10
139.050820781
 20
72.8766666624
  0
VERTEX
  8
0
 62
7
  6
CONTINUOUS
 10
139.1381019859
 20
72.9421071586
  0
VERTEX
  8
0
 62
7
  6
CONTINUOUS
 10
139.2183038253
 20
73.0100436139
  0
VERTEX
  8
0
 62
7
  6
CONTINUOUS
 10
139.2918561078
 20
73.0799663916
  0
VERTEX
  8
0
 62
7
  6
CONTINUOUS
 10
139.359127271
 20
73.1514107759
  0
VERTEX
  8
0
 62
7
  6
CONTINUOUS
 10
139.4203208452
 20
73.2237930188
  0
VERTEX
  8
0
 62
7
  6
CONTINUOUS
 10
139.4756509746
 20
73.2965421535
  0
VERTEX
  8
0
 62
7
  6
CONTINUOUS
 10
139.5253688673
 20
73.3691318355
  0
VERTEX
  8
0
 62
7
  6
CONTINUOUS
 10
139.569767215
 20
73.4411003842
  0
VERTEX
  8
0
 62
7
  6
CONTINUOUS
 10
139.6090780675
 20
73.5118798193
  0
VERTEX
  8
0
 62
7
  6
CONTINUOUS
 10
139.6435720675
 20
73.580929972
  0
VERTEX
  8
0
 62
7
  6
CONTINUOUS
 10
139.6735617198
 20
73.6477630137
  0
VERTEX
  8
0
 62
7
  6
CONTINUOUS
 10
139.6993511934
 20
73.7118430968
  0
VERTEX
  8
0
 62
7
  6
CONTINUOUS
 10
139.7211071502
 20
73.7721785582
  0
VERTEX
  8
0
 62
7
  6
CONTINUOUS
 10
139.7390598492
 20
73.827726743
  0
VERTEX
  8
0
 62
7
  6
CONTINUOUS
 10
139.7535975391
 20
73.877799137
  0
VERTEX
  8
0
 62
7
  6
CONTINUOUS
 10
139.7653145168
 20
73.9225606166
  0
VERTEX
  8
0
 62
7
  6
CONTINUOUS
 10
139.774928515
 20
73.9631613556
  0
VERTEX
  8
0
 62
7
  6
CONTINUOUS
 10
139.7829734956
 20
74.0006516782
  0
VERTEX
  8
0
 62
7
  6
CONTINUOUS
 10
139.7898140034
 20
74.0358171314
  0
VERTEX
  8
0
 62
7
  6
CONTINUOUS
 10
139.7956256439
 20
74.0687815278
  0
VERTEX
  8
0
 62
7
  6
CONTINUOUS
 10
139.8005291941
 20
74.0994500244
  0
VERTEX
  8
0
 62
7
  6
CONTINUOUS
 10
139.8046595261
 20
74.1278804881
  0
VERTEX
  8
0
 62
7
  6
CONTINUOUS
 10
139.8081560343
 20
74.1542941836
  0
VERTEX
  8
0
 62
7
  6
CONTINUOUS
 10
139.8111476348
 20
74.1790143279
  0
VERTEX
  8
0
 62
7
  6
CONTINUOUS
 10
139.8137394507
 20
74.2023573969
  0
VERTEX
  8
0
 62
7
  6
CONTINUOUS
 10
139.8160175574
 20
74.224639172
  0
VERTEX
  8
0
 62
7
  6
CONTINUOUS
 10
139.8180528373
 20
74.2461809111
  0
VERTEX
  8
0
 62
7
  6
CONTINUOUS
 10
139.8198998387
 20
74.2672649687
  0
VERTEX
  8
0
 62
7
  6
CONTINUOUS
 10
139.8216002286
 20
74.288134151
  0
VERTEX
  8
0
 62
7
  6
CONTINUOUS
 10
139.8231857787
 20
74.3089947007
  0
VERTEX
  8
0
 62
7
  6
CONTINUOUS
 10
139.8246810516
 20
74.3300249742
  0
VERTEX
  8
0
 62
7
  6
CONTINUOUS
 10
139.8261068729
 20
74.3514067947
  0
VERTEX
  8
0
 62
7
  6
CONTINUOUS
 10
139.8288201123
 20
74.3960052826
  0
SEQEND
  0
POLYLINE
  8
0
 62
7
  6
CONTINUOUS
 66
1
 70
0
  0
VERTEX
  8
0
 62
7
  6
CONTINUOUS
 10
238.2744167501
 20
72.5486044853
  0
VERTEX
  8
0
 62
7
  6
CONTINUOUS
 10
238.377102907
 20
72.5515342402
  0
VERTEX
  8
0
 62
7
  6
CONTINUOUS
 10
238.5071221777
 20
72.5637014817
  0
VERTEX
  8
0
 62
7
  6
CONTINUOUS
 10
238.6362242131
 20
72.5853205903
  0
VERTEX
  8
0
 62
7
  6
CONTINUOUS
 10
238.7628036869
 20
72.6160870176
  0
VERTEX
  8
0
 62
7
  6
CONTINUOUS
 10
238.8853391976
 20
72.6553839995
  0
VERTEX
  8
0
 62
7
  6
CONTINUOUS
 10
239.0024390652
 20
72.7023033239
  0
VERTEX
  8
0
 62
7
  6
CONTINUOUS
 10
239.1128855687
 20
72.75567819
  0
VERTEX
  8
0
 62
7
  6
CONTINUOUS
 10
239.2156907543
 20
72.814139019
  0
VERTEX
  8
0
 62
7
  6
CONTINUOUS
 10
239.3106043124
 20
72.8765144003
  0
VERTEX
  8
0
 62
7
  6
CONTINUOUS
 10
239.3979972982
 20
72.9420236081
  0
VERTEX
  8
0
 62
7
  6
CONTINUOUS
 10
239.4782938426
 20
73.0100346471
  0
VERTEX
  8
0
 62
7
  6
CONTINUOUS
 10
239.5519277832
 20
73.0800384842
  0
VERTEX
  8
0
 62
7
  6
CONTINUOUS
 10
239.619268205
 20
73.1515688799
  0
VERTEX
  8
0
 62
7
  6
CONTINUOUS
 10
239.6805172143
 20
73.2240381168
  0
VERTEX
  8
0
 62
7
  6
CONTINUOUS
 10
239.7358888197
 20
73.2968719641
  0
VERTEX
  8
0
 62
7
  6
CONTINUOUS
 10
239.7856347042
 20
73.3695411249
  0
VERTEX
  8
0
 62
7
  6
CONTINUOUS
 10
239.8300484624
 20
73.4415812675
  0
VERTEX
  8
0
 62
7
  6
CONTINUOUS
 10
239.86936476
 20
73.5124245983
  0
VERTEX
  8
0
 62
7
  6
CONTINUOUS
 10
239.9038579189
 20
73.5815343337
  0
VERTEX
  8
0
 62
7
  6
CONTINUOUS
 10
239.9338428373
 20
73.6484252997
  0
VERTEX
  8
0
 62
7
  6
CONTINUOUS
 10
239.9596224464
 20
73.7125562924
  0
VERTEX
  8
0
 62
7
  6
CONTINUOUS
 10
239.9813563246
 20
73.7729100542
  0
VERTEX
  8
0
 62
7
  6
CONTINUOUS
 10
239.9992745508
 20
73.8284295133
  0
VERTEX
  8
0
 62
7
  6
CONTINUOUS
 10
240.0137686725
 20
73.8784216241
  0
VERTEX
  8
0
 62
7
  6
CONTINUOUS
 10
240.0254472406
 20
73.9230949369
  0
VERTEX
  8
0
 62
7
  6
CONTINUOUS
 10
240.0350334574
 20
73.9636277417
  0
VERTEX
  8
0
 62
7
  6
CONTINUOUS
 10
240.0430610774
 20
74.0010809685
  0
VERTEX
  8
0
 62
7
  6
CONTINUOUS
 10
240.0498916536
 20
74.0362370848
  0
VERTEX
  8
0
 62
7
  6
CONTINUOUS
 10
240.05569456
 20
74.0691927594
  0
VERTEX
  8
0
 62
7
  6
CONTINUOUS
 10
240.0605897411
 20
74.0998481071
  0
VERTEX
  8
0
 62
7
  6
CONTINUOUS
 10
240.0647119835
 20
74.1282595568
  0
VERTEX
  8
0
 62
7
  6
CONTINUOUS
 10
240.0682013133
 20
74.1546526522
  0
VERTEX
  8
0
 62
7
  6
CONTINUOUS
 10
240.0711868124
 20
74.179352958
  0
VERTEX
  8
0
 62
7
  6
CONTINUOUS
 10
240.073773562
 20
74.2026781262
  0
VERTEX
  8
0
 62
7
  6
CONTINUOUS
 10
240.0760476466
 20
74.2249458096
  0
VERTEX
  8
0
 62
7
  6
CONTINUOUS
 10
240.0780797578
 20
74.2464772453
  0
VERTEX
  8
0
 62
7
  6
CONTINUOUS
 10
240.0799242406
 20
74.2675541734
  0
VERTEX
  8
0
 62
7
  6
CONTINUOUS
 10
240.0816226043
 20
74.2884188122
  0
VERTEX
  8
0
 62
7
  6
CONTINUOUS
 10
240.0832064969
 20
74.3092768209
  0
VERTEX
  8
0
 62
7
  6
CONTINUOUS
 10
240.0847003914
 20
74.3303061008
  0
VERTEX
  8
0
 62
7
  6
CONTINUOUS
 10
240.0874991147
 20
74.3736251613
  0
SEQEND
  0
POLYLINE
  8
0
 62
7
  6
CONTINUOUS
 66
1
 70
0
  0
VERTEX
  8
0
 62
7
  6
CONTINUOUS
 10
171.4344167542
 20
72.5486044853
  0
VERTEX
  8
0
 62
7
  6
CONTINUOUS
 10
171.5368568305
 20
72.5515202039
  0
VERTEX
  8
0
 62
7
  6
CONTINUOUS
 10
171.6672488898
 20
72.5637179966
  0
VERTEX
  8
0
 62
7
  6
CONTINUOUS
 10
171.7966806652
 20
72.585414256
  0
VERTEX
  8
0
 62
7
  6
CONTINUOUS
 10
171.9235444077
 20
72.6162958666
  0
VERTEX
  8
0
 62
7
  6
CONTINUOUS
 10
172.0463176383
 20
72.6557371207
  0
VERTEX
  8
0
 62
7
  6
CONTINUOUS
 10
172.1636090244
 20
72.7028208483
  0
VERTEX
  8
0
 62
7
  6
CONTINUOUS
 10
172.2742026026
 20
72.7563716324
  0
VERTEX
  8
0
 62
7
  6
CONTINUOUS
 10
172.3771156266
 20
72.8150132936
  0
VERTEX
  8
0
 62
7
  6
CONTINUOUS
 10
172.4721125583
 20
72.8775762853
  0
VERTEX
  8
0
 62
7
  6
CONTINUOUS
 10
172.55956689
 20
72.9432776511
  0
VERTEX
  8
0
 62
7
  6
CONTINUOUS
 10
172.639903327
 20
73.0114823971
  0
VERTEX
  8
0
 62
7
  6
CONTINUOUS
 10
172.7135563885
 20
73.081678715
  0
VERTEX
  8
0
 62
7
  6
CONTINUOUS
 10
172.780893233
 20
73.1533945627
  0
VERTEX
  8
0
 62
7
  6
CONTINUOUS
 10
172.8421181922
 20
73.2260396242
  0
VERTEX
  8
0
 62
7
  6
CONTINUOUS
 10
172.8974500367
 20
73.2990407218
  0
VERTEX
  8
0
 62
7
  6
CONTINUOUS
 10
172.947144901
 20
73.3718708538
  0
VERTEX
  8
0
 62
7
  6
CONTINUOUS
 10
172.9914957347
 20
73.4440612278
  0
VERTEX
  8
0
 62
7
  6
CONTINUOUS
 10
173.0307318141
 20
73.5150284965
  0
VERTEX
  8
0
 62
7
  6
CONTINUOUS
 10
173.0651264266
 20
73.5842232535
  0
VERTEX
  8
0
 62
7
  6
CONTINUOUS
 10
173.094994841
 20
73.6511469573
  0
VERTEX
  8
0
 62
7
  6
CONTINUOUS
 10
173.120640743
 20
73.7152417238
  0
VERTEX
  8
0
 62
7
  6
CONTINUOUS
 10
173.142238591
 20
73.7755082884
  0
VERTEX
  8
0
 62
7
  6
CONTINUOUS
 10
173.1600409291
 20
73.8309462984
  0
VERTEX
  8
0
 62
7
  6
CONTINUOUS
 10
173.1744514572
 20
73.8809137101
  0
VERTEX
  8
0
 62
7
  6
CONTINUOUS
 10
173.1860715898
 20
73.9256175226
  0
VERTEX
  8
0
 62
7
  6
CONTINUOUS
 10
173.1955922136
 20
73.966120285
  0
VERTEX
  8
0
 62
7
  6
CONTINUOUS
 10
173.2035307062
 20
74.003391456
  0
VERTEX
  8
0
 62
7
  6
CONTINUOUS
 10
173.2102447488
 20
74.0381531813
  0
VERTEX
  8
0
 62
7
  6
CONTINUOUS
 10
173.2159126748
 20
74.0704977132
  0
VERTEX
  8
0
 62
7
  6
CONTINUOUS
 10
173.2206761486
 20
74.1004171055
  0
VERTEX
  8
0
 62
7
  6
CONTINUOUS
 10
173.2246818712
 20
74.1280418991
  0
VERTEX
  8
0
 62
7
  6
CONTINUOUS
 10
173.2280650049
 20
74.1535748742
  0
VERTEX
  8
0
 62
7
  6
CONTINUOUS
 10
173.2309534478
 20
74.1773419133
  0
VERTEX
  8
0
 62
7
  6
CONTINUOUS
 10
173.2334594199
 20
74.199738391
  0
VERTEX
  8
0
 62
7
  6
CONTINUOUS
 10
173.2356681766
 20
74.2211032627
  0
VERTEX
  8
0
 62
7
  6
CONTINUOUS
 10
173.2376445902
 20
74.2417248919
  0
VERTEX
  8
0
 62
7
  6
CONTINUOUS
 10
173.2394384259
 20
74.2618503013
  0
VERTEX
  8
0
 62
7
  6
CONTINUOUS
 10
173.2410879287
 20
74.2816897931
  0
VERTEX
  8
0
 62
7
  6
CONTINUOUS
 10
173.2426226855
 20
74.3014230372
  0
VERTEX
  8
0
 62
7
  6
CONTINUOUS
 10
173.2440658098
 20
74.3212051311
  0
VERTEX
  8
0
 62
7
  6
CONTINUOUS
 10
173.2467454313
 20
74.3614278834
  0
SEQEND
  0
POLYLINE
  8
0
 62
7
  6
CONTINUOUS
 66
1
 70
0
  0
VERTEX
  8
0
 62
7
  6
CONTINUOUS
 10
204.8544167519
 20
72.5486044853
  0
VERTEX
  8
0
 62
7
  6
CONTINUOUS
 10
204.9531444464
 20
72.5513125481
  0
VERTEX
  8
0
 62
7
  6
CONTINUOUS
 10
205.0831608196
 20
72.5631897826
  0
VERTEX
  8
0
 62
7
  6
CONTINUOUS
 10
205.2123051067
 20
72.5845214324
  0
VERTEX
  8
0
 62
7
  6
CONTINUOUS
 10
205.3389687361
 20
72.6150111941
  0
VERTEX
  8
0
 62
7
  6
CONTINUOUS
 10
205.4616258315
 20
72.6540496399
  0
VERTEX
  8
0
 62
7
  6
CONTINUOUS
 10
205.5788792157
 20
72.7007347456
  0
VERTEX
  8
0
 62
7
  6
CONTINUOUS
 10
205.6895048961
 20
72.753904554
  0
VERTEX
  8
0
 62
7
  6
CONTINUOUS
 10
205.792506599
 20
72.8121918442
  0
VERTEX
  8
0
 62
7
  6
CONTINUOUS
 10
205.8876194182
 20
72.8744196676
  0
VERTEX
  8
0
 62
7
  6
CONTINUOUS
 10
205.9752107795
 20
72.9398043311
  0
VERTEX
  8
0
 62
7
  6
CONTINUOUS
 10
206.0557033778
 20
73.0077118158
  0
VERTEX
  8
0
 62
7
  6
CONTINUOUS
 10
206.1295300188
 20
73.077631234
  0
VERTEX
  8
0
 62
7
  6
CONTINUOUS
 10
206.1970616501
 20
73.1490978124
  0
VERTEX
  8
0
 62
7
  6
CONTINUOUS
 10
206.2585004385
 20
73.2215250538
  0
VERTEX
  8
0
 62
7
  6
CONTINUOUS
 10
206.3140583414
 20
73.2943377527
  0
VERTEX
  8
0
 62
7
  6
CONTINUOUS
 10
206.3639849951
 20
73.367005103
  0
VERTEX
  8
0
 62
7
  6
CONTINUOUS
 10
206.4085735952
 20
73.4390632884
  0
VERTEX
  8
0
 62
7
  6
CONTINUOUS
 10
206.4480591006
 20
73.5099471933
  0
VERTEX
  8
0
 62
7
  6
CONTINUOUS
 10
206.4827140446
 20
73.5791193544
  0
VERTEX
  8
0
 62
7
  6
CONTINUOUS
 10
206.5128522438
 20
73.6460947906
  0
VERTEX
  8
0
 62
7
  6
CONTINUOUS
 10
206.5387782818
 20
73.7103397045
  0
VERTEX
  8
0
 62
7
  6
CONTINUOUS
 10
206.560653323
 20
73.770848857
  0
VERTEX
  8
0
 62
7
  6
CONTINUOUS
 10
206.5787010154
 20
73.8265544247
  0
VERTEX
  8
0
 62
7
  6
CONTINUOUS
 10
206.5933076157
 20
73.8767464851
  0
VERTEX
  8
0
 62
7
  6
CONTINUOUS
 10
206.6050719997
 20
73.9215860169
  0
VERTEX
  8
0
 62
7
  6
CONTINUOUS
 10
206.6147209961
 20
73.9622407094
  0
VERTEX
  8
0
 62
7
  6
CONTINUOUS
 10
206.6227949121
 20
73.9997778762
  0
VERTEX
  8
0
 62
7
  6
CONTINUOUS
 10
206.6296620018
 20
74.0349965401
  0
VERTEX
  8
0
 62
7
  6
CONTINUOUS
 10
206.6354991615
 20
74.0680281444
  0
VERTEX
  8
0
 62
7
  6
CONTINUOUS
 10
206.6404266701
 20
74.0987771266
  0
VERTEX
  8
0
 62
7
  6
CONTINUOUS
 10
206.6445789347
 20
74.1272990678
  0
VERTEX
  8
0
 62
7
  6
CONTINUOUS
 10
206.6480934892
 20
74.1537997607
  0
VERTEX
  8
0
 62
7
  6
CONTINUOUS
 10
206.6510959392
 20
74.1785681246
  0
VERTEX
  8
0
 62
7
  6
CONTINUOUS
 10
206.6536903065
 20
74.2018959739
  0
VERTEX
  8
0
 62
7
  6
CONTINUOUS
 10
206.6559631514
 20
74.2240855829
  0
VERTEX
  8
0
 62
7
  6
CONTINUOUS
 10
206.6579867905
 20
74.2454552066
  0
VERTEX
  8
0
 62
7
  6
CONTINUOUS
 10
206.6598167373
 20
74.2662822415
  0
VERTEX
  8
0
 62
7
  6
CONTINUOUS
 10
206.6614951777
 20
74.2868013029
  0
VERTEX
  8
0
 62
7
  6
CONTINUOUS
 10
206.6630540953
 20
74.3072074583
  0
VERTEX
  8
0
 62
7
  6
CONTINUOUS
 10
206.6659057148
 20
74.3483080778
  0
SEQEND
  0
LINE
  8
0
 62
7
  6
CONTINUOUS
 10
71.024416883
 20
72.5486043509
 11
58.4054854315
 21
72.5486043509
  0
LINE
  8
0
 62
7
  6
CONTINUOUS
 10
92.04655398
 20
72.5486043509
 11
104.5944167887
 21
72.5486043509
  0
LINE
  8
0
 62
7
  6
CONTINUOUS
 10
125.4665539497
 20
72.5486043509
 11
138.0144169133
 21
72.5486043509
  0
LINE
  8
0
 62
7
  6
CONTINUOUS
 10
158.8865540742
 20
72.5486043509
 11
171.434416883
 21
72.5486043509
  0
LINE
  8
0
 62
7
  6
CONTINUOUS
 10
192.30655398
 20
72.5486043509
 11
204.8544167887
 21
72.5486043509
  0
LINE
  8
0
 62
7
  6
CONTINUOUS
 10
225.7265539497
 20
72.5486043509
 11
238.2744169132
 21
72.5486043509
  0
POLYLINE
  8
0
 62
7
  6
CONTINUOUS
 66
1
 70
0
  0
VERTEX
  8
0
 62
7
  6
CONTINUOUS
 10
195.2114246544
 20
78.4163025
  0
VERTEX
  8
0
 62
7
  6
CONTINUOUS
 10
195.1906433743
 20
78.4149665555
  0
VERTEX
  8
0
 62
7
  6
CONTINUOUS
 10
195.1695901456
 20
78.4138501088
  0
SEQEND
  0
POLYLINE
  8
0
 62
7
  6
CONTINUOUS
 66
1
 70
0
  0
VERTEX
  8
0
 62
7
  6
CONTINUOUS
 10
195.1695901456
 20
78.4138501088
  0
VERTEX
  8
0
 62
7
  6
CONTINUOUS
 10
195.1140777297
 20
78.4113883169
  0
VERTEX
  8
0
 62
7
  6
CONTINUOUS
 10
195.0585466444
 20
78.4105681627
  0
SEQEND
  0
POLYLINE
  8
0
 62
7
  6
CONTINUOUS
 66
1
 70
0
  0
VERTEX
  8
0
 62
7
  6
CONTINUOUS
 10
71.024416746
 20
72.5486044853
  0
VERTEX
  8
0
 62
7
  6
CONTINUOUS
 10
71.1268561836
 20
72.5515201673
  0
VERTEX
  8
0
 62
7
  6
CONTINUOUS
 10
71.2572485607
 20
72.5637179543
  0
VERTEX
  8
0
 62
7
  6
CONTINUOUS
 10
71.3866813892
 20
72.5854144055
  0
VERTEX
  8
0
 62
7
  6
CONTINUOUS
 10
71.5135466796
 20
72.6162965089
  0
VERTEX
  8
0
 62
7
  6
CONTINUOUS
 10
71.6363217084
 20
72.6557385925
  0
VERTEX
  8
0
 62
7
  6
CONTINUOUS
 10
71.7536149086
 20
72.7028234554
  0
VERTEX
  8
0
 62
7
  6
CONTINUOUS
 10
71.8642101031
 20
72.7563755877
  0
VERTEX
  8
0
 62
7
  6
CONTINUOUS
 10
71.9671243803
 20
72.8150186729
  0
VERTEX
  8
0
 62
7
  6
CONTINUOUS
 10
72.0621222249
 20
72.8775831013
  0
VERTEX
  8
0
 62
7
  6
CONTINUOUS
 10
72.1495771999
 20
72.9432859008
  0
VERTEX
  8
0
 62
7
  6
CONTINUOUS
 10
72.2299140706
 20
73.0114920762
  0
VERTEX
  8
0
 62
7
  6
CONTINUOUS
 10
72.3035674085
 20
73.0816898316
  0
VERTEX
  8
0
 62
7
  6
CONTINUOUS
 10
72.3709043783
 20
73.1534071052
  0
VERTEX
  8
0
 62
7
  6
CONTINUOUS
 10
72.432129297
 20
73.2260535315
  0
VERTEX
  8
0
 62
7
  6
CONTINUOUS
 10
72.4874609379
 20
73.2990558928
  0
VERTEX
  8
0
 62
7
  6
CONTINUOUS
 10
72.5371554463
 20
73.3718871532
  0
VERTEX
  8
0
 62
7
  6
CONTINUOUS
 10
72.5815057837
 20
73.4440784824
  0
VERTEX
  8
0
 62
7
  6
CONTINUOUS
 10
72.620741254
 20
73.5150465161
  0
VERTEX
  8
0
 62
7
  6
CONTINUOUS
 10
72.6551351889
 20
73.5842418693
  0
VERTEX
  8
0
 62
7
  6
CONTINUOUS
 10
72.6850028882
 20
73.6511660133
  0
VERTEX
  8
0
 62
7
  6
CONTINUOUS
 10
72.7106480827
 20
73.7152611252
  0
VERTEX
  8
0
 62
7
  6
CONTINUOUS
 10
72.7322451319
 20
73.7755275962
  0
VERTEX
  8
0
 62
7
  6
CONTINUOUS
 10
72.750046557
 20
73.8309648248
  0
VERTEX
  8
0
 62
7
  6
CONTINUOUS
 10
72.7644561235
 20
73.8809307847
  0
VERTEX
  8
0
 62
7
  6
CONTINUOUS
 10
72.7760754001
 20
73.9256329605
  0
VERTEX
  8
0
 62
7
  6
CONTINUOUS
 10
72.7855953212
 20
73.9661341902
  0
VERTEX
  8
0
 62
7
  6
CONTINUOUS
 10
72.7935332609
 20
74.0034040642
  0
VERTEX
  8
0
 62
7
  6
CONTINUOUS
 10
72.8002468658
 20
74.0381647032
  0
VERTEX
  8
0
 62
7
  6
CONTINUOUS
 10
72.8059144207
 20
74.0705081834
  0
VERTEX
  8
0
 62
7
  6
CONTINUOUS
 10
72.8106775854
 20
74.1004265796
  0
VERTEX
  8
0
 62
7
  6
CONTINUOUS
 10
72.8146830532
 20
74.1280504409
  0
VERTEX
  8
0
 62
7
  6
CONTINUOUS
 10
72.8180660079
 20
74.1535827875
  0
VERTEX
  8
0
 62
7
  6
CONTINUOUS
 10
72.820954314
 20
74.1773493475
  0
VERTEX
  8
0
 62
7
  6
CONTINUOUS
 10
72.8234601736
 20
74.1997454047
  0
VERTEX
  8
0
 62
7
  6
CONTINUOUS
 10
72.8256688381
 20
74.2211099149
  0
VERTEX
  8
0
 62
7
  6
CONTINUOUS
 10
72.827645176
 20
74.2417312383
  0
VERTEX
  8
0
 62
7
  6
CONTINUOUS
 10
72.8294389496
 20
74.2618563925
  0
VERTEX
  8
0
 62
7
  6
CONTINUOUS
 10
72.8310884023
 20
74.2816956863
  0
VERTEX
  8
0
 62
7
  6
CONTINUOUS
 10
72.832623128
 20
74.3014289126
  0
VERTEX
  8
0
 62
7
  6
CONTINUOUS
 10
72.8340662248
 20
74.3212109981
  0
VERTEX
  8
0
 62
7
  6
CONTINUOUS
 10
72.8367458001
 20
74.3614337567
  0
SEQEND
  0
POLYLINE
  8
0
 62
7
  6
CONTINUOUS
 66
1
 70
0
  0
VERTEX
  8
0
 62
7
  6
CONTINUOUS
 10
104.5944167519
 20
72.5486044853
  0
VERTEX
  8
0
 62
7
  6
CONTINUOUS
 10
104.6931444464
 20
72.5513125481
  0
VERTEX
  8
0
 62
7
  6
CONTINUOUS
 10
104.8231608196
 20
72.5631897826
  0
VERTEX
  8
0
 62
7
  6
CONTINUOUS
 10
104.9523051067
 20
72.5845214324
  0
VERTEX
  8
0
 62
7
  6
CONTINUOUS
 10
105.0789687361
 20
72.6150111941
  0
VERTEX
  8
0
 62
7
  6
CONTINUOUS
 10
105.2016258315
 20
72.6540496399
  0
VERTEX
  8
0
 62
7
  6
CONTINUOUS
 10
105.3188792157
 20
72.7007347456
  0
VERTEX
  8
0
 62
7
  6
CONTINUOUS
 10
105.4295048961
 20
72.753904554
  0
VERTEX
  8
0
 62
7
  6
CONTINUOUS
 10
105.532506599
 20
72.8121918442
  0
VERTEX
  8
0
 62
7
  6
CONTINUOUS
 10
105.6276194182
 20
72.8744196676
  0
VERTEX
  8
0
 62
7
  6
CONTINUOUS
 10
105.7152107795
 20
72.9398043311
  0
VERTEX
  8
0
 62
7
  6
CONTINUOUS
 10
105.7957033778
 20
73.0077118158
  0
VERTEX
  8
0
 62
7
  6
CONTINUOUS
 10
105.8695300188
 20
73.077631234
  0
VERTEX
  8
0
 62
7
  6
CONTINUOUS
 10
105.9370616501
 20
73.1490978124
  0
VERTEX
  8
0
 62
7
  6
CONTINUOUS
 10
105.9985004385
 20
73.2215250538
  0
VERTEX
  8
0
 62
7
  6
CONTINUOUS
 10
106.0540583414
 20
73.2943377527
  0
VERTEX
  8
0
 62
7
  6
CONTINUOUS
 10
106.1039849951
 20
73.367005103
  0
VERTEX
  8
0
 62
7
  6
CONTINUOUS
 10
106.1485735952
 20
73.4390632884
  0
VERTEX
  8
0
 62
7
  6
CONTINUOUS
 10
106.1880591006
 20
73.5099471933
  0
VERTEX
  8
0
 62
7
  6
CONTINUOUS
 10
106.2227140446
 20
73.5791193544
  0
VERTEX
  8
0
 62
7
  6
CONTINUOUS
 10
106.2528522438
 20
73.6460947906
  0
VERTEX
  8
0
 62
7
  6
CONTINUOUS
 10
106.2787782818
 20
73.7103397045
  0
VERTEX
  8
0
 62
7
  6
CONTINUOUS
 10
106.300653323
 20
73.770848857
  0
VERTEX
  8
0
 62
7
  6
CONTINUOUS
 10
106.3187010154
 20
73.8265544247
  0
VERTEX
  8
0
 62
7
  6
CONTINUOUS
 10
106.3333076157
 20
73.8767464852
  0
VERTEX
  8
0
 62
7
  6
CONTINUOUS
 10
106.3450719997
 20
73.9215860169
  0
VERTEX
  8
0
 62
7
  6
CONTINUOUS
 10
106.3547209961
 20
73.9622407094
  0
VERTEX
  8
0
 62
7
  6
CONTINUOUS
 10
106.3627949121
 20
73.9997778762
  0
VERTEX
  8
0
 62
7
  6
CONTINUOUS
 10
106.3696620018
 20
74.0349965401
  0
VERTEX
  8
0
 62
7
  6
CONTINUOUS
 10
106.3754991615
 20
74.0680281444
  0
VERTEX
  8
0
 62
7
  6
CONTINUOUS
 10
106.3804266701
 20
74.0987771266
  0
VERTEX
  8
0
 62
7
  6
CONTINUOUS
 10
106.3845789347
 20
74.1272990678
  0
VERTEX
  8
0
 62
7
  6
CONTINUOUS
 10
106.3880934892
 20
74.1537997607
  0
VERTEX
  8
0
 62
7
  6
CONTINUOUS
 10
106.3910959392
 20
74.1785681246
  0
VERTEX
  8
0
 62
7
  6
CONTINUOUS
 10
106.3936903065
 20
74.2018959739
  0
VERTEX
  8
0
 62
7
  6
CONTINUOUS
 10
106.3959631514
 20
74.2240855829
  0
VERTEX
  8
0
 62
7
  6
CONTINUOUS
 10
106.3979867905
 20
74.2454552066
  0
VERTEX
  8
0
 62
7
  6
CONTINUOUS
 10
106.3998167373
 20
74.2662822415
  0
VERTEX
  8
0
 62
7
  6
CONTINUOUS
 10
106.4014951777
 20
74.2868013029
  0
VERTEX
  8
0
 62
7
  6
CONTINUOUS
 10
106.4030540953
 20
74.3072074583
  0
VERTEX
  8
0
 62
7
  6
CONTINUOUS
 10
106.4059057148
 20
74.3483080778
  0
SEQEND
  0
LINE
  8
0
 62
7
  6
CONTINUOUS
 10
68.4224242186
 20
78.4105681627
 11
71.1554854315
 21
78.4105681627
  0
LINE
  8
0
 62
7
  6
CONTINUOUS
 10
91.9154854315
 20
78.4105681627
 11
94.7985466444
 21
78.4105681627
  0
LINE
  8
0
 62
7
  6
CONTINUOUS
 10
168.6824242186
 20
78.4105681627
 11
171.5654854315
 21
78.4105681627
  0
LINE
  8
0
 62
7
  6
CONTINUOUS
 10
192.1754854315
 20
78.4105681627
 11
195.0585466444
 21
78.4105681627
  0
POLYLINE
  8
0
 62
7
  6
CONTINUOUS
 66
1
 70
0
  0
VERTEX
  8
0
 62
7
  6
CONTINUOUS
 10
68.4224242186
 20
78.4105681627
  0
VERTEX
  8
0
 62
7
  6
CONTINUOUS
 10
68.3668931367
 20
78.4113883168
  0
VERTEX
  8
0
 62
7
  6
CONTINUOUS
 10
68.3113807169
 20
78.4138501086
  0
SEQEND
  0
POLYLINE
  8
0
 62
7
  6
CONTINUOUS
 66
1
 70
0
  0
VERTEX
  8
0
 62
7
  6
CONTINUOUS
 10
168.6824242186
 20
78.4105681627
  0
VERTEX
  8
0
 62
7
  6
CONTINUOUS
 10
168.6268931328
 20
78.4113883169
  0
VERTEX
  8
0
 62
7
  6
CONTINUOUS
 10
168.5713806257
 20
78.4138501125
  0
SEQEND
  0
POLYLINE
  8
0
 62
7
  6
CONTINUOUS
 66
1
 70
0
  0
VERTEX
  8
0
 62
7
  6
CONTINUOUS
 10
91.9154854315
 20
78.4105681627
  0
VERTEX
  8
0
 62
7
  6
CONTINUOUS
 10
91.8247024992
 20
78.4142233432
  0
VERTEX
  8
0
 62
7
  6
CONTINUOUS
 10
91.7337088767
 20
78.4252510427
  0
VERTEX
  8
0
 62
7
  6
CONTINUOUS
 10
91.6423055563
 20
78.4438374925
  0
VERTEX
  8
0
 62
7
  6
CONTINUOUS
 10
91.5503208615
 20
78.4702909789
  0
VERTEX
  8
0
 62
7
  6
CONTINUOUS
 10
91.4576066677
 20
78.5050454494
  0
VERTEX
  8
0
 62
7
  6
CONTINUOUS
 10
91.3640678022
 20
78.5486552274
  0
VERTEX
  8
0
 62
7
  6
CONTINUOUS
 10
91.2696783942
 20
78.6017880149
  0
VERTEX
  8
0
 62
7
  6
CONTINUOUS
 10
91.1744821998
 20
78.665226364
  0
VERTEX
  8
0
 62
7
  6
CONTINUOUS
 10
91.0786312912
 20
78.7398446979
  0
VERTEX
  8
0
 62
7
  6
CONTINUOUS
 10
90.9823980184
 20
78.8265935055
  0
VERTEX
  8
0
 62
7
  6
CONTINUOUS
 10
90.8862028343
 20
78.926463974
  0
VERTEX
  8
0
 62
7
  6
CONTINUOUS
 10
90.7906279407
 20
79.0404529528
  0
VERTEX
  8
0
 62
7
  6
CONTINUOUS
 10
90.6964494692
 20
79.1694904337
  0
VERTEX
  8
0
 62
7
  6
CONTINUOUS
 10
90.6046383277
 20
79.3143787259
  0
VERTEX
  8
0
 62
7
  6
CONTINUOUS
 10
90.5163673033
 20
79.4756990231
  0
VERTEX
  8
0
 62
7
  6
CONTINUOUS
 10
90.4329973928
 20
79.6537130808
  0
VERTEX
  8
0
 62
7
  6
CONTINUOUS
 10
90.3560432361
 20
79.8482659842
  0
VERTEX
  8
0
 62
7
  6
CONTINUOUS
 10
90.287127112
 20
80.058665669
  0
VERTEX
  8
0
 62
7
  6
CONTINUOUS
 10
90.2278876963
 20
80.2836374345
  0
VERTEX
  8
0
 62
7
  6
CONTINUOUS
 10
90.1798835608
 20
80.5212960992
  0
VERTEX
  8
0
 62
7
  6
CONTINUOUS
 10
90.1444926676
 20
80.7691245487
  0
VERTEX
  8
0
 62
7
  6
CONTINUOUS
 10
90.1227965742
 20
81.0240641526
  0
VERTEX
  8
0
 62
7
  6
CONTINUOUS
 10
90.1154854315
 20
81.2826643882
  0
SEQEND
  0
POLYLINE
  8
0
 62
7
  6
CONTINUOUS
 66
1
 70
0
  0
VERTEX
  8
0
 62
7
  6
CONTINUOUS
 10
192.1754854315
 20
78.4105681627
  0
VERTEX
  8
0
 62
7
  6
CONTINUOUS
 10
192.0847024992
 20
78.4142233432
  0
VERTEX
  8
0
 62
7
  6
CONTINUOUS
 10
191.9937088767
 20
78.4252510427
  0
VERTEX
  8
0
 62
7
  6
CONTINUOUS
 10
191.9023055563
 20
78.4438374925
  0
VERTEX
  8
0
 62
7
  6
CONTINUOUS
 10
191.8103208615
 20
78.4702909789
  0
VERTEX
  8
0
 62
7
  6
CONTINUOUS
 10
191.7176066677
 20
78.5050454494
  0
VERTEX
  8
0
 62
7
  6
CONTINUOUS
 10
191.6240678022
 20
78.5486552274
  0
VERTEX
  8
0
 62
7
  6
CONTINUOUS
 10
191.5296783942
 20
78.6017880149
  0
VERTEX
  8
0
 62
7
  6
CONTINUOUS
 10
191.4344821998
 20
78.665226364
  0
VERTEX
  8
0
 62
7
  6
CONTINUOUS
 10
191.3386312912
 20
78.7398446979
  0
VERTEX
  8
0
 62
7
  6
CONTINUOUS
 10
191.2423980184
 20
78.8265935055
  0
VERTEX
  8
0
 62
7
  6
CONTINUOUS
 10
191.1462028343
 20
78.926463974
  0
VERTEX
  8
0
 62
7
  6
CONTINUOUS
 10
191.0506279407
 20
79.0404529528
  0
VERTEX
  8
0
 62
7
  6
CONTINUOUS
 10
190.9564494692
 20
79.1694904337
  0
VERTEX
  8
0
 62
7
  6
CONTINUOUS
 10
190.8646383277
 20
79.3143787259
  0
VERTEX
  8
0
 62
7
  6
CONTINUOUS
 10
190.7763673033
 20
79.4756990231
  0
VERTEX
  8
0
 62
7
  6
CONTINUOUS
 10
190.6929973928
 20
79.6537130808
  0
VERTEX
  8
0
 62
7
  6
CONTINUOUS
 10
190.6160432361
 20
79.8482659842
  0
VERTEX
  8
0
 62
7
  6
CONTINUOUS
 10
190.547127112
 20
80.058665669
  0
VERTEX
  8
0
 62
7
  6
CONTINUOUS
 10
190.4878876963
 20
80.2836374345
  0
VERTEX
  8
0
 62
7
  6
CONTINUOUS
 10
190.4398835608
 20
80.5212960992
  0
VERTEX
  8
0
 62
7
  6
CONTINUOUS
 10
190.4044926676
 20
80.7691245487
  0
VERTEX
  8
0
 62
7
  6
CONTINUOUS
 10
190.3827965742
 20
81.0240641526
  0
VERTEX
  8
0
 62
7
  6
CONTINUOUS
 10
190.3754854315
 20
81.2826643882
  0
SEQEND
  0
POLYLINE
  8
0
 62
7
  6
CONTINUOUS
 66
1
 70
0
  0
VERTEX
  8
0
 62
7
  6
CONTINUOUS
 10
68.3113807169
 20
78.4138501086
  0
VERTEX
  8
0
 62
7
  6
CONTINUOUS
 10
68.2903267197
 20
78.4149665912
  0
VERTEX
  8
0
 62
7
  6
CONTINUOUS
 10
68.2695462074
 20
78.4163024998
  0
SEQEND
  0
POLYLINE
  8
0
 62
7
  6
CONTINUOUS
 66
1
 70
0
  0
VERTEX
  8
0
 62
7
  6
CONTINUOUS
 10
168.5713806257
 20
78.4138501125
  0
VERTEX
  8
0
 62
7
  6
CONTINUOUS
 10
168.5503267258
 20
78.4149665901
  0
VERTEX
  8
0
 62
7
  6
CONTINUOUS
 10
168.5295462074
 20
78.4163024995
  0
SEQEND
  0
POLYLINE
  8
0
 62
7
  6
CONTINUOUS
 66
1
 70
0
  0
VERTEX
  8
0
 62
7
  6
CONTINUOUS
 10
90.5388077916
 20
141.0802986591
  0
VERTEX
  8
0
 62
7
  6
CONTINUOUS
 10
90.4422474754
 20
141.2418342783
  0
VERTEX
  8
0
 62
7
  6
CONTINUOUS
 10
90.3476420942
 20
141.4245479408
  0
VERTEX
  8
0
 62
7
  6
CONTINUOUS
 10
90.2606971298
 20
141.618907254
  0
VERTEX
  8
0
 62
7
  6
CONTINUOUS
 10
90.1811924622
 20
141.8249605771
  0
VERTEX
  8
0
 62
7
  6
CONTINUOUS
 10
90.1089950329
 20
142.0429530995
  0
VERTEX
  8
0
 62
7
  6
CONTINUOUS
 10
90.0442321659
 20
142.2726031827
  0
VERTEX
  8
0
 62
7
  6
CONTINUOUS
 10
89.9869561306
 20
142.5139174671
  0
VERTEX
  8
0
 62
7
  6
CONTINUOUS
 10
89.9371904725
 20
142.7671712426
  0
VERTEX
  8
0
 62
7
  6
CONTINUOUS
 10
89.8949977802
 20
143.0326324571
  0
VERTEX
  8
0
 62
7
  6
CONTINUOUS
 10
89.8604487985
 20
143.3106263462
  0
VERTEX
  8
0
 62
7
  6
CONTINUOUS
 10
89.8336014423
 20
143.60165116
  0
VERTEX
  8
0
 62
7
  6
CONTINUOUS
 10
89.8145097251
 20
143.9062660014
  0
VERTEX
  8
0
 62
7
  6
CONTINUOUS
 10
89.8032154986
 20
144.2249135132
  0
VERTEX
  8
0
 62
7
  6
CONTINUOUS
 10
89.7996966894
 20
144.5422349815
  0
SEQEND
  0
POLYLINE
  8
0
 62
7
  6
CONTINUOUS
 66
1
 70
0
  0
VERTEX
  8
0
 62
7
  6
CONTINUOUS
 10
122.8121630714
 20
97.5169100428
  0
VERTEX
  8
0
 62
7
  6
CONTINUOUS
 10
122.9084595626
 20
97.3558478526
  0
VERTEX
  8
0
 62
7
  6
CONTINUOUS
 10
123.0031313343
 20
97.1730709825
  0
VERTEX
  8
0
 62
7
  6
CONTINUOUS
 10
123.0901343293
 20
96.9786368321
  0
VERTEX
  8
0
 62
7
  6
CONTINUOUS
 10
123.1696884828
 20
96.7724994297
  0
VERTEX
  8
0
 62
7
  6
CONTINUOUS
 10
123.2419266773
 20
96.5544162288
  0
VERTEX
  8
0
 62
7
  6
CONTINUOUS
 10
123.3067224049
 20
96.3246683792
  0
VERTEX
  8
0
 62
7
  6
CONTINUOUS
 10
123.3640237389
 20
96.0832496351
  0
VERTEX
  8
0
 62
7
  6
CONTINUOUS
 10
123.4138073201
 20
95.8298856102
  0
VERTEX
  8
0
 62
7
  6
CONTINUOUS
 10
123.4560108813
 20
95.5643086749
  0
VERTEX
  8
0
 62
7
  6
CONTINUOUS
 10
123.4626448828
 20
95.510912217
  0
SEQEND
  0
POLYLINE
  8
0
 62
7
  6
CONTINUOUS
 66
1
 70
0
  0
VERTEX
  8
0
 62
7
  6
CONTINUOUS
 10
123.6565667269
 20
74.3260257589
  0
VERTEX
  8
0
 62
7
  6
CONTINUOUS
 10
123.6581910941
 20
74.303516777
  0
VERTEX
  8
0
 62
7
  6
CONTINUOUS
 10
123.6599259527
 20
74.2811549526
  0
VERTEX
  8
0
 62
7
  6
CONTINUOUS
 10
123.6618074543
 20
74.2586708405
  0
VERTEX
  8
0
 62
7
  6
CONTINUOUS
 10
123.6638810862
 20
74.2357803807
  0
VERTEX
  8
0
 62
7
  6
CONTINUOUS
 10
123.6661991181
 20
74.2122322451
  0
VERTEX
  8
0
 62
7
  6
CONTINUOUS
 10
123.6688276523
 20
74.1877500749
  0
VERTEX
  8
0
 62
7
  6
CONTINUOUS
 10
123.6718498775
 20
74.1620333198
  0
VERTEX
  8
0
 62
7
  6
CONTINUOUS
 10
123.6753674043
 20
74.1347775555
  0
VERTEX
  8
0
 62
7
  6
CONTINUOUS
 10
123.6795027172
 20
74.1056822567
  0
VERTEX
  8
0
 62
7
  6
CONTINUOUS
 10
123.6843970771
 20
74.0744855174
  0
VERTEX
  8
0
 62
7
  6
CONTINUOUS
 10
123.6901918316
 20
74.0410729387
  0
VERTEX
  8
0
 62
7
  6
CONTINUOUS
 10
123.6970154402
 20
74.0054935536
  0
VERTEX
  8
0
 62
7
  6
CONTINUOUS
 10
123.7050360643
 20
73.9676563446
  0
VERTEX
  8
0
 62
7
  6
CONTINUOUS
 10
123.7145819877
 20
73.9269052481
  0
VERTEX
  8
0
 62
7
  6
CONTINUOUS
 10
123.7261352791
 20
73.8823217477
  0
VERTEX
  8
0
 62
7
  6
CONTINUOUS
 10
123.7403169247
 20
73.8329687659
  0
VERTEX
  8
0
 62
7
  6
CONTINUOUS
 10
123.7576783483
 20
73.7786289384
  0
VERTEX
  8
0
 62
7
  6
CONTINUOUS
 10
123.7787302455
 20
73.7194868824
  0
VERTEX
  8
0
 62
7
  6
CONTINUOUS
 10
123.8039440477
 20
73.6559779061
  0
VERTEX
  8
0
 62
7
  6
CONTINUOUS
 10
123.8338016238
 20
73.5885777048
  0
VERTEX
  8
0
 62
7
  6
CONTINUOUS
 10
123.8687742937
 20
73.5178299566
  0
VERTEX
  8
0
 62
7
  6
CONTINUOUS
 10
123.90929638
 20
73.4443681493
  0
VERTEX
  8
0
 62
7
  6
CONTINUOUS
 10
123.9559215832
 20
73.3686401132
  0
VERTEX
  8
0
 62
7
  6
CONTINUOUS
 10
124.0092733618
 20
73.2910828785
  0
VERTEX
  8
0
 62
7
  6
CONTINUOUS
 10
124.0699816852
 20
73.2122455811
  0
VERTEX
  8
0
 62
7
  6
CONTINUOUS
 10
124.1387031496
 20
73.1327630237
  0
VERTEX
  8
0
 62
7
  6
CONTINUOUS
 10
124.2160793338
 20
73.0534105487
  0
VERTEX
  8
0
 62
7
  6
CONTINUOUS
 10
124.3024632285
 20
72.975329136
  0
VERTEX
  8
0
 62
7
  6
CONTINUOUS
 10
124.3975192327
 20
72.9001714304
  0
VERTEX
  8
0
 62
7
  6
CONTINUOUS
 10
124.5005899024
 20
72.8295484481
  0
VERTEX
  8
0
 62
7
  6
CONTINUOUS
 10
124.610765143
 20
72.7649092445
  0
VERTEX
  8
0
 62
7
  6
CONTINUOUS
 10
124.7270398879
 20
72.7074298841
  0
VERTEX
  8
0
 62
7
  6
CONTINUOUS
 10
124.848442737
 20
72.6579934177
  0
VERTEX
  8
0
 62
7
  6
CONTINUOUS
 10
124.9738927779
 20
72.6172969096
  0
VERTEX
  8
0
 62
7
  6
CONTINUOUS
 10
125.1022114954
 20
72.5858423724
  0
VERTEX
  8
0
 62
7
  6
CONTINUOUS
 10
125.2321571616
 20
72.5639227019
  0
VERTEX
  8
0
 62
7
  6
CONTINUOUS
 10
125.3624555316
 20
72.5516154585
  0
VERTEX
  8
0
 62
7
  6
CONTINUOUS
 10
125.466554107
 20
72.5486044853
  0
SEQEND
  0
POLYLINE
  8
0
 62
7
  6
CONTINUOUS
 66
1
 70
0
  0
VERTEX
  8
0
 62
7
  6
CONTINUOUS
 10
123.1166073731
 20
164.2379714284
  0
VERTEX
  8
0
 62
7
  6
CONTINUOUS
 10
123.1150024622
 20
164.2624804544
  0
VERTEX
  8
0
 62
7
  6
CONTINUOUS
 10
123.1133407242
 20
164.286097925
  0
VERTEX
  8
0
 62
7
  6
CONTINUOUS
 10
123.1115997789
 20
164.3090802692
  0
VERTEX
  8
0
 62
7
  6
CONTINUOUS
 10
123.1097466182
 20
164.3317530721
  0
VERTEX
  8
0
 62
7
  6
CONTINUOUS
 10
123.1077380248
 20
164.3544701866
  0
VERTEX
  8
0
 62
7
  6
CONTINUOUS
 10
123.1055187438
 20
164.3776041061
  0
VERTEX
  8
0
 62
7
  6
CONTINUOUS
 10
123.1030252984
 20
164.4014820436
  0
VERTEX
  8
0
 62
7
  6
CONTINUOUS
 10
123.1001769926
 20
164.4264556349
  0
VERTEX
  8
0
 62
7
  6
CONTINUOUS
 10
123.0968694751
 20
164.4529166021
  0
VERTEX
  8
0
 62
7
  6
CONTINUOUS
 10
123.0929709467
 20
164.4812780258
  0
VERTEX
  8
0
 62
7
  6
CONTINUOUS
 10
123.0883180422
 20
164.5119573519
  0
VERTEX
  8
0
 62
7
  6
CONTINUOUS
 10
123.0827119719
 20
164.5453586118
  0
VERTEX
  8
0
 62
7
  6
CONTINUOUS
 10
123.0759872988
 20
164.5814873399
  0
VERTEX
  8
0
 62
7
  6
CONTINUOUS
 10
123.0680633497
 20
164.6198708463
  0
VERTEX
  8
0
 62
7
  6
CONTINUOUS
 10
123.0589368452
 20
164.6598165814
  0
VERTEX
  8
0
 62
7
  6
CONTINUOUS
 10
123.0483374518
 20
164.7018438854
  0
VERTEX
  8
0
 62
7
  6
CONTINUOUS
 10
123.0356051387
 20
164.7475880379
  0
VERTEX
  8
0
 62
7
  6
CONTINUOUS
 10
123.0197586398
 20
164.7990135341
  0
VERTEX
  8
0
 62
7
  6
CONTINUOUS
 10
122.9999559777
 20
164.856783852
  0
VERTEX
  8
0
 62
7
  6
CONTINUOUS
 10
122.97574557
 20
164.9200447343
  0
VERTEX
  8
0
 62
7
  6
CONTINUOUS
 10
122.9468491296
 20
164.9875764405
  0
VERTEX
  8
0
 62
7
  6
CONTINUOUS
 10
122.9127940885
 20
165.0587457429
  0
VERTEX
  8
0
 62
7
  6
CONTINUOUS
 10
122.8729140445
 20
165.1332569875
  0
VERTEX
  8
0
 62
7
  6
CONTINUOUS
 10
122.8265320741
 20
165.2106777593
  0
VERTEX
  8
0
 62
7
  6
CONTINUOUS
 10
122.772989013
 20
165.2904184398
  0
VERTEX
  8
0
 62
7
  6
CONTINUOUS
 10
122.7116438844
 20
165.3717626554
  0
VERTEX
  8
0
 62
7
  6
CONTINUOUS
 10
122.6416779684
 20
165.4541018263
  0
VERTEX
  8
0
 62
7
  6
CONTINUOUS
 10
122.5620370698
 20
165.5368689997
  0
VERTEX
  8
0
 62
7
  6
CONTINUOUS
 10
122.4720691092
 20
165.6188556623
  0
VERTEX
  8
0
 62
7
  6
CONTINUOUS
 10
122.3726536657
 20
165.6976253605
  0
VERTEX
  8
0
 62
7
  6
CONTINUOUS
 10
122.2653762073
 20
165.7708286949
  0
VERTEX
  8
0
 62
7
  6
CONTINUOUS
 10
122.1522554033
 20
165.8365667989
  0
VERTEX
  8
0
 62
7
  6
CONTINUOUS
 10
122.0348980354
 20
165.8938165154
  0
VERTEX
  8
0
 62
7
  6
CONTINUOUS
 10
121.9139294395
 20
165.9423323666
  0
VERTEX
  8
0
 62
7
  6
CONTINUOUS
 10
121.7898912599
 20
165.9819395466
  0
VERTEX
  8
0
 62
7
  6
CONTINUOUS
 10
121.6633248325
 20
166.0124802063
  0
VERTEX
  8
0
 62
7
  6
CONTINUOUS
 10
121.5347710885
 20
166.0338119941
  0
VERTEX
  8
0
 62
7
  6
CONTINUOUS
 10
121.4047761995
 20
166.045805827
  0
VERTEX
  8
0
 62
7
  6
CONTINUOUS
 10
121.3044167521
 20
166.0486042165
  0
SEQEND
  0
LINE
  8
0
 62
7
  6
CONTINUOUS
 10
123.6535465306
 20
74.3723967029
 11
123.6565667269
 21
74.3260257589
  0
LINE
  8
0
 62
7
  6
CONTINUOUS
 10
123.1197035859
 20
164.1854967043
 11
123.1166073731
 21
164.2379714284
  0
LINE
  8
0
 62
7
  6
CONTINUOUS
 10
123.6507145835
 20
74.4218490463
 11
123.6535465306
 21
74.3723967029
  0
LINE
  8
0
 62
7
  6
CONTINUOUS
 10
123.1227186256
 20
164.1271672027
 11
123.1197035859
 21
164.1854967043
  0
LINE
  8
0
 62
7
  6
CONTINUOUS
 10
123.6479668704
 20
74.4759567976
 11
123.6507145835
 21
74.4218490463
  0
LINE
  8
0
 62
7
  6
CONTINUOUS
 10
123.1257189158
 20
164.0613863673
 11
123.1227186256
 21
164.1271672027
  0
LINE
  8
0
 62
7
  6
CONTINUOUS
 10
123.6452224855
 20
74.5365084001
 11
123.6479668704
 21
74.4759567976
  0
LINE
  8
0
 62
7
  6
CONTINUOUS
 10
123.1287506456
 20
163.9865319389
 11
123.1257189158
 21
164.0613863673
  0
LINE
  8
0
 62
7
  6
CONTINUOUS
 10
123.6410097694
 20
74.6430221792
 11
123.6452224855
 21
74.5365084001
  0
LINE
  8
0
 62
7
  6
CONTINUOUS
 10
123.1334861016
 20
163.851676166
 11
123.1287506456
 21
163.9865319389
  0
LINE
  8
0
 62
7
  6
CONTINUOUS
 10
123.6366679258
 20
74.7710986444
 11
123.6410097694
 21
74.6430221792
  0
LINE
  8
0
 62
7
  6
CONTINUOUS
 10
123.1385711551
 20
163.6810228708
 11
123.1334861016
 21
163.851676166
  0
LINE
  8
0
 62
7
  6
CONTINUOUS
 10
123.6307053067
 20
74.979280334
 11
123.6366679258
 21
74.7710986444
  0
LINE
  8
0
 62
7
  6
CONTINUOUS
 10
123.1457619801
 20
163.3907613321
 11
123.1385711551
 21
163.6810228708
  0
LINE
  8
0
 62
7
  6
CONTINUOUS
 10
123.6230520131
 20
75.3053426905
 11
123.6307053067
 21
74.979280334
  0
LINE
  8
0
 62
7
  6
CONTINUOUS
 10
123.1532458731
 20
163.0227476811
 11
123.1457619801
 21
163.3907613321
  0
LINE
  8
0
 62
7
  6
CONTINUOUS
 10
123.6152573881
 20
75.7116703397
 11
123.6230520131
 21
75.3053426905
  0
LINE
  8
0
 62
7
  6
CONTINUOUS
 10
123.1608670686
 20
162.5716747827
 11
123.1532458731
 21
163.0227476811
  0
LINE
  8
0
 62
7
  6
CONTINUOUS
 10
123.6056572843
 20
76.3280325637
 11
123.6152573881
 21
75.7116703397
  0
LINE
  8
0
 62
7
  6
CONTINUOUS
 10
123.1686212964
 20
162.0235653893
 11
123.1608670686
 21
162.5716747827
  0
LINE
  8
0
 62
7
  6
CONTINUOUS
 10
123.5973262317
 20
76.9832959522
 11
123.6056572843
 21
76.3280325637
  0
LINE
  8
0
 62
7
  6
CONTINUOUS
 10
123.1765429245
 20
161.3556530417
 11
123.1686212964
 21
162.0235653893
  0
LINE
  8
0
 62
7
  6
CONTINUOUS
 10
123.5883636482
 20
77.840511745
 11
123.5973262317
 21
76.9832959522
  0
LINE
  8
0
 62
7
  6
CONTINUOUS
 10
123.1827718835
 20
160.7392257838
 11
123.1765429245
 21
161.3556530417
  0
LINE
  8
0
 62
7
  6
CONTINUOUS
 10
123.1892708603
 20
159.9909883223
 11
123.1827718835
 21
160.7392257838
  0
LINE
  8
0
 62
7
  6
CONTINUOUS
 10
123.5792717474
 20
78.918790148
 11
123.5883636482
 21
77.840511745
  0
LINE
  8
0
 62
7
  6
CONTINUOUS
 10
123.5792717434
 20
78.9187906905
 11
123.3186999888
 21
116.0044291627
  0
LINE
  8
0
 62
7
  6
CONTINUOUS
 10
123.3186991804
 20
116.0045443362
 11
123.3186732482
 21
116.0082748168
  0
LINE
  8
0
 62
7
  6
CONTINUOUS
 10
123.1958268613
 20
159.0974042146
 11
123.1892708603
 21
159.9909883223
  0
LINE
  8
0
 62
7
  6
CONTINUOUS
 10
123.2023113707
 20
158.024251644
 11
123.1958268613
 21
159.0974042146
  0
LINE
  8
0
 62
7
  6
CONTINUOUS
 10
123.2066028437
 20
157.1628441609
 11
123.2023113707
 21
158.024251644
  0
LINE
  8
0
 62
7
  6
CONTINUOUS
 10
123.2107394213
 20
156.1533933456
 11
123.2066028437
 21
157.1628441609
  0
LINE
  8
0
 62
7
  6
CONTINUOUS
 10
123.21429377
 20
155.044848727
 11
123.2107394213
 21
156.1533933456
  0
LINE
  8
0
 62
7
  6
CONTINUOUS
 10
123.2169404433
 20
153.9195957824
 11
123.21429377
 21
155.044848727
  0
LINE
  8
0
 62
7
  6
CONTINUOUS
 10
123.2187058154
 20
152.7767020249
 11
123.2169404433
 21
153.9195957824
  0
LINE
  8
0
 62
7
  6
CONTINUOUS
 10
123.2195903137
 20
151.6161418118
 11
123.2187058154
 21
152.7767020249
  0
LINE
  8
0
 62
7
  6
CONTINUOUS
 10
123.2195903137
 20
151.6161418118
 11
123.2196967888
 21
144.5422349815
  0
POLYLINE
  8
0
 62
7
  6
CONTINUOUS
 66
1
 70
0
  0
VERTEX
  8
0
 62
7
  6
CONTINUOUS
 10
94.9514246544
 20
78.4163025
  0
VERTEX
  8
0
 62
7
  6
CONTINUOUS
 10
94.9306433743
 20
78.4149665555
  0
VERTEX
  8
0
 62
7
  6
CONTINUOUS
 10
94.9095901456
 20
78.4138501088
  0
SEQEND
  0
POLYLINE
  8
0
 62
7
  6
CONTINUOUS
 66
1
 70
0
  0
VERTEX
  8
0
 62
7
  6
CONTINUOUS
 10
94.9095901456
 20
78.4138501088
  0
VERTEX
  8
0
 62
7
  6
CONTINUOUS
 10
94.8540777297
 20
78.4113883169
  0
VERTEX
  8
0
 62
7
  6
CONTINUOUS
 10
94.7985466444
 20
78.4105681627
  0
SEQEND
  0
LINE
  8
DEFAULT_1
 62
2
  6
CENTER
 10
54.6054854315
 20
87.5486043509
 11
242.1203354315
 21
87.5486043509
  0
POLYLINE
  8
0
 62
7
  6
CONTINUOUS
 66
1
 70
0
  0
VERTEX
  8
0
 62
7
  6
CONTINUOUS
 10
139.5221630166
 20
141.0802984621
  0
VERTEX
  8
0
 62
7
  6
CONTINUOUS
 10
139.4795269534
 20
141.0153964983
  0
VERTEX
  8
0
 62
7
  6
CONTINUOUS
 10
139.4248962408
 20
140.9367114471
  0
VERTEX
  8
0
 62
7
  6
CONTINUOUS
 10
139.3693828513
 20
140.8618910752
  0
VERTEX
  8
0
 62
7
  6
CONTINUOUS
 10
139.3129442086
 20
140.7910891657
  0
VERTEX
  8
0
 62
7
  6
CONTINUOUS
 10
139.2556044685
 20
140.7245380565
  0
VERTEX
  8
0
 62
7
  6
CONTINUOUS
 10
139.197328017
 20
140.6623915282
  0
VERTEX
  8
0
 62
7
  6
CONTINUOUS
 10
139.1380134274
 20
140.6047552534
  0
VERTEX
  8
0
 62
7
  6
CONTINUOUS
 10
139.0776476137
 20
140.5518547613
  0
VERTEX
  8
0
 62
7
  6
CONTINUOUS
 10
139.0163085964
 20
140.5040008585
  0
VERTEX
  8
0
 62
7
  6
CONTINUOUS
 10
138.9540726593
 20
140.4614908163
  0
VERTEX
  8
0
 62
7
  6
CONTINUOUS
 10
138.8910370577
 20
140.424620592
  0
VERTEX
  8
0
 62
7
  6
CONTINUOUS
 10
138.8277937492
 20
140.393872168
  0
VERTEX
  8
0
 62
7
  6
CONTINUOUS
 10
138.7645895969
 20
140.3693638213
  0
VERTEX
  8
0
 62
7
  6
CONTINUOUS
 10
138.7016959474
 20
140.3510820088
  0
VERTEX
  8
0
 62
7
  6
CONTINUOUS
 10
138.6398713453
 20
140.3389194316
  0
VERTEX
  8
0
 62
7
  6
CONTINUOUS
 10
138.5796182957
 20
140.3324229337
  0
VERTEX
  8
0
 62
7
  6
CONTINUOUS
 10
138.5320264848
 20
140.3308825479
  0
SEQEND
  0
POLYLINE
  8
0
 62
7
  6
CONTINUOUS
 66
1
 70
0
  0
VERTEX
  8
0
 62
7
  6
CONTINUOUS
 10
107.2488078464
 20
97.5169102397
  0
VERTEX
  8
0
 62
7
  6
CONTINUOUS
 10
107.2964584673
 20
97.5892442068
  0
VERTEX
  8
0
 62
7
  6
CONTINUOUS
 10
107.3537481775
 20
97.6711472579
  0
VERTEX
  8
0
 62
7
  6
CONTINUOUS
 10
107.4103073213
 20
97.7466015197
  0
VERTEX
  8
0
 62
7
  6
CONTINUOUS
 10
107.4667462797
 20
97.8165879222
  0
VERTEX
  8
0
 62
7
  6
CONTINUOUS
 10
107.5237102191
 20
97.8819067074
  0
VERTEX
  8
0
 62
7
  6
CONTINUOUS
 10
107.5817443052
 20
97.9430221826
  0
VERTEX
  8
0
 62
7
  6
CONTINUOUS
 10
107.6409372823
 20
97.9997783287
  0
VERTEX
  8
0
 62
7
  6
CONTINUOUS
 10
107.7011887921
 20
98.0518217338
  0
VERTEX
  8
0
 62
7
  6
CONTINUOUS
 10
107.762281595
 20
98.098738678
  0
VERTEX
  8
0
 62
7
  6
CONTINUOUS
 10
107.8240099326
 20
98.1401889247
  0
VERTEX
  8
0
 62
7
  6
CONTINUOUS
 10
107.8861671195
 20
98.1758962529
  0
VERTEX
  8
0
 62
7
  6
CONTINUOUS
 10
107.9482601127
 20
98.2055369455
  0
VERTEX
  8
0
 62
7
  6
CONTINUOUS
 10
108.0101805953
 20
98.2291211532
  0
VERTEX
  8
0
 62
7
  6
CONTINUOUS
 10
108.0717305252
 20
98.2467185118
  0
VERTEX
  8
0
 62
7
  6
CONTINUOUS
 10
108.132317413
 20
98.2584722374
  0
VERTEX
  8
0
 62
7
  6
CONTINUOUS
 10
108.19159525
 20
98.2648015366
  0
VERTEX
  8
0
 62
7
  6
CONTINUOUS
 10
108.2389443782
 20
98.2663261538
  0
SEQEND
  0
POLYLINE
  8
0
 62
7
  6
CONTINUOUS
 66
1
 70
0
  0
VERTEX
  8
0
 62
7
  6
CONTINUOUS
 10
88.4020265504
 20
98.2663261557
  0
VERTEX
  8
0
 62
7
  6
CONTINUOUS
 10
88.450249873
 20
98.2647443473
  0
VERTEX
  8
0
 62
7
  6
CONTINUOUS
 10
88.5095474727
 20
98.258338139
  0
VERTEX
  8
0
 62
7
  6
CONTINUOUS
 10
88.5701502752
 20
98.2465002716
  0
VERTEX
  8
0
 62
7
  6
CONTINUOUS
 10
88.631710029
 20
98.2288142291
  0
VERTEX
  8
0
 62
7
  6
CONTINUOUS
 10
88.6936323802
 20
98.2051409631
  0
VERTEX
  8
0
 62
7
  6
CONTINUOUS
 10
88.7557220043
 20
98.1754127323
  0
VERTEX
  8
0
 62
7
  6
CONTINUOUS
 10
88.8178707261
 20
98.1396213709
  0
VERTEX
  8
0
 62
7
  6
CONTINUOUS
 10
88.879588485
 20
98.098090686
  0
VERTEX
  8
0
 62
7
  6
CONTINUOUS
 10
88.9406708978
 20
98.0510957491
  0
VERTEX
  8
0
 62
7
  6
CONTINUOUS
 10
89.0009141241
 20
97.9989750312
  0
VERTEX
  8
0
 62
7
  6
CONTINUOUS
 10
89.0601034075
 20
97.942139222
  0
VERTEX
  8
0
 62
7
  6
CONTINUOUS
 10
89.1181408726
 20
97.8809377078
  0
VERTEX
  8
0
 62
7
  6
CONTINUOUS
 10
89.175118444
 20
97.8155205534
  0
VERTEX
  8
0
 62
7
  6
CONTINUOUS
 10
89.2315794887
 20
97.7454221153
  0
VERTEX
  8
0
 62
7
  6
CONTINUOUS
 10
89.2881636728
 20
97.6698466007
  0
VERTEX
  8
0
 62
7
  6
CONTINUOUS
 10
89.3454767882
 20
97.5878181879
  0
VERTEX
  8
0
 62
7
  6
CONTINUOUS
 10
89.392163122
 20
97.5169100753
  0
SEQEND
  0
LINE
  8
0
 62
7
  6
CONTINUOUS
 10
140.2616556445
 20
152.1223438686
 11
140.2612740742
 21
144.542234981
  0
LINE
  8
0
 62
7
  6
CONTINUOUS
 10
140.2634594949
 20
153.6082196921
 11
140.2616556445
 21
152.1223438686
  0
LINE
  8
0
 62
7
  6
CONTINUOUS
 10
140.2663589957
 20
154.9281576351
 11
140.2634594949
 21
153.6082196921
  0
LINE
  8
0
 62
7
  6
CONTINUOUS
 10
140.2700370378
 20
156.099902615
 11
140.2663589957
 21
154.9281576351
  0
LINE
  8
0
 62
7
  6
CONTINUOUS
 10
140.2757969374
 20
157.4666962264
 11
140.2700370378
 21
156.099902615
  0
LINE
  8
0
 62
7
  6
CONTINUOUS
 10
140.2837953712
 20
158.8921027171
 11
140.2757969374
 21
157.4666962264
  0
LINE
  8
0
 62
7
  6
CONTINUOUS
 10
140.1622989344
 20
116.0084666293
 11
139.9042037029
 21
79.2632582737
  0
LINE
  8
0
 62
7
  6
CONTINUOUS
 10
140.2935528125
 20
160.2166718987
 11
140.2837953712
 21
158.8921027171
  0
LINE
  8
0
 62
7
  6
CONTINUOUS
 10
139.8947618796
 20
78.0746214082
 11
139.9042037033
 21
79.2632583389
  0
LINE
  8
0
 62
7
  6
CONTINUOUS
 10
140.304866329
 20
161.3958105951
 11
140.2935528125
 21
160.2166718987
  0
POLYLINE
  8
0
 62
7
  6
CONTINUOUS
 66
1
 70
0
  0
VERTEX
  8
0
 62
7
  6
CONTINUOUS
 10
140.2612741746
 20
144.542234981
  0
VERTEX
  8
0
 62
7
  6
CONTINUOUS
 10
140.2577262503
 20
144.2236336461
  0
VERTEX
  8
0
 62
7
  6
CONTINUOUS
 10
140.2464002851
 20
143.9050196504
  0
VERTEX
  8
0
 62
7
  6
CONTINUOUS
 10
140.227275661
 20
143.6004372787
  0
VERTEX
  8
0
 62
7
  6
CONTINUOUS
 10
140.2003943472
 20
143.3094441758
  0
VERTEX
  8
0
 62
7
  6
CONTINUOUS
 10
140.1658104185
 20
143.0314817201
  0
VERTEX
  8
0
 62
7
  6
CONTINUOUS
 10
140.1235818099
 20
142.766052085
  0
VERTEX
  8
0
 62
7
  6
CONTINUOUS
 10
140.0737793149
 20
142.5128305763
  0
VERTEX
  8
0
 62
7
  6
CONTINUOUS
 10
140.0164655631
 20
142.2715497316
  0
VERTEX
  8
0
 62
7
  6
CONTINUOUS
 10
139.9516640238
 20
142.0419344583
  0
VERTEX
  8
0
 62
7
  6
CONTINUOUS
 10
139.8794269437
 20
141.8239785741
  0
VERTEX
  8
0
 62
7
  6
CONTINUOUS
 10
139.7998818738
 20
141.6179647114
  0
VERTEX
  8
0
 62
7
  6
CONTINUOUS
 10
139.7128955211
 20
141.4236479278
  0
VERTEX
  8
0
 62
7
  6
CONTINUOUS
 10
139.6182473215
 20
141.2409801216
  0
VERTEX
  8
0
 62
7
  6
CONTINUOUS
 10
139.5221629657
 20
141.0802984947
  0
SEQEND
  0
LINE
  8
0
 62
7
  6
CONTINUOUS
 10
139.8843094626
 20
77.0410546693
 11
139.8947618796
 21
78.0746214082
  0
LINE
  8
0
 62
7
  6
CONTINUOUS
 10
140.3161615358
 20
162.3050371844
 11
140.304866329
 21
161.3958105951
  0
LINE
  8
0
 62
7
  6
CONTINUOUS
 10
139.8740455069
 20
76.2386239559
 11
139.8843094626
 21
77.0410546693
  0
LINE
  8
0
 62
7
  6
CONTINUOUS
 10
139.8640041261
 20
75.6157532253
 11
139.8740455069
 21
76.2386239559
  0
LINE
  8
0
 62
7
  6
CONTINUOUS
 10
140.3271856782
 20
162.9934568764
 11
140.3161615358
 21
162.3050371844
  0
LINE
  8
0
 62
7
  6
CONTINUOUS
 10
140.3362513218
 20
163.4365527343
 11
140.3271856782
 21
162.9934568764
  0
LINE
  8
0
 62
7
  6
CONTINUOUS
 10
139.8543169804
 20
75.1433173464
 11
139.8640041261
 21
75.6157532253
  0
LINE
  8
0
 62
7
  6
CONTINUOUS
 10
139.8480885066
 20
74.898793707
 11
139.8543169804
 21
75.1433173464
  0
LINE
  8
0
 62
7
  6
CONTINUOUS
 10
140.3432629824
 20
163.7119511179
 11
140.3362513218
 21
163.4365527343
  0
LINE
  8
0
 62
7
  6
CONTINUOUS
 10
139.8435955517
 20
74.7489180335
 11
139.8480885066
 21
74.898793707
  0
LINE
  8
0
 62
7
  6
CONTINUOUS
 10
140.3483056621
 20
163.8766745892
 11
140.3432629824
 21
163.7119511179
  0
LINE
  8
0
 62
7
  6
CONTINUOUS
 10
139.839337386
 20
74.6261768737
 11
139.8435955517
 21
74.7489180335
  0
LINE
  8
0
 62
7
  6
CONTINUOUS
 10
140.3518434895
 20
163.9766182608
 11
140.3483056621
 21
163.8766745892
  0
LINE
  8
0
 62
7
  6
CONTINUOUS
 10
140.3553119575
 20
164.06278135
 11
140.3518434895
 21
163.9766182608
  0
POLYLINE
  8
0
 62
7
  6
CONTINUOUS
 66
1
 70
0
  0
VERTEX
  8
0
 62
7
  6
CONTINUOUS
 10
139.8340161166
 20
74.4975078966
  0
VERTEX
  8
0
 62
7
  6
CONTINUOUS
 10
139.8353176914
 20
74.5265582069
  0
VERTEX
  8
0
 62
7
  6
CONTINUOUS
 10
139.839337386
 20
74.6261768737
  0
SEQEND
  0
LINE
  8
0
 62
7
  6
CONTINUOUS
 10
140.3576376427
 20
164.1143399223
 11
140.3553119575
 21
164.06278135
  0
LINE
  8
0
 62
7
  6
CONTINUOUS
 10
140.3600064986
 20
164.1620145037
 11
140.3576376427
 21
164.1143399223
  0
LINE
  8
0
 62
7
  6
CONTINUOUS
 10
140.3624608384
 20
164.2065741006
 11
140.3600064986
 21
164.1620145037
  0
LINE
  8
0
 62
7
  6
CONTINUOUS
 10
140.3650651482
 20
164.248900624
 11
140.3624608384
 21
164.2065741006
  0
LINE
  8
0
 62
7
  6
CONTINUOUS
 10
222.0820265504
 20
98.2663263376
 11
208.4989443781
 21
98.2663263376
  0
LINE
  8
0
 62
7
  6
CONTINUOUS
 10
188.6620265504
 20
98.2663263376
 11
175.0789443781
 21
98.2663263376
  0
LINE
  8
0
 62
7
  6
CONTINUOUS
 10
155.2420265504
 20
98.2663263376
 11
141.6589443781
 21
98.2663263376
  0
LINE
  8
0
 62
7
  6
CONTINUOUS
 10
121.8220265504
 20
98.2663263376
 11
108.2389443781
 21
98.2663263376
  0
LINE
  8
0
 62
7
  6
CONTINUOUS
 10
88.4020265504
 20
98.2663263376
 11
74.5862245384
 21
98.2663263376
  0
LINE
  8
0
 62
7
  6
CONTINUOUS
 10
241.9189443198
 20
98.2663263376
 11
255.2054854315
 21
98.2663263376
  0
POLYLINE
  8
0
 62
7
  6
CONTINUOUS
 66
1
 70
0
  0
VERTEX
  8
0
 62
7
  6
CONTINUOUS
 10
121.8220265504
 20
98.2663261557
  0
VERTEX
  8
0
 62
7
  6
CONTINUOUS
 10
121.8703393175
 20
98.264738436
  0
VERTEX
  8
0
 62
7
  6
CONTINUOUS
 10
121.9297749011
 20
98.2583038397
  0
VERTEX
  8
0
 62
7
  6
CONTINUOUS
 10
121.9905230612
 20
98.2464105015
  0
VERTEX
  8
0
 62
7
  6
CONTINUOUS
 10
122.052230876
 20
98.2286398434
  0
VERTEX
  8
0
 62
7
  6
CONTINUOUS
 10
122.1142973333
 20
98.20485444
  0
VERTEX
  8
0
 62
7
  6
CONTINUOUS
 10
122.1765307413
 20
98.1749857882
  0
VERTEX
  8
0
 62
7
  6
CONTINUOUS
 10
122.2388160863
 20
98.1390302551
  0
VERTEX
  8
0
 62
7
  6
CONTINUOUS
 10
122.3006572681
 20
98.0973188502
  0
VERTEX
  8
0
 62
7
  6
CONTINUOUS
 10
122.3618477146
 20
98.0501326221
  0
VERTEX
  8
0
 62
7
  6
CONTINUOUS
 10
122.4221575152
 20
97.9978386182
  0
VERTEX
  8
0
 62
7
  6
CONTINUOUS
 10
122.4813533146
 20
97.9408784642
  0
VERTEX
  8
0
 62
7
  6
CONTINUOUS
 10
122.5393226157
 20
97.8796347974
  0
VERTEX
  8
0
 62
7
  6
CONTINUOUS
 10
122.5961340437
 20
97.8143062216
  0
VERTEX
  8
0
 62
7
  6
CONTINUOUS
 10
122.6523458972
 20
97.7444341915
  0
VERTEX
  8
0
 62
7
  6
CONTINUOUS
 10
122.7086536748
 20
97.6691687184
  0
VERTEX
  8
0
 62
7
  6
CONTINUOUS
 10
122.7657075126
 20
97.5874767895
  0
VERTEX
  8
0
 62
7
  6
CONTINUOUS
 10
122.812163122
 20
97.5169100753
  0
SEQEND
  0
POLYLINE
  8
0
 62
7
  6
CONTINUOUS
 66
1
 70
0
  0
VERTEX
  8
0
 62
7
  6
CONTINUOUS
 10
155.2420265504
 20
98.2663261557
  0
VERTEX
  8
0
 62
7
  6
CONTINUOUS
 10
155.2902496494
 20
98.264744362
  0
VERTEX
  8
0
 62
7
  6
CONTINUOUS
 10
155.3495468998
 20
98.2583382253
  0
VERTEX
  8
0
 62
7
  6
CONTINUOUS
 10
155.410149333
 20
98.2465004982
  0
VERTEX
  8
0
 62
7
  6
CONTINUOUS
 10
155.4717087102
 20
98.2288146701
  0
VERTEX
  8
0
 62
7
  6
CONTINUOUS
 10
155.5336306948
 20
98.2051416884
  0
VERTEX
  8
0
 62
7
  6
CONTINUOUS
 10
155.5957199537
 20
98.1754138136
  0
VERTEX
  8
0
 62
7
  6
CONTINUOUS
 10
155.6578683295
 20
98.1396228677
  0
VERTEX
  8
0
 62
7
  6
CONTINUOUS
 10
155.7195857774
 20
98.0980926391
  0
VERTEX
  8
0
 62
7
  6
CONTINUOUS
 10
155.7806679194
 20
98.0510981839
  0
VERTEX
  8
0
 62
7
  6
CONTINUOUS
 10
155.8409109817
 20
97.9989779
  0
VERTEX
  8
0
 62
7
  6
CONTINUOUS
 10
155.900100256
 20
97.9421423978
  0
VERTEX
  8
0
 62
7
  6
CONTINUOUS
 10
155.9581379041
 20
97.8809409778
  0
VERTEX
  8
0
 62
7
  6
CONTINUOUS
 10
156.0151159095
 20
97.8155235817
  0
VERTEX
  8
0
 62
7
  6
CONTINUOUS
 10
156.0715775898
 20
97.7454245619
  0
VERTEX
  8
0
 62
7
  6
CONTINUOUS
 10
156.1281624711
 20
97.6698482627
  0
VERTEX
  8
0
 62
7
  6
CONTINUOUS
 10
156.1854762326
 20
97.58781901
  0
VERTEX
  8
0
 62
7
  6
CONTINUOUS
 10
156.232163122
 20
97.5169100753
  0
SEQEND
  0
POLYLINE
  8
0
 62
7
  6
CONTINUOUS
 66
1
 70
0
  0
VERTEX
  8
0
 62
7
  6
CONTINUOUS
 10
188.6620265504
 20
98.2663261557
  0
VERTEX
  8
0
 62
7
  6
CONTINUOUS
 10
188.710249873
 20
98.2647443473
  0
VERTEX
  8
0
 62
7
  6
CONTINUOUS
 10
188.7695474727
 20
98.258338139
  0
VERTEX
  8
0
 62
7
  6
CONTINUOUS
 10
188.8301502752
 20
98.2465002716
  0
VERTEX
  8
0
 62
7
  6
CONTINUOUS
 10
188.891710029
 20
98.2288142291
  0
VERTEX
  8
0
 62
7
  6
CONTINUOUS
 10
188.9536323802
 20
98.2051409631
  0
VERTEX
  8
0
 62
7
  6
CONTINUOUS
 10
189.0157220043
 20
98.1754127323
  0
VERTEX
  8
0
 62
7
  6
CONTINUOUS
 10
189.0778707261
 20
98.1396213709
  0
VERTEX
  8
0
 62
7
  6
CONTINUOUS
 10
189.139588485
 20
98.098090686
  0
VERTEX
  8
0
 62
7
  6
CONTINUOUS
 10
189.2006708978
 20
98.0510957491
  0
VERTEX
  8
0
 62
7
  6
CONTINUOUS
 10
189.2609141241
 20
97.9989750312
  0
VERTEX
  8
0
 62
7
  6
CONTINUOUS
 10
189.3201034075
 20
97.942139222
  0
VERTEX
  8
0
 62
7
  6
CONTINUOUS
 10
189.3781408726
 20
97.8809377078
  0
VERTEX
  8
0
 62
7
  6
CONTINUOUS
 10
189.435118444
 20
97.8155205534
  0
VERTEX
  8
0
 62
7
  6
CONTINUOUS
 10
189.4915794887
 20
97.7454221153
  0
VERTEX
  8
0
 62
7
  6
CONTINUOUS
 10
189.5481636728
 20
97.6698466007
  0
VERTEX
  8
0
 62
7
  6
CONTINUOUS
 10
189.6054767882
 20
97.5878181879
  0
VERTEX
  8
0
 62
7
  6
CONTINUOUS
 10
189.652163122
 20
97.5169100753
  0
SEQEND
  0
POLYLINE
  8
0
 62
7
  6
CONTINUOUS
 66
1
 70
0
  0
VERTEX
  8
0
 62
7
  6
CONTINUOUS
 10
222.0820265504
 20
98.2663261557
  0
VERTEX
  8
0
 62
7
  6
CONTINUOUS
 10
222.1303393175
 20
98.264738436
  0
VERTEX
  8
0
 62
7
  6
CONTINUOUS
 10
222.1897749011
 20
98.2583038397
  0
VERTEX
  8
0
 62
7
  6
CONTINUOUS
 10
222.2505230612
 20
98.2464105015
  0
VERTEX
  8
0
 62
7
  6
CONTINUOUS
 10
222.312230876
 20
98.2286398434
  0
VERTEX
  8
0
 62
7
  6
CONTINUOUS
 10
222.3742973333
 20
98.20485444
  0
VERTEX
  8
0
 62
7
  6
CONTINUOUS
 10
222.4365307413
 20
98.1749857882
  0
VERTEX
  8
0
 62
7
  6
CONTINUOUS
 10
222.4988160863
 20
98.1390302551
  0
VERTEX
  8
0
 62
7
  6
CONTINUOUS
 10
222.5606572681
 20
98.0973188502
  0
VERTEX
  8
0
 62
7
  6
CONTINUOUS
 10
222.6218477146
 20
98.0501326221
  0
VERTEX
  8
0
 62
7
  6
CONTINUOUS
 10
222.6821575152
 20
97.9978386182
  0
VERTEX
  8
0
 62
7
  6
CONTINUOUS
 10
222.7413533146
 20
97.9408784642
  0
VERTEX
  8
0
 62
7
  6
CONTINUOUS
 10
222.7993226157
 20
97.8796347974
  0
VERTEX
  8
0
 62
7
  6
CONTINUOUS
 10
222.8561340437
 20
97.8143062216
  0
VERTEX
  8
0
 62
7
  6
CONTINUOUS
 10
222.9123458972
 20
97.7444341915
  0
VERTEX
  8
0
 62
7
  6
CONTINUOUS
 10
222.9686536748
 20
97.6691687184
  0
VERTEX
  8
0
 62
7
  6
CONTINUOUS
 10
223.0257075126
 20
97.5874767895
  0
VERTEX
  8
0
 62
7
  6
CONTINUOUS
 10
223.072163122
 20
97.5169100753
  0
SEQEND
  0
POLYLINE
  8
0
 62
7
  6
CONTINUOUS
 66
1
 70
0
  0
VERTEX
  8
0
 62
7
  6
CONTINUOUS
 10
123.9588077916
 20
141.0802986591
  0
VERTEX
  8
0
 62
7
  6
CONTINUOUS
 10
123.8622474754
 20
141.2418342783
  0
VERTEX
  8
0
 62
7
  6
CONTINUOUS
 10
123.7676420942
 20
141.4245479408
  0
VERTEX
  8
0
 62
7
  6
CONTINUOUS
 10
123.6806971298
 20
141.618907254
  0
VERTEX
  8
0
 62
7
  6
CONTINUOUS
 10
123.6011924622
 20
141.8249605771
  0
VERTEX
  8
0
 62
7
  6
CONTINUOUS
 10
123.5289950329
 20
142.0429530995
  0
VERTEX
  8
0
 62
7
  6
CONTINUOUS
 10
123.4642321659
 20
142.2726031827
  0
VERTEX
  8
0
 62
7
  6
CONTINUOUS
 10
123.4069561306
 20
142.5139174671
  0
VERTEX
  8
0
 62
7
  6
CONTINUOUS
 10
123.3571904725
 20
142.7671712426
  0
VERTEX
  8
0
 62
7
  6
CONTINUOUS
 10
123.3149977802
 20
143.0326324571
  0
VERTEX
  8
0
 62
7
  6
CONTINUOUS
 10
123.2804487985
 20
143.3106263462
  0
VERTEX
  8
0
 62
7
  6
CONTINUOUS
 10
123.2536014423
 20
143.60165116
  0
VERTEX
  8
0
 62
7
  6
CONTINUOUS
 10
123.2345097251
 20
143.9062660014
  0
VERTEX
  8
0
 62
7
  6
CONTINUOUS
 10
123.2232154986
 20
144.2249135132
  0
VERTEX
  8
0
 62
7
  6
CONTINUOUS
 10
123.2196966894
 20
144.5422349815
  0
SEQEND
  0
LINE
  8
0
 62
7
  6
CONTINUOUS
 10
139.8314321686
 20
74.4442353594
 11
139.8340161166
 21
74.4975078966
  0
LINE
  8
0
 62
7
  6
CONTINUOUS
 10
139.8288201123
 20
74.3960052826
 11
139.8314321686
 21
74.4442353594
  0
POLYLINE
  8
0
 62
7
  6
CONTINUOUS
 66
1
 70
0
  0
VERTEX
  8
0
 62
7
  6
CONTINUOUS
 10
140.0183247305
 20
95.5107342908
  0
VERTEX
  8
0
 62
7
  6
CONTINUOUS
 10
140.0252480407
 20
95.5663461693
  0
VERTEX
  8
0
 62
7
  6
CONTINUOUS
 10
140.0674997073
 20
95.8317797994
  0
VERTEX
  8
0
 62
7
  6
CONTINUOUS
 10
140.1173272164
 20
96.0850040787
  0
VERTEX
  8
0
 62
7
  6
CONTINUOUS
 10
140.1746680266
 20
96.3262862049
  0
VERTEX
  8
0
 62
7
  6
CONTINUOUS
 10
140.2394986093
 20
96.5559003677
  0
VERTEX
  8
0
 62
7
  6
CONTINUOUS
 10
140.3117668317
 20
96.7738526055
  0
VERTEX
  8
0
 62
7
  6
CONTINUOUS
 10
140.3913458186
 20
96.9798613886
  0
VERTEX
  8
0
 62
7
  6
CONTINUOUS
 10
140.4783683205
 20
97.1741690424
  0
VERTEX
  8
0
 62
7
  6
CONTINUOUS
 10
140.5730542322
 20
97.3568215457
  0
VERTEX
  8
0
 62
7
  6
CONTINUOUS
 10
140.6688078972
 20
97.5169102071
  0
SEQEND
  0
POLYLINE
  8
0
 62
7
  6
CONTINUOUS
 66
1
 70
0
  0
VERTEX
  8
0
 62
7
  6
CONTINUOUS
 10
156.2321630714
 20
97.5169100428
  0
VERTEX
  8
0
 62
7
  6
CONTINUOUS
 10
156.3287233875
 20
97.3553744235
  0
VERTEX
  8
0
 62
7
  6
CONTINUOUS
 10
156.4233287687
 20
97.1726607611
  0
VERTEX
  8
0
 62
7
  6
CONTINUOUS
 10
156.5102737332
 20
96.9783014478
  0
VERTEX
  8
0
 62
7
  6
CONTINUOUS
 10
156.5897784008
 20
96.7722481248
  0
VERTEX
  8
0
 62
7
  6
CONTINUOUS
 10
156.66197583
 20
96.5542556024
  0
VERTEX
  8
0
 62
7
  6
CONTINUOUS
 10
156.7267386971
 20
96.3246055192
  0
VERTEX
  8
0
 62
7
  6
CONTINUOUS
 10
156.7840147324
 20
96.0832912348
  0
VERTEX
  8
0
 62
7
  6
CONTINUOUS
 10
156.8337803904
 20
95.8300374592
  0
VERTEX
  8
0
 62
7
  6
CONTINUOUS
 10
156.8759730827
 20
95.5645762447
  0
VERTEX
  8
0
 62
7
  6
CONTINUOUS
 10
156.9105220645
 20
95.2865823556
  0
VERTEX
  8
0
 62
7
  6
CONTINUOUS
 10
156.9373694206
 20
94.9955575418
  0
VERTEX
  8
0
 62
7
  6
CONTINUOUS
 10
156.9564611378
 20
94.6909427004
  0
VERTEX
  8
0
 62
7
  6
CONTINUOUS
 10
156.9677553643
 20
94.3722951887
  0
VERTEX
  8
0
 62
7
  6
CONTINUOUS
 10
156.9712741736
 20
94.0549737204
  0
SEQEND
  0
POLYLINE
  8
0
 62
7
  6
CONTINUOUS
 66
1
 70
0
  0
VERTEX
  8
0
 62
7
  6
CONTINUOUS
 10
157.0743634898
 20
74.3592372735
  0
VERTEX
  8
0
 62
7
  6
CONTINUOUS
 10
157.0759684007
 20
74.3347282474
  0
VERTEX
  8
0
 62
7
  6
CONTINUOUS
 10
157.0776301388
 20
74.3111107768
  0
VERTEX
  8
0
 62
7
  6
CONTINUOUS
 10
157.0793710841
 20
74.2881284326
  0
VERTEX
  8
0
 62
7
  6
CONTINUOUS
 10
157.0812242448
 20
74.2654556297
  0
VERTEX
  8
0
 62
7
  6
CONTINUOUS
 10
157.0832328381
 20
74.2427385153
  0
VERTEX
  8
0
 62
7
  6
CONTINUOUS
 10
157.0854521191
 20
74.2196045957
  0
VERTEX
  8
0
 62
7
  6
CONTINUOUS
 10
157.0879455645
 20
74.1957266583
  0
VERTEX
  8
0
 62
7
  6
CONTINUOUS
 10
157.0907938704
 20
74.1707530669
  0
VERTEX
  8
0
 62
7
  6
CONTINUOUS
 10
157.0941013878
 20
74.1442920998
  0
VERTEX
  8
0
 62
7
  6
CONTINUOUS
 10
157.0979999163
 20
74.115930676
  0
VERTEX
  8
0
 62
7
  6
CONTINUOUS
 10
157.1026528208
 20
74.08525135
  0
VERTEX
  8
0
 62
7
  6
CONTINUOUS
 10
157.1082588911
 20
74.05185009
  0
VERTEX
  8
0
 62
7
  6
CONTINUOUS
 10
157.1149835641
 20
74.0157213619
  0
VERTEX
  8
0
 62
7
  6
CONTINUOUS
 10
157.1229075132
 20
73.9773378556
  0
VERTEX
  8
0
 62
7
  6
CONTINUOUS
 10
157.1320340178
 20
73.9373921205
  0
VERTEX
  8
0
 62
7
  6
CONTINUOUS
 10
157.1426334112
 20
73.8953648165
  0
VERTEX
  8
0
 62
7
  6
CONTINUOUS
 10
157.1553657243
 20
73.8496206639
  0
VERTEX
  8
0
 62
7
  6
CONTINUOUS
 10
157.1712122232
 20
73.7981951678
  0
VERTEX
  8
0
 62
7
  6
CONTINUOUS
 10
157.1910148853
 20
73.7404248498
  0
VERTEX
  8
0
 62
7
  6
CONTINUOUS
 10
157.215225293
 20
73.6771639676
  0
VERTEX
  8
0
 62
7
  6
CONTINUOUS
 10
157.2441217333
 20
73.6096322613
  0
VERTEX
  8
0
 62
7
  6
CONTINUOUS
 10
157.2781767744
 20
73.538462959
  0
VERTEX
  8
0
 62
7
  6
CONTINUOUS
 10
157.3180568184
 20
73.4639517143
  0
VERTEX
  8
0
 62
7
  6
CONTINUOUS
 10
157.3644387888
 20
73.3865309425
  0
VERTEX
  8
0
 62
7
  6
CONTINUOUS
 10
157.4179818499
 20
73.306790262
  0
VERTEX
  8
0
 62
7
  6
CONTINUOUS
 10
157.4793269785
 20
73.2254460465
  0
VERTEX
  8
0
 62
7
  6
CONTINUOUS
 10
157.5492928946
 20
73.1431068755
  0
VERTEX
  8
0
 62
7
  6
CONTINUOUS
 10
157.6289337931
 20
73.0603397022
  0
VERTEX
  8
0
 62
7
  6
CONTINUOUS
 10
157.7189017538
 20
72.9783530395
  0
VERTEX
  8
0
 62
7
  6
CONTINUOUS
 10
157.8183171973
 20
72.8995833413
  0
VERTEX
  8
0
 62
7
  6
CONTINUOUS
 10
157.9255946557
 20
72.826380007
  0
VERTEX
  8
0
 62
7
  6
CONTINUOUS
 10
158.0387154597
 20
72.7606419029
  0
VERTEX
  8
0
 62
7
  6
CONTINUOUS
 10
158.1560728276
 20
72.7033921864
  0
VERTEX
  8
0
 62
7
  6
CONTINUOUS
 10
158.2770414235
 20
72.6548763352
  0
VERTEX
  8
0
 62
7
  6
CONTINUOUS
 10
158.401079603
 20
72.6152691552
  0
VERTEX
  8
0
 62
7
  6
CONTINUOUS
 10
158.5276460304
 20
72.5847284955
  0
VERTEX
  8
0
 62
7
  6
CONTINUOUS
 10
158.6561997744
 20
72.5633967078
  0
VERTEX
  8
0
 62
7
  6
CONTINUOUS
 10
158.7861946635
 20
72.5514028748
  0
VERTEX
  8
0
 62
7
  6
CONTINUOUS
 10
158.8865541109
 20
72.5486044853
  0
SEQEND
  0
LINE
  8
0
 62
7
  6
CONTINUOUS
 10
157.0712672771
 20
74.4117119976
 11
157.0743634898
 21
74.3592372735
  0
LINE
  8
0
 62
7
  6
CONTINUOUS
 10
157.0682522373
 20
74.4700414991
 11
157.0712672771
 21
74.4117119976
  0
LINE
  8
0
 62
7
  6
CONTINUOUS
 10
157.0652519472
 20
74.5358223345
 11
157.0682522373
 21
74.4700414991
  0
LINE
  8
0
 62
7
  6
CONTINUOUS
 10
157.0622202174
 20
74.6106767629
 11
157.0652519472
 21
74.5358223345
  0
LINE
  8
0
 62
7
  6
CONTINUOUS
 10
157.0574847614
 20
74.7455325359
 11
157.0622202174
 21
74.6106767629
  0
LINE
  8
0
 62
7
  6
CONTINUOUS
 10
157.0523997079
 20
74.916185831
 11
157.0574847614
 21
74.7455325359
  0
LINE
  8
0
 62
7
  6
CONTINUOUS
 10
157.0452088829
 20
75.2064473698
 11
157.0523997079
 21
74.916185831
  0
LINE
  8
0
 62
7
  6
CONTINUOUS
 10
156.5713572616
 20
163.1223103556
 11
156.5639300201
 21
163.470378343
  0
LINE
  8
0
 62
7
  6
CONTINUOUS
 10
157.0377249898
 20
75.5744610207
 11
157.0452088829
 21
75.2064473698
  0
LINE
  8
0
 62
7
  6
CONTINUOUS
 10
156.5789509702
 20
162.6928108106
 11
156.5713572616
 21
163.1223103556
  0
LINE
  8
0
 62
7
  6
CONTINUOUS
 10
157.0301037944
 20
76.0255339192
 11
157.0377249898
 21
75.5744610207
  0
LINE
  8
0
 62
7
  6
CONTINUOUS
 10
156.5866686314
 20
162.1707624456
 11
156.5789509702
 21
162.6928108106
  0
LINE
  8
0
 62
7
  6
CONTINUOUS
 10
157.0223495666
 20
76.5736433125
 11
157.0301037944
 21
76.0255339192
  0
LINE
  8
0
 62
7
  6
CONTINUOUS
 10
156.5945377539
 20
161.5361205891
 11
156.5866686314
 21
162.1707624456
  0
LINE
  8
0
 62
7
  6
CONTINUOUS
 10
157.0144279385
 20
77.2415556602
 11
157.0223495666
 21
76.5736433125
  0
LINE
  8
0
 62
7
  6
CONTINUOUS
 10
157.0081989794
 20
77.857982918
 11
157.0144279385
 21
77.2415556602
  0
LINE
  8
0
 62
7
  6
CONTINUOUS
 10
156.6027718835
 20
160.7392257838
 11
156.5945377539
 21
161.5361205891
  0
LINE
  8
0
 62
7
  6
CONTINUOUS
 10
157.0017000027
 20
78.6062203795
 11
157.0081989794
 21
77.857982918
  0
LINE
  8
0
 62
7
  6
CONTINUOUS
 10
156.6092708603
 20
159.9909883223
 11
156.6027718835
 21
160.7392257838
  0
LINE
  8
0
 62
7
  6
CONTINUOUS
 10
156.9951440017
 20
79.4998044873
 11
157.0017000027
 21
78.6062203795
  0
LINE
  8
0
 62
7
  6
CONTINUOUS
 10
156.6158268613
 20
159.0974042146
 11
156.6092708603
 21
159.9909883223
  0
LINE
  8
0
 62
7
  6
CONTINUOUS
 10
156.9886594922
 20
80.5729570578
 11
156.9951440017
 21
79.4998044873
  0
LINE
  8
0
 62
7
  6
CONTINUOUS
 10
156.6223113707
 20
158.024251644
 11
156.6158268613
 21
159.0974042146
  0
LINE
  8
0
 62
7
  6
CONTINUOUS
 10
156.9843680193
 20
81.4343645409
 11
156.9886594922
 21
80.5729570578
  0
LINE
  8
0
 62
7
  6
CONTINUOUS
 10
156.6266028437
 20
157.1628441609
 11
156.6223113707
 21
158.024251644
  0
LINE
  8
0
 62
7
  6
CONTINUOUS
 10
156.6307394213
 20
156.1533933456
 11
156.6266028437
 21
157.1628441609
  0
LINE
  8
0
 62
7
  6
CONTINUOUS
 10
156.9802314417
 20
82.4438153562
 11
156.9843680193
 21
81.4343645409
  0
LINE
  8
0
 62
7
  6
CONTINUOUS
 10
156.63429377
 20
155.044848727
 11
156.6307394213
 21
156.1533933456
  0
LINE
  8
0
 62
7
  6
CONTINUOUS
 10
156.9766770929
 20
83.5523599749
 11
156.9802314417
 21
82.4438153562
  0
LINE
  8
0
 62
7
  6
CONTINUOUS
 10
156.6369404433
 20
153.9195957824
 11
156.63429377
 21
155.044848727
  0
LINE
  8
0
 62
7
  6
CONTINUOUS
 10
156.9740304197
 20
84.6776129195
 11
156.9766770929
 21
83.5523599749
  0
LINE
  8
0
 62
7
  6
CONTINUOUS
 10
156.6387058154
 20
152.7767020249
 11
156.6369404433
 21
153.9195957824
  0
LINE
  8
0
 62
7
  6
CONTINUOUS
 10
156.9722650475
 20
85.820506677
 11
156.9740304197
 21
84.6776129195
  0
LINE
  8
0
 62
7
  6
CONTINUOUS
 10
156.6395903137
 20
151.6161418118
 11
156.6387058154
 21
152.7767020249
  0
LINE
  8
0
 62
7
  6
CONTINUOUS
 10
156.9713805493
 20
86.98106689
 11
156.9722650475
 21
85.820506677
  0
LINE
  8
0
 62
7
  6
CONTINUOUS
 10
156.6395903137
 20
151.6161418118
 11
156.6396967888
 21
144.5422349815
  0
LINE
  8
DEFAULT_1
 62
2
  6
CENTER
 10
156.8054854315
 20
124.5486043509
 11
156.8054854315
 21
121.2987043509
  0
LINE
  8
0
 62
2
  6
CONTINUOUS
 10
156.8054854315
 20
120.3486043509
 11
156.8054854315
 21
118.2486043509
  0
LINE
  8
DEFAULT_1
 62
2
  6
CENTER
 10
156.8054854315
 20
114.0486043509
 11
156.8054854315
 21
117.2985043509
  0
LINE
  8
0
 62
7
  6
CONTINUOUS
 10
156.9713805493
 20
86.98106689
 11
156.9712740742
 21
94.0549737204
  0
POLYLINE
  8
0
 62
7
  6
CONTINUOUS
 66
1
 70
0
  0
VERTEX
  8
0
 62
7
  6
CONTINUOUS
 10
140.6688078464
 20
97.5169102397
  0
VERTEX
  8
0
 62
7
  6
CONTINUOUS
 10
140.7162293106
 20
97.5889055008
  0
VERTEX
  8
0
 62
7
  6
CONTINUOUS
 10
140.77325764
 20
97.67046941
  0
VERTEX
  8
0
 62
7
  6
CONTINUOUS
 10
140.8295388311
 20
97.7456120829
  0
VERTEX
  8
0
 62
7
  6
CONTINUOUS
 10
140.8857278025
 20
97.8153716467
  0
VERTEX
  8
0
 62
7
  6
CONTINUOUS
 10
140.942525944
 20
97.8806027007
  0
VERTEX
  8
0
 62
7
  6
CONTINUOUS
 10
141.0004924591
 20
97.9417612321
  0
VERTEX
  8
0
 62
7
  6
CONTINUOUS
 10
141.0596926057
 20
97.9986424833
  0
VERTEX
  8
0
 62
7
  6
CONTINUOUS
 10
141.1200113864
 20
98.0508597763
  0
VERTEX
  8
0
 62
7
  6
CONTINUOUS
 10
141.1812129226
 20
98.0979684315
  0
VERTEX
  8
0
 62
7
  6
CONTINUOUS
 10
141.2430653037
 20
98.1395996127
  0
VERTEX
  8
0
 62
7
  6
CONTINUOUS
 10
141.3053596823
 20
98.175471155
  0
VERTEX
  8
0
 62
7
  6
CONTINUOUS
 10
141.3675969305
 20
98.2052521377
  0
VERTEX
  8
0
 62
7
  6
CONTINUOUS
 10
141.4296618807
 20
98.2289482173
  0
VERTEX
  8
0
 62
7
  6
CONTINUOUS
 10
141.4913602017
 20
98.2466298429
  0
VERTEX
  8
0
 62
7
  6
CONTINUOUS
 10
141.5520927252
 20
98.2584386447
  0
VERTEX
  8
0
 62
7
  6
CONTINUOUS
 10
141.6115088678
 20
98.2647959333
  0
VERTEX
  8
0
 62
7
  6
CONTINUOUS
 10
141.6589443782
 20
98.2663261538
  0
SEQEND
  0
LINE
  8
DEFAULT_1
 62
2
  6
CENTER
 10
162.0554854315
 20
119.2986043509
 11
158.8055854315
 21
119.2986043509
  0
LINE
  8
0
 62
2
  6
CONTINUOUS
 10
157.8554854315
 20
119.2986043509
 11
155.7554854315
 21
119.2986043509
  0
LINE
  8
DEFAULT_1
 62
2
  6
CENTER
 10
151.5554854315
 20
119.2986043509
 11
154.8053854315
 21
119.2986043509
  0
POLYLINE
  8
0
 62
7
  6
CONTINUOUS
 66
1
 70
0
  0
VERTEX
  8
0
 62
7
  6
CONTINUOUS
 10
156.5366073731
 20
164.2379714284
  0
VERTEX
  8
0
 62
7
  6
CONTINUOUS
 10
156.5350024622
 20
164.2624804544
  0
VERTEX
  8
0
 62
7
  6
CONTINUOUS
 10
156.5333407242
 20
164.286097925
  0
VERTEX
  8
0
 62
7
  6
CONTINUOUS
 10
156.5315997789
 20
164.3090802692
  0
VERTEX
  8
0
 62
7
  6
CONTINUOUS
 10
156.5297466182
 20
164.3317530721
  0
VERTEX
  8
0
 62
7
  6
CONTINUOUS
 10
156.5277380248
 20
164.3544701866
  0
VERTEX
  8
0
 62
7
  6
CONTINUOUS
 10
156.5255187438
 20
164.3776041061
  0
VERTEX
  8
0
 62
7
  6
CONTINUOUS
 10
156.5230252984
 20
164.4014820436
  0
VERTEX
  8
0
 62
7
  6
CONTINUOUS
 10
156.5201769926
 20
164.4264556349
  0
VERTEX
  8
0
 62
7
  6
CONTINUOUS
 10
156.5168694751
 20
164.4529166021
  0
VERTEX
  8
0
 62
7
  6
CONTINUOUS
 10
156.5129709467
 20
164.4812780258
  0
VERTEX
  8
0
 62
7
  6
CONTINUOUS
 10
156.5083180422
 20
164.5119573519
  0
VERTEX
  8
0
 62
7
  6
CONTINUOUS
 10
156.5027119719
 20
164.5453586118
  0
VERTEX
  8
0
 62
7
  6
CONTINUOUS
 10
156.4959872988
 20
164.5814873399
  0
VERTEX
  8
0
 62
7
  6
CONTINUOUS
 10
156.4880633497
 20
164.6198708463
  0
VERTEX
  8
0
 62
7
  6
CONTINUOUS
 10
156.4789368452
 20
164.6598165814
  0
VERTEX
  8
0
 62
7
  6
CONTINUOUS
 10
156.4683374518
 20
164.7018438854
  0
VERTEX
  8
0
 62
7
  6
CONTINUOUS
 10
156.4556051387
 20
164.7475880379
  0
VERTEX
  8
0
 62
7
  6
CONTINUOUS
 10
156.4397586398
 20
164.7990135341
  0
VERTEX
  8
0
 62
7
  6
CONTINUOUS
 10
156.4199559777
 20
164.856783852
  0
VERTEX
  8
0
 62
7
  6
CONTINUOUS
 10
156.39574557
 20
164.9200447343
  0
VERTEX
  8
0
 62
7
  6
CONTINUOUS
 10
156.3668491296
 20
164.9875764405
  0
VERTEX
  8
0
 62
7
  6
CONTINUOUS
 10
156.3327940885
 20
165.0587457429
  0
VERTEX
  8
0
 62
7
  6
CONTINUOUS
 10
156.2929140445
 20
165.1332569875
  0
VERTEX
  8
0
 62
7
  6
CONTINUOUS
 10
156.2465320741
 20
165.2106777593
  0
VERTEX
  8
0
 62
7
  6
CONTINUOUS
 10
156.192989013
 20
165.2904184398
  0
VERTEX
  8
0
 62
7
  6
CONTINUOUS
 10
156.1316438844
 20
165.3717626554
  0
VERTEX
  8
0
 62
7
  6
CONTINUOUS
 10
156.0616779684
 20
165.4541018263
  0
VERTEX
  8
0
 62
7
  6
CONTINUOUS
 10
155.9820370698
 20
165.5368689997
  0
VERTEX
  8
0
 62
7
  6
CONTINUOUS
 10
155.8920691092
 20
165.6188556623
  0
VERTEX
  8
0
 62
7
  6
CONTINUOUS
 10
155.7926536657
 20
165.6976253605
  0
VERTEX
  8
0
 62
7
  6
CONTINUOUS
 10
155.6853762073
 20
165.7708286949
  0
VERTEX
  8
0
 62
7
  6
CONTINUOUS
 10
155.5722554033
 20
165.8365667989
  0
VERTEX
  8
0
 62
7
  6
CONTINUOUS
 10
155.4548980354
 20
165.8938165154
  0
VERTEX
  8
0
 62
7
  6
CONTINUOUS
 10
155.3339294395
 20
165.9423323666
  0
VERTEX
  8
0
 62
7
  6
CONTINUOUS
 10
155.2098912599
 20
165.9819395466
  0
VERTEX
  8
0
 62
7
  6
CONTINUOUS
 10
155.0833248325
 20
166.0124802063
  0
VERTEX
  8
0
 62
7
  6
CONTINUOUS
 10
154.9547710885
 20
166.0338119941
  0
VERTEX
  8
0
 62
7
  6
CONTINUOUS
 10
154.8247761995
 20
166.045805827
  0
VERTEX
  8
0
 62
7
  6
CONTINUOUS
 10
154.7244167521
 20
166.0486042165
  0
SEQEND
  0
LINE
  8
0
 62
7
  6
CONTINUOUS
 10
156.5397035859
 20
164.1854967043
 11
156.5366073731
 21
164.2379714284
  0
LINE
  8
0
 62
7
  6
CONTINUOUS
 10
156.5427186256
 20
164.1271672027
 11
156.5397035859
 21
164.1854967043
  0
LINE
  8
0
 62
7
  6
CONTINUOUS
 10
156.5457189158
 20
164.0613863673
 11
156.5427186256
 21
164.1271672027
  0
LINE
  8
0
 62
7
  6
CONTINUOUS
 10
156.5487506456
 20
163.9865319389
 11
156.5457189158
 21
164.0613863673
  0
LINE
  8
0
 62
7
  6
CONTINUOUS
 10
156.5534861016
 20
163.851676166
 11
156.5487506456
 21
163.9865319389
  0
LINE
  8
0
 62
7
  6
CONTINUOUS
 10
156.5585711551
 20
163.6810228708
 11
156.5534861016
 21
163.851676166
  0
LINE
  8
0
 62
7
  6
CONTINUOUS
 10
156.5639300201
 20
163.470378343
 11
156.5585711551
 21
163.6810228708
  0
POLYLINE
  8
0
 62
7
  6
CONTINUOUS
 66
1
 70
0
  0
VERTEX
  8
0
 62
7
  6
CONTINUOUS
 10
172.9421630166
 20
141.0802984621
  0
VERTEX
  8
0
 62
7
  6
CONTINUOUS
 10
172.8995269534
 20
141.0153964983
  0
VERTEX
  8
0
 62
7
  6
CONTINUOUS
 10
172.8448962408
 20
140.9367114471
  0
VERTEX
  8
0
 62
7
  6
CONTINUOUS
 10
172.7893828513
 20
140.8618910752
  0
VERTEX
  8
0
 62
7
  6
CONTINUOUS
 10
172.7329442086
 20
140.7910891657
  0
VERTEX
  8
0
 62
7
  6
CONTINUOUS
 10
172.6756044685
 20
140.7245380565
  0
VERTEX
  8
0
 62
7
  6
CONTINUOUS
 10
172.617328017
 20
140.6623915282
  0
VERTEX
  8
0
 62
7
  6
CONTINUOUS
 10
172.5580134274
 20
140.6047552534
  0
VERTEX
  8
0
 62
7
  6
CONTINUOUS
 10
172.4976476137
 20
140.5518547613
  0
VERTEX
  8
0
 62
7
  6
CONTINUOUS
 10
172.4363085964
 20
140.5040008585
  0
VERTEX
  8
0
 62
7
  6
CONTINUOUS
 10
172.3740726593
 20
140.4614908163
  0
VERTEX
  8
0
 62
7
  6
CONTINUOUS
 10
172.3110370577
 20
140.424620592
  0
VERTEX
  8
0
 62
7
  6
CONTINUOUS
 10
172.2477937492
 20
140.393872168
  0
VERTEX
  8
0
 62
7
  6
CONTINUOUS
 10
172.1845895969
 20
140.3693638213
  0
VERTEX
  8
0
 62
7
  6
CONTINUOUS
 10
172.1216959474
 20
140.3510820088
  0
VERTEX
  8
0
 62
7
  6
CONTINUOUS
 10
172.0598713453
 20
140.3389194316
  0
VERTEX
  8
0
 62
7
  6
CONTINUOUS
 10
171.9996182957
 20
140.3324229337
  0
VERTEX
  8
0
 62
7
  6
CONTINUOUS
 10
171.9520264848
 20
140.3308825479
  0
SEQEND
  0
LINE
  8
0
 62
7
  6
CONTINUOUS
 10
173.7313386137
 20
161.9447859648
 11
173.7200147921
 21
160.9281924258
  0
LINE
  8
0
 62
7
  6
CONTINUOUS
 10
173.7425101131
 20
162.722945357
 11
173.7313386137
 21
161.9447859648
  0
LINE
  8
0
 62
7
  6
CONTINUOUS
 10
173.7532785862
 20
163.30252096
 11
173.7425101131
 21
162.722945357
  0
LINE
  8
0
 62
7
  6
CONTINUOUS
 10
173.760549457
 20
163.6119642679
 11
173.7532785862
 21
163.30252096
  0
LINE
  8
0
 62
7
  6
CONTINUOUS
 10
173.7658436915
 20
163.7996059195
 11
173.760549457
 21
163.6119642679
  0
LINE
  8
0
 62
7
  6
CONTINUOUS
 10
173.7706786209
 20
163.9450871585
 11
173.7658436915
 21
163.7996059195
  0
LINE
  8
0
 62
7
  6
CONTINUOUS
 10
173.7741560054
 20
164.0353253665
 11
173.7706786209
 21
163.9450871585
  0
LINE
  8
0
 62
7
  6
CONTINUOUS
 10
173.7776376427
 20
164.1143399223
 11
173.7741560054
 21
164.0353253665
  0
LINE
  8
0
 62
7
  6
CONTINUOUS
 10
173.7800064986
 20
164.1620145037
 11
173.7776376427
 21
164.1143399223
  0
LINE
  8
0
 62
7
  6
CONTINUOUS
 10
173.7824608384
 20
164.2065741006
 11
173.7800064986
 21
164.1620145037
  0
LINE
  8
0
 62
7
  6
CONTINUOUS
 10
173.7850651482
 20
164.248900624
 11
173.7824608384
 21
164.2065741006
  0
POLYLINE
  8
0
 62
7
  6
CONTINUOUS
 66
1
 70
0
  0
VERTEX
  8
0
 62
7
  6
CONTINUOUS
 10
157.3788077916
 20
141.0802986591
  0
VERTEX
  8
0
 62
7
  6
CONTINUOUS
 10
157.2822474754
 20
141.2418342783
  0
VERTEX
  8
0
 62
7
  6
CONTINUOUS
 10
157.1876420942
 20
141.4245479408
  0
VERTEX
  8
0
 62
7
  6
CONTINUOUS
 10
157.1006971298
 20
141.618907254
  0
VERTEX
  8
0
 62
7
  6
CONTINUOUS
 10
157.0211924622
 20
141.8249605771
  0
VERTEX
  8
0
 62
7
  6
CONTINUOUS
 10
156.9489950329
 20
142.0429530995
  0
VERTEX
  8
0
 62
7
  6
CONTINUOUS
 10
156.8842321659
 20
142.2726031827
  0
VERTEX
  8
0
 62
7
  6
CONTINUOUS
 10
156.8269561306
 20
142.5139174671
  0
VERTEX
  8
0
 62
7
  6
CONTINUOUS
 10
156.7771904725
 20
142.7671712426
  0
VERTEX
  8
0
 62
7
  6
CONTINUOUS
 10
156.7349977802
 20
143.0326324571
  0
VERTEX
  8
0
 62
7
  6
CONTINUOUS
 10
156.7004487985
 20
143.3106263462
  0
VERTEX
  8
0
 62
7
  6
CONTINUOUS
 10
156.6736014423
 20
143.60165116
  0
VERTEX
  8
0
 62
7
  6
CONTINUOUS
 10
156.6545097251
 20
143.9062660014
  0
VERTEX
  8
0
 62
7
  6
CONTINUOUS
 10
156.6432154986
 20
144.2249135132
  0
VERTEX
  8
0
 62
7
  6
CONTINUOUS
 10
156.6396966894
 20
144.5422349815
  0
SEQEND
  0
LINE
  8
0
 62
7
  6
CONTINUOUS
 10
173.3654854315
 20
115.9704094678
 11
173.3654854315
 21
81.2826643882
  0
LINE
  8
0
 62
7
  6
CONTINUOUS
 10
173.6816556445
 20
152.1223438686
 11
173.6812740742
 21
144.542234981
  0
LINE
  8
0
 62
7
  6
CONTINUOUS
 10
173.6834594949
 20
153.6082196921
 11
173.6816556445
 21
152.1223438686
  0
LINE
  8
0
 62
7
  6
CONTINUOUS
 10
173.6863589957
 20
154.9281576351
 11
173.6834594949
 21
153.6082196921
  0
LINE
  8
0
 62
7
  6
CONTINUOUS
 10
173.6900370378
 20
156.099902615
 11
173.6863589957
 21
154.9281576351
  0
LINE
  8
0
 62
7
  6
CONTINUOUS
 10
173.6957969374
 20
157.4666962264
 11
173.6900370378
 21
156.099902615
  0
LINE
  8
0
 62
7
  6
CONTINUOUS
 10
173.7037953712
 20
158.8921027171
 11
173.6957969374
 21
157.4666962264
  0
LINE
  8
0
 62
7
  6
CONTINUOUS
 10
173.3240166969
 20
79.2367043397
 11
173.3332315065
 21
80.7463892685
  0
LINE
  8
0
 62
7
  6
CONTINUOUS
 10
173.7135528125
 20
160.2166718987
 11
173.7037953712
 21
158.8921027171
  0
LINE
  8
0
 62
7
  6
CONTINUOUS
 10
173.3127928515
 20
77.8602124761
 11
173.3240166969
 21
79.2367043397
  0
LINE
  8
0
 62
7
  6
CONTINUOUS
 10
173.7200147921
 20
160.9281924258
 11
173.7135528125
 21
160.2166718987
  0
POLYLINE
  8
0
 62
7
  6
CONTINUOUS
 66
1
 70
0
  0
VERTEX
  8
0
 62
7
  6
CONTINUOUS
 10
173.6812741746
 20
144.542234981
  0
VERTEX
  8
0
 62
7
  6
CONTINUOUS
 10
173.6777262503
 20
144.2236336461
  0
VERTEX
  8
0
 62
7
  6
CONTINUOUS
 10
173.6664002851
 20
143.9050196504
  0
VERTEX
  8
0
 62
7
  6
CONTINUOUS
 10
173.647275661
 20
143.6004372787
  0
VERTEX
  8
0
 62
7
  6
CONTINUOUS
 10
173.6203943472
 20
143.3094441758
  0
VERTEX
  8
0
 62
7
  6
CONTINUOUS
 10
173.5858104185
 20
143.0314817201
  0
VERTEX
  8
0
 62
7
  6
CONTINUOUS
 10
173.5435818099
 20
142.766052085
  0
VERTEX
  8
0
 62
7
  6
CONTINUOUS
 10
173.4937793149
 20
142.5128305763
  0
VERTEX
  8
0
 62
7
  6
CONTINUOUS
 10
173.4364655631
 20
142.2715497316
  0
VERTEX
  8
0
 62
7
  6
CONTINUOUS
 10
173.3716640238
 20
142.0419344583
  0
VERTEX
  8
0
 62
7
  6
CONTINUOUS
 10
173.2994269437
 20
141.8239785741
  0
VERTEX
  8
0
 62
7
  6
CONTINUOUS
 10
173.2198818738
 20
141.6179647114
  0
VERTEX
  8
0
 62
7
  6
CONTINUOUS
 10
173.1328955211
 20
141.4236479278
  0
VERTEX
  8
0
 62
7
  6
CONTINUOUS
 10
173.0382473215
 20
141.2409801216
  0
VERTEX
  8
0
 62
7
  6
CONTINUOUS
 10
172.9421629657
 20
141.0802984947
  0
SEQEND
  0
LINE
  8
0
 62
7
  6
CONTINUOUS
 10
173.3001979642
 20
76.6972913925
 11
173.3127928515
 21
77.8602124761
  0
LINE
  8
0
 62
7
  6
CONTINUOUS
 10
173.2867314294
 20
75.7706867422
 11
173.3001979642
 21
76.6972913925
  0
LINE
  8
0
 62
7
  6
CONTINUOUS
 10
173.2769551963
 20
75.2604599918
 11
173.2867314294
 21
75.7706867422
  0
LINE
  8
0
 62
7
  6
CONTINUOUS
 10
173.2701829123
 20
74.976128748
 11
173.2769551963
 21
75.2604599918
  0
POLYLINE
  8
0
 62
7
  6
CONTINUOUS
 66
1
 70
0
  0
VERTEX
  8
0
 62
7
  6
CONTINUOUS
 10
173.3654854315
 20
81.2826643882
  0
VERTEX
  8
0
 62
7
  6
CONTINUOUS
 10
173.3581742887
 20
81.0240641526
  0
VERTEX
  8
0
 62
7
  6
CONTINUOUS
 10
173.3364781954
 20
80.7691245487
  0
VERTEX
  8
0
 62
7
  6
CONTINUOUS
 10
173.3010873022
 20
80.5212960992
  0
VERTEX
  8
0
 62
7
  6
CONTINUOUS
 10
173.2530831666
 20
80.2836374345
  0
VERTEX
  8
0
 62
7
  6
CONTINUOUS
 10
173.193843751
 20
80.058665669
  0
VERTEX
  8
0
 62
7
  6
CONTINUOUS
 10
173.1249276269
 20
79.8482659842
  0
VERTEX
  8
0
 62
7
  6
CONTINUOUS
 10
173.0479734702
 20
79.6537130808
  0
VERTEX
  8
0
 62
7
  6
CONTINUOUS
 10
172.9646035596
 20
79.4756990231
  0
VERTEX
  8
0
 62
7
  6
CONTINUOUS
 10
172.8763325353
 20
79.3143787259
  0
VERTEX
  8
0
 62
7
  6
CONTINUOUS
 10
172.7845213938
 20
79.1694904337
  0
VERTEX
  8
0
 62
7
  6
CONTINUOUS
 10
172.6903429223
 20
79.0404529528
  0
VERTEX
  8
0
 62
7
  6
CONTINUOUS
 10
172.5947680286
 20
78.926463974
  0
VERTEX
  8
0
 62
7
  6
CONTINUOUS
 10
172.4985728446
 20
78.8265935055
  0
VERTEX
  8
0
 62
7
  6
CONTINUOUS
 10
172.4023395718
 20
78.7398446979
  0
VERTEX
  8
0
 62
7
  6
CONTINUOUS
 10
172.3064886632
 20
78.665226364
  0
VERTEX
  8
0
 62
7
  6
CONTINUOUS
 10
172.2112924687
 20
78.6017880149
  0
VERTEX
  8
0
 62
7
  6
CONTINUOUS
 10
172.1169030608
 20
78.5486552274
  0
VERTEX
  8
0
 62
7
  6
CONTINUOUS
 10
172.0233641953
 20
78.5050454494
  0
VERTEX
  8
0
 62
7
  6
CONTINUOUS
 10
171.9306500014
 20
78.4702909789
  0
VERTEX
  8
0
 62
7
  6
CONTINUOUS
 10
171.8386653066
 20
78.4438374925
  0
VERTEX
  8
0
 62
7
  6
CONTINUOUS
 10
171.7472619862
 20
78.4252510427
  0
VERTEX
  8
0
 62
7
  6
CONTINUOUS
 10
171.6562683638
 20
78.4142233432
  0
VERTEX
  8
0
 62
7
  6
CONTINUOUS
 10
171.5654854315
 20
78.4105681627
  0
SEQEND
  0
LINE
  8
0
 62
7
  6
CONTINUOUS
 10
173.2647432725
 20
74.7851693492
 11
173.2701829123
 21
74.976128748
  0
LINE
  8
0
 62
7
  6
CONTINUOUS
 10
173.2604220471
 20
74.6557179519
 11
173.2647432725
 21
74.7851693492
  0
LINE
  8
0
 62
7
  6
CONTINUOUS
 10
173.2571620686
 20
74.570373423
 11
173.2604220471
 21
74.6557179519
  0
LINE
  8
0
 62
7
  6
CONTINUOUS
 10
173.2538487151
 20
74.4938813856
 11
173.2571620686
 21
74.570373423
  0
LINE
  8
0
 62
7
  6
CONTINUOUS
 10
173.2515800624
 20
74.447131324
 11
173.2538487151
 21
74.4938813856
  0
LINE
  8
0
 62
7
  6
CONTINUOUS
 10
173.2492283368
 20
74.4031876936
 11
173.2515800624
 21
74.447131324
  0
LINE
  8
0
 62
7
  6
CONTINUOUS
 10
173.2467454313
 20
74.3614278834
 11
173.2492283368
 21
74.4031876936
  0
POLYLINE
  8
0
 62
7
  6
CONTINUOUS
 66
1
 70
0
  0
VERTEX
  8
0
 62
7
  6
CONTINUOUS
 10
173.3673547893
 20
94.7464903202
  0
VERTEX
  8
0
 62
7
  6
CONTINUOUS
 10
173.385312148
 20
95.0174146729
  0
VERTEX
  8
0
 62
7
  6
CONTINUOUS
 10
173.4115305055
 20
95.2965490655
  0
VERTEX
  8
0
 62
7
  6
CONTINUOUS
 10
173.4454780622
 20
95.5679704676
  0
VERTEX
  8
0
 62
7
  6
CONTINUOUS
 10
173.4873603638
 20
95.8309949931
  0
VERTEX
  8
0
 62
7
  6
CONTINUOUS
 10
173.5372746569
 20
96.0847616124
  0
VERTEX
  8
0
 62
7
  6
CONTINUOUS
 10
173.5951789172
 20
96.3282535792
  0
VERTEX
  8
0
 62
7
  6
CONTINUOUS
 10
173.6609506688
 20
96.5606321965
  0
VERTEX
  8
0
 62
7
  6
CONTINUOUS
 10
173.7344157943
 20
96.7812284997
  0
VERTEX
  8
0
 62
7
  6
CONTINUOUS
 10
173.8151905674
 20
96.989070382
  0
VERTEX
  8
0
 62
7
  6
CONTINUOUS
 10
173.90271707
 20
97.1831641354
  0
VERTEX
  8
0
 62
7
  6
CONTINUOUS
 10
173.9964801066
 20
97.3629472801
  0
VERTEX
  8
0
 62
7
  6
CONTINUOUS
 10
174.0888078972
 20
97.5169102071
  0
SEQEND
  0
LINE
  8
0
 62
7
  6
CONTINUOUS
 10
71.6920265432
 20
140.3308823642
 11
58.4054854315
 21
140.3308823642
  0
LINE
  8
0
 62
7
  6
CONTINUOUS
 10
91.5289443126
 20
140.3308823642
 11
105.1120264849
 21
140.3308823642
  0
LINE
  8
0
 62
7
  6
CONTINUOUS
 10
124.9489443126
 20
140.3308823642
 11
138.5320264848
 21
140.3308823642
  0
LINE
  8
0
 62
7
  6
CONTINUOUS
 10
158.3689443126
 20
140.3308823642
 11
171.9520264848
 21
140.3308823642
  0
LINE
  8
0
 62
7
  6
CONTINUOUS
 10
191.7889443126
 20
140.3308823642
 11
205.3720264849
 21
140.3308823642
  0
LINE
  8
0
 62
7
  6
CONTINUOUS
 10
225.2089443126
 20
140.3308823642
 11
239.0247463246
 21
140.3308823642
  0
POLYLINE
  8
0
 62
7
  6
CONTINUOUS
 66
1
 70
0
  0
VERTEX
  8
0
 62
7
  6
CONTINUOUS
 10
158.3689443126
 20
140.3308825461
  0
VERTEX
  8
0
 62
7
  6
CONTINUOUS
 10
158.3207212136
 20
140.3324643398
  0
VERTEX
  8
0
 62
7
  6
CONTINUOUS
 10
158.2614239632
 20
140.3388704766
  0
VERTEX
  8
0
 62
7
  6
CONTINUOUS
 10
158.2008215299
 20
140.3507082036
  0
VERTEX
  8
0
 62
7
  6
CONTINUOUS
 10
158.1392621528
 20
140.3683940317
  0
VERTEX
  8
0
 62
7
  6
CONTINUOUS
 10
158.0773401682
 20
140.3920670134
  0
VERTEX
  8
0
 62
7
  6
CONTINUOUS
 10
158.0152509093
 20
140.4217948883
  0
VERTEX
  8
0
 62
7
  6
CONTINUOUS
 10
157.9531025335
 20
140.4575858341
  0
VERTEX
  8
0
 62
7
  6
CONTINUOUS
 10
157.8913850856
 20
140.4991160628
  0
VERTEX
  8
0
 62
7
  6
CONTINUOUS
 10
157.8303029436
 20
140.5461105179
  0
VERTEX
  8
0
 62
7
  6
CONTINUOUS
 10
157.7700598812
 20
140.5982308018
  0
VERTEX
  8
0
 62
7
  6
CONTINUOUS
 10
157.710870607
 20
140.6550663041
  0
VERTEX
  8
0
 62
7
  6
CONTINUOUS
 10
157.6528329588
 20
140.716267724
  0
VERTEX
  8
0
 62
7
  6
CONTINUOUS
 10
157.5958549535
 20
140.7816851201
  0
VERTEX
  8
0
 62
7
  6
CONTINUOUS
 10
157.5393932732
 20
140.85178414
  0
VERTEX
  8
0
 62
7
  6
CONTINUOUS
 10
157.4828083919
 20
140.9273604392
  0
VERTEX
  8
0
 62
7
  6
CONTINUOUS
 10
157.4254946304
 20
141.0093896919
  0
VERTEX
  8
0
 62
7
  6
CONTINUOUS
 10
157.378807741
 20
141.0802986266
  0
SEQEND
  0
POLYLINE
  8
0
 62
7
  6
CONTINUOUS
 66
1
 70
0
  0
VERTEX
  8
0
 62
7
  6
CONTINUOUS
 10
91.5289443126
 20
140.330882546
  0
VERTEX
  8
0
 62
7
  6
CONTINUOUS
 10
91.4804374659
 20
140.3324831308
  0
VERTEX
  8
0
 62
7
  6
CONTINUOUS
 10
91.4201493141
 20
140.3390636825
  0
VERTEX
  8
0
 62
7
  6
CONTINUOUS
 10
91.3582928683
 20
140.3513212311
  0
VERTEX
  8
0
 62
7
  6
CONTINUOUS
 10
91.2953739558
 20
140.3697059267
  0
VERTEX
  8
0
 62
7
  6
CONTINUOUS
 10
91.232153346
 20
140.3943202177
  0
VERTEX
  8
0
 62
7
  6
CONTINUOUS
 10
91.1688994842
 20
140.4251754007
  0
VERTEX
  8
0
 62
7
  6
CONTINUOUS
 10
91.1058596221
 20
140.4621503845
  0
VERTEX
  8
0
 62
7
  6
CONTINUOUS
 10
91.0436227062
 20
140.5047625419
  0
VERTEX
  8
0
 62
7
  6
CONTINUOUS
 10
90.9822839519
 20
140.5527166817
  0
VERTEX
  8
0
 62
7
  6
CONTINUOUS
 10
90.9219203802
 20
140.6057146363
  0
VERTEX
  8
0
 62
7
  6
CONTINUOUS
 10
90.8626095849
 20
140.6634455888
  0
VERTEX
  8
0
 62
7
  6
CONTINUOUS
 10
90.8043376548
 20
140.7256846578
  0
VERTEX
  8
0
 62
7
  6
CONTINUOUS
 10
90.7470021912
 20
140.7923273242
  0
VERTEX
  8
0
 62
7
  6
CONTINUOUS
 10
90.6905676773
 20
140.863219799
  0
VERTEX
  8
0
 62
7
  6
CONTINUOUS
 10
90.6350580739
 20
140.9381297226
  0
VERTEX
  8
0
 62
7
  6
CONTINUOUS
 10
90.580430605
 20
141.016903446
  0
VERTEX
  8
0
 62
7
  6
CONTINUOUS
 10
90.5388077409
 20
141.0802986266
  0
SEQEND
  0
POLYLINE
  8
0
 62
7
  6
CONTINUOUS
 66
1
 70
0
  0
VERTEX
  8
0
 62
7
  6
CONTINUOUS
 10
124.9489443126
 20
140.330882546
  0
VERTEX
  8
0
 62
7
  6
CONTINUOUS
 10
124.9004374659
 20
140.3324831308
  0
VERTEX
  8
0
 62
7
  6
CONTINUOUS
 10
124.8401493141
 20
140.3390636825
  0
VERTEX
  8
0
 62
7
  6
CONTINUOUS
 10
124.7782928683
 20
140.3513212311
  0
VERTEX
  8
0
 62
7
  6
CONTINUOUS
 10
124.7153739558
 20
140.3697059267
  0
VERTEX
  8
0
 62
7
  6
CONTINUOUS
 10
124.652153346
 20
140.3943202177
  0
VERTEX
  8
0
 62
7
  6
CONTINUOUS
 10
124.5888994842
 20
140.4251754007
  0
VERTEX
  8
0
 62
7
  6
CONTINUOUS
 10
124.5258596221
 20
140.4621503845
  0
VERTEX
  8
0
 62
7
  6
CONTINUOUS
 10
124.4636227062
 20
140.5047625419
  0
VERTEX
  8
0
 62
7
  6
CONTINUOUS
 10
124.4022839519
 20
140.5527166817
  0
VERTEX
  8
0
 62
7
  6
CONTINUOUS
 10
124.3419203802
 20
140.6057146363
  0
VERTEX
  8
0
 62
7
  6
CONTINUOUS
 10
124.2826095849
 20
140.6634455888
  0
VERTEX
  8
0
 62
7
  6
CONTINUOUS
 10
124.2243376548
 20
140.7256846578
  0
VERTEX
  8
0
 62
7
  6
CONTINUOUS
 10
124.1670021912
 20
140.7923273242
  0
VERTEX
  8
0
 62
7
  6
CONTINUOUS
 10
124.1105676773
 20
140.863219799
  0
VERTEX
  8
0
 62
7
  6
CONTINUOUS
 10
124.0550580739
 20
140.9381297226
  0
VERTEX
  8
0
 62
7
  6
CONTINUOUS
 10
124.000430605
 20
141.016903446
  0
VERTEX
  8
0
 62
7
  6
CONTINUOUS
 10
123.9588077409
 20
141.0802986266
  0
SEQEND
  0
POLYLINE
  8
0
 62
7
  6
CONTINUOUS
 66
1
 70
0
  0
VERTEX
  8
0
 62
7
  6
CONTINUOUS
 10
191.7889443126
 20
140.330882546
  0
VERTEX
  8
0
 62
7
  6
CONTINUOUS
 10
191.7404374659
 20
140.3324831308
  0
VERTEX
  8
0
 62
7
  6
CONTINUOUS
 10
191.6801493141
 20
140.3390636825
  0
VERTEX
  8
0
 62
7
  6
CONTINUOUS
 10
191.6182928683
 20
140.3513212311
  0
VERTEX
  8
0
 62
7
  6
CONTINUOUS
 10
191.5553739558
 20
140.3697059267
  0
VERTEX
  8
0
 62
7
  6
CONTINUOUS
 10
191.492153346
 20
140.3943202177
  0
VERTEX
  8
0
 62
7
  6
CONTINUOUS
 10
191.4288994842
 20
140.4251754007
  0
VERTEX
  8
0
 62
7
  6
CONTINUOUS
 10
191.3658596221
 20
140.4621503845
  0
VERTEX
  8
0
 62
7
  6
CONTINUOUS
 10
191.3036227062
 20
140.5047625419
  0
VERTEX
  8
0
 62
7
  6
CONTINUOUS
 10
191.2422839519
 20
140.5527166817
  0
VERTEX
  8
0
 62
7
  6
CONTINUOUS
 10
191.1819203802
 20
140.6057146363
  0
VERTEX
  8
0
 62
7
  6
CONTINUOUS
 10
191.1226095849
 20
140.6634455888
  0
VERTEX
  8
0
 62
7
  6
CONTINUOUS
 10
191.0643376548
 20
140.7256846578
  0
VERTEX
  8
0
 62
7
  6
CONTINUOUS
 10
191.0070021912
 20
140.7923273242
  0
VERTEX
  8
0
 62
7
  6
CONTINUOUS
 10
190.9505676773
 20
140.863219799
  0
VERTEX
  8
0
 62
7
  6
CONTINUOUS
 10
190.8950580739
 20
140.9381297226
  0
VERTEX
  8
0
 62
7
  6
CONTINUOUS
 10
190.840430605
 20
141.016903446
  0
VERTEX
  8
0
 62
7
  6
CONTINUOUS
 10
190.7988077409
 20
141.0802986266
  0
SEQEND
  0
POLYLINE
  8
0
 62
7
  6
CONTINUOUS
 66
1
 70
0
  0
VERTEX
  8
0
 62
7
  6
CONTINUOUS
 10
225.2089443126
 20
140.330882546
  0
VERTEX
  8
0
 62
7
  6
CONTINUOUS
 10
225.1604374659
 20
140.3324831308
  0
VERTEX
  8
0
 62
7
  6
CONTINUOUS
 10
225.1001493141
 20
140.3390636825
  0
VERTEX
  8
0
 62
7
  6
CONTINUOUS
 10
225.0382928683
 20
140.3513212311
  0
VERTEX
  8
0
 62
7
  6
CONTINUOUS
 10
224.9753739558
 20
140.3697059267
  0
VERTEX
  8
0
 62
7
  6
CONTINUOUS
 10
224.912153346
 20
140.3943202177
  0
VERTEX
  8
0
 62
7
  6
CONTINUOUS
 10
224.8488994842
 20
140.4251754007
  0
VERTEX
  8
0
 62
7
  6
CONTINUOUS
 10
224.7858596221
 20
140.4621503845
  0
VERTEX
  8
0
 62
7
  6
CONTINUOUS
 10
224.7236227062
 20
140.5047625419
  0
VERTEX
  8
0
 62
7
  6
CONTINUOUS
 10
224.6622839519
 20
140.5527166817
  0
VERTEX
  8
0
 62
7
  6
CONTINUOUS
 10
224.6019203802
 20
140.6057146363
  0
VERTEX
  8
0
 62
7
  6
CONTINUOUS
 10
224.5426095849
 20
140.6634455888
  0
VERTEX
  8
0
 62
7
  6
CONTINUOUS
 10
224.4843376548
 20
140.7256846578
  0
VERTEX
  8
0
 62
7
  6
CONTINUOUS
 10
224.4270021912
 20
140.7923273242
  0
VERTEX
  8
0
 62
7
  6
CONTINUOUS
 10
224.3705676773
 20
140.863219799
  0
VERTEX
  8
0
 62
7
  6
CONTINUOUS
 10
224.3150580739
 20
140.9381297226
  0
VERTEX
  8
0
 62
7
  6
CONTINUOUS
 10
224.260430605
 20
141.016903446
  0
VERTEX
  8
0
 62
7
  6
CONTINUOUS
 10
224.2188077409
 20
141.0802986266
  0
SEQEND
  0
POLYLINE
  8
0
 62
7
  6
CONTINUOUS
 66
1
 70
0
  0
VERTEX
  8
0
 62
7
  6
CONTINUOUS
 10
189.6521630714
 20
97.5169100428
  0
VERTEX
  8
0
 62
7
  6
CONTINUOUS
 10
189.7450103743
 20
97.36202018
  0
VERTEX
  8
0
 62
7
  6
CONTINUOUS
 10
189.8387286737
 20
97.1821849265
  0
VERTEX
  8
0
 62
7
  6
CONTINUOUS
 10
189.9262109632
 20
96.988041951
  0
VERTEX
  8
0
 62
7
  6
CONTINUOUS
 10
190.0069418871
 20
96.7801538629
  0
VERTEX
  8
0
 62
7
  6
CONTINUOUS
 10
190.0803639209
 20
96.5595135424
  0
VERTEX
  8
0
 62
7
  6
CONTINUOUS
 10
190.1460935226
 20
96.3270925852
  0
VERTEX
  8
0
 62
7
  6
CONTINUOUS
 10
190.2039565813
 20
96.0835597939
  0
VERTEX
  8
0
 62
7
  6
CONTINUOUS
 10
190.2538307736
 20
95.8297533469
  0
VERTEX
  8
0
 62
7
  6
CONTINUOUS
 10
190.2956742352
 20
95.5666894645
  0
VERTEX
  8
0
 62
7
  6
CONTINUOUS
 10
190.3295842934
 20
95.2952287939
  0
VERTEX
  8
0
 62
7
  6
CONTINUOUS
 10
190.3557665284
 20
95.0160549601
  0
VERTEX
  8
0
 62
7
  6
CONTINUOUS
 10
190.3736160741
 20
94.746490299
  0
SEQEND
  0
POLYLINE
  8
0
 62
7
  6
CONTINUOUS
 66
1
 70
0
  0
VERTEX
  8
0
 62
7
  6
CONTINUOUS
 10
190.4942909627
 20
74.3603864169
  0
VERTEX
  8
0
 62
7
  6
CONTINUOUS
 10
190.4959187665
 20
74.3354605049
  0
VERTEX
  8
0
 62
7
  6
CONTINUOUS
 10
190.497623125
 20
74.3112069002
  0
VERTEX
  8
0
 62
7
  6
CONTINUOUS
 10
190.4994246056
 20
74.2874486434
  0
VERTEX
  8
0
 62
7
  6
CONTINUOUS
 10
190.5013507117
 20
74.2639707137
  0
VERTEX
  8
0
 62
7
  6
CONTINUOUS
 10
190.5034373919
 20
74.2405241649
  0
VERTEX
  8
0
 62
7
  6
CONTINUOUS
 10
190.5057303194
 20
74.2168359441
  0
VERTEX
  8
0
 62
7
  6
CONTINUOUS
 10
190.5082948106
 20
74.192540958
  0
VERTEX
  8
0
 62
7
  6
CONTINUOUS
 10
190.5112237184
 20
74.167171015
  0
VERTEX
  8
0
 62
7
  6
CONTINUOUS
 10
190.5146439026
 20
74.1401765969
  0
VERTEX
  8
0
 62
7
  6
CONTINUOUS
 10
190.5187111805
 20
74.1110368322
  0
VERTEX
  8
0
 62
7
  6
CONTINUOUS
 10
190.5236034458
 20
74.0793389097
  0
VERTEX
  8
0
 62
7
  6
CONTINUOUS
 10
190.5295382438
 20
74.0446788744
  0
VERTEX
  8
0
 62
7
  6
CONTINUOUS
 10
190.5367172025
 20
74.0069768941
  0
VERTEX
  8
0
 62
7
  6
CONTINUOUS
 10
190.5451542385
 20
73.9671258053
  0
VERTEX
  8
0
 62
7
  6
CONTINUOUS
 10
190.554754379
 20
73.9262050988
  0
VERTEX
  8
0
 62
7
  6
CONTINUOUS
 10
190.5659084044
 20
73.8831554251
  0
VERTEX
  8
0
 62
7
  6
CONTINUOUS
 10
190.5794844355
 20
73.8357288343
  0
VERTEX
  8
0
 62
7
  6
CONTINUOUS
 10
190.5963923566
 20
73.7824620544
  0
VERTEX
  8
0
 62
7
  6
CONTINUOUS
 10
190.6173640591
 20
73.7231375331
  0
VERTEX
  8
0
 62
7
  6
CONTINUOUS
 10
190.6430674231
 20
73.6580741646
  0
VERTEX
  8
0
 62
7
  6
CONTINUOUS
 10
190.6739301344
 20
73.5883028844
  0
VERTEX
  8
0
 62
7
  6
CONTINUOUS
 10
190.7102375681
 20
73.5150313226
  0
VERTEX
  8
0
 62
7
  6
CONTINUOUS
 10
190.752367244
 20
73.4391144538
  0
VERTEX
  8
0
 62
7
  6
CONTINUOUS
 10
190.8006738767
 20
73.3613690781
  0
VERTEX
  8
0
 62
7
  6
CONTINUOUS
 10
190.8554221584
 20
73.2826765134
  0
VERTEX
  8
0
 62
7
  6
CONTINUOUS
 10
190.9170063731
 20
73.2036795485
  0
VERTEX
  8
0
 62
7
  6
CONTINUOUS
 10
190.9859834526
 20
73.124869818
  0
VERTEX
  8
0
 62
7
  6
CONTINUOUS
 10
191.0629125805
 20
73.0468552886
  0
VERTEX
  8
0
 62
7
  6
CONTINUOUS
 10
191.148150863
 20
72.9705327927
  0
VERTEX
  8
0
 62
7
  6
CONTINUOUS
 10
191.2416325486
 20
72.8971472123
  0
VERTEX
  8
0
 62
7
  6
CONTINUOUS
 10
191.343098208
 20
72.8279575929
  0
VERTEX
  8
0
 62
7
  6
CONTINUOUS
 10
191.4521174859
 20
72.7641797492
  0
VERTEX
  8
0
 62
7
  6
CONTINUOUS
 10
191.5679694081
 20
72.7070116409
  0
VERTEX
  8
0
 62
7
  6
CONTINUOUS
 10
191.6895455856
 20
72.657590864
  0
VERTEX
  8
0
 62
7
  6
CONTINUOUS
 10
191.8155420473
 20
72.6168287252
  0
VERTEX
  8
0
 62
7
  6
CONTINUOUS
 10
191.9445167804
 20
72.5853677448
  0
VERTEX
  8
0
 62
7
  6
CONTINUOUS
 10
192.0749380888
 20
72.5635598699
  0
VERTEX
  8
0
 62
7
  6
CONTINUOUS
 10
192.2052307989
 20
72.5514569279
  0
VERTEX
  8
0
 62
7
  6
CONTINUOUS
 10
192.3065541089
 20
72.5486044853
  0
SEQEND
  0
LINE
  8
0
 62
7
  6
CONTINUOUS
 10
190.4912051546
 20
74.4128393281
 11
190.4942909627
 21
74.3603864169
  0
LINE
  8
0
 62
7
  6
CONTINUOUS
 10
190.4882782003
 20
74.4695067957
 11
190.4912051546
 21
74.4128393281
  0
LINE
  8
0
 62
7
  6
CONTINUOUS
 10
190.4854444625
 20
74.5313588617
 11
190.4882782003
 21
74.4695067957
  0
LINE
  8
0
 62
7
  6
CONTINUOUS
 10
190.4812754401
 20
74.6358001887
 11
190.4854444625
 21
74.5313588617
  0
LINE
  8
0
 62
7
  6
CONTINUOUS
 10
190.4771390074
 20
74.7562696686
 11
190.4812754401
 21
74.6358001887
  0
POLYLINE
  8
0
 62
7
  6
CONTINUOUS
 66
1
 70
0
  0
VERTEX
  8
0
 62
7
  6
CONTINUOUS
 10
174.0888078464
 20
97.5169102397
  0
VERTEX
  8
0
 62
7
  6
CONTINUOUS
 10
174.1364579936
 20
97.5892435067
  0
VERTEX
  8
0
 62
7
  6
CONTINUOUS
 10
174.1937470478
 20
97.6711456974
  0
VERTEX
  8
0
 62
7
  6
CONTINUOUS
 10
174.2503054857
 20
97.7465991575
  0
VERTEX
  8
0
 62
7
  6
CONTINUOUS
 10
174.3067438018
 20
97.8165849651
  0
VERTEX
  8
0
 62
7
  6
CONTINUOUS
 10
174.3637073036
 20
97.8819035
  0
VERTEX
  8
0
 62
7
  6
CONTINUOUS
 10
174.4217412042
 20
97.9430190622
  0
VERTEX
  8
0
 62
7
  6
CONTINUOUS
 10
174.4809341883
 20
97.9997755082
  0
VERTEX
  8
0
 62
7
  6
CONTINUOUS
 10
174.5411858597
 20
98.0518193408
  0
VERTEX
  8
0
 62
7
  6
CONTINUOUS
 10
174.602278931
 20
98.0987367601
  0
VERTEX
  8
0
 62
7
  6
CONTINUOUS
 10
174.6640075767
 20
98.1401874567
  0
VERTEX
  8
0
 62
7
  6
CONTINUOUS
 10
174.7261651063
 20
98.1758951943
  0
VERTEX
  8
0
 62
7
  6
CONTINUOUS
 10
174.7882584608
 20
98.2055362369
  0
VERTEX
  8
0
 62
7
  6
CONTINUOUS
 10
174.8501793054
 20
98.2291207237
  0
VERTEX
  8
0
 62
7
  6
CONTINUOUS
 10
174.9117296071
 20
98.2467182923
  0
VERTEX
  8
0
 62
7
  6
CONTINUOUS
 10
174.972316859
 20
98.2584721547
  0
VERTEX
  8
0
 62
7
  6
CONTINUOUS
 10
175.0315950403
 20
98.2648015231
  0
VERTEX
  8
0
 62
7
  6
CONTINUOUS
 10
175.0789443782
 20
98.2663261538
  0
SEQEND
  0
POLYLINE
  8
0
 62
7
  6
CONTINUOUS
 66
1
 70
0
  0
VERTEX
  8
0
 62
7
  6
CONTINUOUS
 10
206.3621630165
 20
141.0802984621
  0
VERTEX
  8
0
 62
7
  6
CONTINUOUS
 10
206.3145123957
 20
141.007964495
  0
VERTEX
  8
0
 62
7
  6
CONTINUOUS
 10
206.2572226854
 20
140.9260614439
  0
VERTEX
  8
0
 62
7
  6
CONTINUOUS
 10
206.2006635416
 20
140.8506071822
  0
VERTEX
  8
0
 62
7
  6
CONTINUOUS
 10
206.1442245833
 20
140.7806207796
  0
VERTEX
  8
0
 62
7
  6
CONTINUOUS
 10
206.0872606439
 20
140.7153019945
  0
VERTEX
  8
0
 62
7
  6
CONTINUOUS
 10
206.0292265577
 20
140.6541865192
  0
VERTEX
  8
0
 62
7
  6
CONTINUOUS
 10
205.9700335806
 20
140.5974303732
  0
VERTEX
  8
0
 62
7
  6
CONTINUOUS
 10
205.9097820709
 20
140.545386968
  0
VERTEX
  8
0
 62
7
  6
CONTINUOUS
 10
205.848689268
 20
140.4984700239
  0
VERTEX
  8
0
 62
7
  6
CONTINUOUS
 10
205.7869609303
 20
140.4570197772
  0
VERTEX
  8
0
 62
7
  6
CONTINUOUS
 10
205.7248037435
 20
140.4213124489
  0
VERTEX
  8
0
 62
7
  6
CONTINUOUS
 10
205.6627107502
 20
140.3916717564
  0
VERTEX
  8
0
 62
7
  6
CONTINUOUS
 10
205.6007902677
 20
140.3680875487
  0
VERTEX
  8
0
 62
7
  6
CONTINUOUS
 10
205.5392403378
 20
140.35049019
  0
VERTEX
  8
0
 62
7
  6
CONTINUOUS
 10
205.47865345
 20
140.3387364644
  0
VERTEX
  8
0
 62
7
  6
CONTINUOUS
 10
205.419375613
 20
140.3324071652
  0
VERTEX
  8
0
 62
7
  6
CONTINUOUS
 10
205.3720264848
 20
140.3308825481
  0
SEQEND
  0
LINE
  8
DEFAULT_1
 62
2
  6
CENTER
 10
71.4906354315
 20
151.0486043509
 11
259.0054854315
 21
151.0486043509
  0
POLYLINE
  8
0
 62
7
  6
CONTINUOUS
 66
1
 70
0
  0
VERTEX
  8
0
 62
7
  6
CONTINUOUS
 10
189.9566073731
 20
164.2379714284
  0
VERTEX
  8
0
 62
7
  6
CONTINUOUS
 10
189.9550024622
 20
164.2624804544
  0
VERTEX
  8
0
 62
7
  6
CONTINUOUS
 10
189.9533407242
 20
164.286097925
  0
VERTEX
  8
0
 62
7
  6
CONTINUOUS
 10
189.9515997789
 20
164.3090802692
  0
VERTEX
  8
0
 62
7
  6
CONTINUOUS
 10
189.9497466182
 20
164.3317530721
  0
VERTEX
  8
0
 62
7
  6
CONTINUOUS
 10
189.9477380248
 20
164.3544701866
  0
VERTEX
  8
0
 62
7
  6
CONTINUOUS
 10
189.9455187438
 20
164.3776041061
  0
VERTEX
  8
0
 62
7
  6
CONTINUOUS
 10
189.9430252984
 20
164.4014820436
  0
VERTEX
  8
0
 62
7
  6
CONTINUOUS
 10
189.9401769926
 20
164.4264556349
  0
VERTEX
  8
0
 62
7
  6
CONTINUOUS
 10
189.9368694751
 20
164.4529166021
  0
VERTEX
  8
0
 62
7
  6
CONTINUOUS
 10
189.9329709467
 20
164.4812780258
  0
VERTEX
  8
0
 62
7
  6
CONTINUOUS
 10
189.9283180422
 20
164.5119573519
  0
VERTEX
  8
0
 62
7
  6
CONTINUOUS
 10
189.9227119719
 20
164.5453586118
  0
VERTEX
  8
0
 62
7
  6
CONTINUOUS
 10
189.9159872988
 20
164.5814873399
  0
VERTEX
  8
0
 62
7
  6
CONTINUOUS
 10
189.9080633497
 20
164.6198708463
  0
VERTEX
  8
0
 62
7
  6
CONTINUOUS
 10
189.8989368452
 20
164.6598165814
  0
VERTEX
  8
0
 62
7
  6
CONTINUOUS
 10
189.8883374518
 20
164.7018438854
  0
VERTEX
  8
0
 62
7
  6
CONTINUOUS
 10
189.8756051387
 20
164.7475880379
  0
VERTEX
  8
0
 62
7
  6
CONTINUOUS
 10
189.8597586398
 20
164.7990135341
  0
VERTEX
  8
0
 62
7
  6
CONTINUOUS
 10
189.8399559777
 20
164.856783852
  0
VERTEX
  8
0
 62
7
  6
CONTINUOUS
 10
189.81574557
 20
164.9200447343
  0
VERTEX
  8
0
 62
7
  6
CONTINUOUS
 10
189.7868491296
 20
164.9875764405
  0
VERTEX
  8
0
 62
7
  6
CONTINUOUS
 10
189.7527940885
 20
165.0587457429
  0
VERTEX
  8
0
 62
7
  6
CONTINUOUS
 10
189.7129140445
 20
165.1332569875
  0
VERTEX
  8
0
 62
7
  6
CONTINUOUS
 10
189.6665320741
 20
165.2106777593
  0
VERTEX
  8
0
 62
7
  6
CONTINUOUS
 10
189.612989013
 20
165.2904184398
  0
VERTEX
  8
0
 62
7
  6
CONTINUOUS
 10
189.5516438844
 20
165.3717626554
  0
VERTEX
  8
0
 62
7
  6
CONTINUOUS
 10
189.4816779684
 20
165.4541018263
  0
VERTEX
  8
0
 62
7
  6
CONTINUOUS
 10
189.4020370698
 20
165.5368689997
  0
VERTEX
  8
0
 62
7
  6
CONTINUOUS
 10
189.3120691092
 20
165.6188556623
  0
VERTEX
  8
0
 62
7
  6
CONTINUOUS
 10
189.2126536657
 20
165.6976253605
  0
VERTEX
  8
0
 62
7
  6
CONTINUOUS
 10
189.1053762073
 20
165.7708286949
  0
VERTEX
  8
0
 62
7
  6
CONTINUOUS
 10
188.9922554033
 20
165.8365667989
  0
VERTEX
  8
0
 62
7
  6
CONTINUOUS
 10
188.8748980354
 20
165.8938165154
  0
VERTEX
  8
0
 62
7
  6
CONTINUOUS
 10
188.7539294394
 20
165.9423323666
  0
VERTEX
  8
0
 62
7
  6
CONTINUOUS
 10
188.6298912599
 20
165.9819395466
  0
VERTEX
  8
0
 62
7
  6
CONTINUOUS
 10
188.5033248325
 20
166.0124802063
  0
VERTEX
  8
0
 62
7
  6
CONTINUOUS
 10
188.3747710885
 20
166.0338119941
  0
VERTEX
  8
0
 62
7
  6
CONTINUOUS
 10
188.2447761995
 20
166.045805827
  0
VERTEX
  8
0
 62
7
  6
CONTINUOUS
 10
188.1444167521
 20
166.0486042165
  0
SEQEND
  0
LINE
  8
0
 62
7
  6
CONTINUOUS
 10
189.9597035859
 20
164.1854967043
 11
189.9566073731
 21
164.2379714284
  0
LINE
  8
0
 62
7
  6
CONTINUOUS
 10
189.9627186256
 20
164.1271672027
 11
189.9597035859
 21
164.1854967043
  0
LINE
  8
0
 62
7
  6
CONTINUOUS
 10
189.9657189158
 20
164.0613863673
 11
189.9627186256
 21
164.1271672027
  0
LINE
  8
0
 62
7
  6
CONTINUOUS
 10
189.9687506456
 20
163.9865319389
 11
189.9657189158
 21
164.0613863673
  0
LINE
  8
0
 62
7
  6
CONTINUOUS
 10
189.9734861016
 20
163.851676166
 11
189.9687506456
 21
163.9865319389
  0
LINE
  8
0
 62
7
  6
CONTINUOUS
 10
189.9785711551
 20
163.6810228708
 11
189.9734861016
 21
163.851676166
  0
LINE
  8
0
 62
7
  6
CONTINUOUS
 10
190.4716148897
 20
74.9450139509
 11
190.4771390074
 21
74.7562696686
  0
LINE
  8
0
 62
7
  6
CONTINUOUS
 10
189.9857619801
 20
163.3907613321
 11
189.9785711551
 21
163.6810228708
  0
LINE
  8
0
 62
7
  6
CONTINUOUS
 10
190.4645006434
 20
75.2382996027
 11
190.4716148897
 21
74.9450139509
  0
LINE
  8
0
 62
7
  6
CONTINUOUS
 10
189.9932458731
 20
163.0227476811
 11
189.9857619801
 21
163.3907613321
  0
LINE
  8
0
 62
7
  6
CONTINUOUS
 10
190.4568594818
 20
75.6216558362
 11
190.4645006434
 21
75.2382996027
  0
LINE
  8
0
 62
7
  6
CONTINUOUS
 10
190.0008670686
 20
162.5716747827
 11
189.9932458731
 21
163.0227476811
  0
LINE
  8
0
 62
7
  6
CONTINUOUS
 10
190.4483324824
 20
76.142376148
 11
190.4568594818
 21
75.6216558362
  0
LINE
  8
0
 62
7
  6
CONTINUOUS
 10
190.0086212964
 20
162.0235653893
 11
190.0008670686
 21
162.5716747827
  0
LINE
  8
0
 62
7
  6
CONTINUOUS
 10
190.4393421711
 20
76.8133368513
 11
190.4483324824
 21
76.142376148
  0
LINE
  8
0
 62
7
  6
CONTINUOUS
 10
190.0165429245
 20
161.3556530417
 11
190.0086212964
 21
162.0235653893
  0
LINE
  8
0
 62
7
  6
CONTINUOUS
 10
190.4302000964
 20
77.6501796061
 11
190.4393421711
 21
76.8133368513
  0
LINE
  8
0
 62
7
  6
CONTINUOUS
 10
190.0227718835
 20
160.7392257838
 11
190.0165429245
 21
161.3556530417
  0
LINE
  8
0
 62
7
  6
CONTINUOUS
 10
190.4229081396
 20
78.4578664089
 11
190.4302000964
 21
77.6501796061
  0
LINE
  8
0
 62
7
  6
CONTINUOUS
 10
190.0292708603
 20
159.9909883223
 11
190.0227718835
 21
160.7392257838
  0
LINE
  8
0
 62
7
  6
CONTINUOUS
 10
190.4157865015
 20
79.4048441503
 11
190.4229081396
 21
78.4578664089
  0
LINE
  8
0
 62
7
  6
CONTINUOUS
 10
190.0358268613
 20
159.0974042146
 11
190.0292708603
 21
159.9909883223
  0
LINE
  8
0
 62
7
  6
CONTINUOUS
 10
190.0423113707
 20
158.024251644
 11
190.0358268613
 21
159.0974042146
  0
LINE
  8
0
 62
7
  6
CONTINUOUS
 10
190.4077453906
 20
80.7463470135
 11
190.4157865015
 21
79.4048441503
  0
LINE
  8
0
 62
7
  6
CONTINUOUS
 10
190.0466028437
 20
157.1628441609
 11
190.0423113707
 21
158.024251644
  0
LINE
  8
0
 62
7
  6
CONTINUOUS
 10
190.0507394213
 20
156.1533933456
 11
190.0466028437
 21
157.1628441609
  0
LINE
  8
0
 62
7
  6
CONTINUOUS
 10
190.05429377
 20
155.0448487269
 11
190.0507394213
 21
156.1533933456
  0
LINE
  8
0
 62
7
  6
CONTINUOUS
 10
190.0569404433
 20
153.9195957823
 11
190.05429377
 21
155.0448487269
  0
LINE
  8
0
 62
7
  6
CONTINUOUS
 10
190.0587058154
 20
152.7767020249
 11
190.0569404433
 21
153.9195957823
  0
LINE
  8
0
 62
7
  6
CONTINUOUS
 10
190.0595903137
 20
151.6161418118
 11
190.0587058154
 21
152.7767020249
  0
LINE
  8
0
 62
7
  6
CONTINUOUS
 10
190.0595903137
 20
151.6161418118
 11
190.0596967888
 21
144.5422349815
  0
LINE
  8
0
 62
7
  6
CONTINUOUS
 10
190.3754854315
 20
81.2826643882
 11
190.3754854315
 21
115.9704094678
  0
LINE
  8
0
 62
7
  6
CONTINUOUS
 10
207.2024608384
 20
164.2065741006
 11
207.2000064986
 21
164.1620145037
  0
LINE
  8
0
 62
7
  6
CONTINUOUS
 10
207.2050651482
 20
164.248900624
 11
207.2024608384
 21
164.2065741006
  0
POLYLINE
  8
0
 62
7
  6
CONTINUOUS
 66
1
 70
0
  0
VERTEX
  8
0
 62
7
  6
CONTINUOUS
 10
242.5865541193
 20
166.0486042165
  0
VERTEX
  8
0
 62
7
  6
CONTINUOUS
 10
242.4878270563
 20
166.0458961886
  0
VERTEX
  8
0
 62
7
  6
CONTINUOUS
 10
242.3578103607
 20
166.0340189593
  0
VERTEX
  8
0
 62
7
  6
CONTINUOUS
 10
242.2286650169
 20
166.0126871186
  0
VERTEX
  8
0
 62
7
  6
CONTINUOUS
 10
242.1019998357
 20
165.9821968665
  0
VERTEX
  8
0
 62
7
  6
CONTINUOUS
 10
241.9793409363
 20
165.9431575939
  0
VERTEX
  8
0
 62
7
  6
CONTINUOUS
 10
241.8620857296
 20
165.8964713545
  0
VERTEX
  8
0
 62
7
  6
CONTINUOUS
 10
241.7514584215
 20
165.8433001972
  0
VERTEX
  8
0
 62
7
  6
CONTINUOUS
 10
241.6484554524
 20
165.7850114792
  0
VERTEX
  8
0
 62
7
  6
CONTINUOUS
 10
241.5533417094
 20
165.7227822141
  0
VERTEX
  8
0
 62
7
  6
CONTINUOUS
 10
241.4657496954
 20
165.6573961109
  0
VERTEX
  8
0
 62
7
  6
CONTINUOUS
 10
241.3852566556
 20
165.5894871908
  0
VERTEX
  8
0
 62
7
  6
CONTINUOUS
 10
241.3114297318
 20
165.5195663289
  0
VERTEX
  8
0
 62
7
  6
CONTINUOUS
 10
241.2438979682
 20
165.4480983163
  0
VERTEX
  8
0
 62
7
  6
CONTINUOUS
 10
241.1824592143
 20
165.3756697009
  0
VERTEX
  8
0
 62
7
  6
CONTINUOUS
 10
241.12690151
 20
165.3028557278
  0
VERTEX
  8
0
 62
7
  6
CONTINUOUS
 10
241.0769752086
 20
165.2301872388
  0
VERTEX
  8
0
 62
7
  6
CONTINUOUS
 10
241.0323871004
 20
165.1581280833
  0
VERTEX
  8
0
 62
7
  6
CONTINUOUS
 10
240.9929022007
 20
165.0872433966
  0
VERTEX
  8
0
 62
7
  6
CONTINUOUS
 10
240.9582479324
 20
165.0180706203
  0
VERTEX
  8
0
 62
7
  6
CONTINUOUS
 10
240.9281104472
 20
164.9510947215
  0
VERTEX
  8
0
 62
7
  6
CONTINUOUS
 10
240.9021851208
 20
164.8868494472
  0
VERTEX
  8
0
 62
7
  6
CONTINUOUS
 10
240.8803108798
 20
164.8263403576
  0
VERTEX
  8
0
 62
7
  6
CONTINUOUS
 10
240.8622641083
 20
164.7706355523
  0
VERTEX
  8
0
 62
7
  6
CONTINUOUS
 10
240.847658485
 20
164.7204449494
  0
VERTEX
  8
0
 62
7
  6
CONTINUOUS
 10
240.8358949695
 20
164.6756070577
  0
VERTEX
  8
0
 62
7
  6
CONTINUOUS
 10
240.8262466792
 20
164.6349538687
  0
VERTEX
  8
0
 62
7
  6
CONTINUOUS
 10
240.8181733159
 20
164.5974179485
  0
VERTEX
  8
0
 62
7
  6
CONTINUOUS
 10
240.8113066591
 20
164.5622002859
  0
VERTEX
  8
0
 62
7
  6
CONTINUOUS
 10
240.8054698719
 20
164.5291696688
  0
VERTEX
  8
0
 62
7
  6
CONTINUOUS
 10
240.8005426818
 20
164.4984216646
  0
VERTEX
  8
0
 62
7
  6
CONTINUOUS
 10
240.7963906856
 20
164.469900676
  0
VERTEX
  8
0
 62
7
  6
CONTINUOUS
 10
240.7928763207
 20
164.4434006267
  0
VERTEX
  8
0
 62
7
  6
CONTINUOUS
 10
240.7898740193
 20
164.4186327803
  0
VERTEX
  8
0
 62
7
  6
CONTINUOUS
 10
240.787279776
 20
164.3953054084
  0
VERTEX
  8
0
 62
7
  6
CONTINUOUS
 10
240.7850070317
 20
164.3731162075
  0
VERTEX
  8
0
 62
7
  6
CONTINUOUS
 10
240.7829834739
 20
164.3517469227
  0
VERTEX
  8
0
 62
7
  6
CONTINUOUS
 10
240.7811535928
 20
164.3309201665
  0
VERTEX
  8
0
 62
7
  6
CONTINUOUS
 10
240.7794752015
 20
164.3104012766
  0
VERTEX
  8
0
 62
7
  6
CONTINUOUS
 10
240.7779163173
 20
164.2899951524
  0
VERTEX
  8
0
 62
7
  6
CONTINUOUS
 10
240.775064753
 20
164.2488945625
  0
SEQEND
  0
POLYLINE
  8
0
 62
7
  6
CONTINUOUS
 66
1
 70
0
  0
VERTEX
  8
0
 62
7
  6
CONTINUOUS
 10
209.0165541111
 20
166.0486042165
  0
VERTEX
  8
0
 62
7
  6
CONTINUOUS
 10
208.9178264166
 20
166.0458961537
  0
VERTEX
  8
0
 62
7
  6
CONTINUOUS
 10
208.7878100433
 20
166.0340189192
  0
VERTEX
  8
0
 62
7
  6
CONTINUOUS
 10
208.6586657563
 20
166.0126872694
  0
VERTEX
  8
0
 62
7
  6
CONTINUOUS
 10
208.5320021269
 20
165.9821975077
  0
VERTEX
  8
0
 62
7
  6
CONTINUOUS
 10
208.4093450315
 20
165.943159062
  0
VERTEX
  8
0
 62
7
  6
CONTINUOUS
 10
208.2920916472
 20
165.8964739562
  0
VERTEX
  8
0
 62
7
  6
CONTINUOUS
 10
208.1814659669
 20
165.8433041479
  0
VERTEX
  8
0
 62
7
  6
CONTINUOUS
 10
208.078464264
 20
165.7850168577
  0
VERTEX
  8
0
 62
7
  6
CONTINUOUS
 10
207.9833514448
 20
165.7227890343
  0
VERTEX
  8
0
 62
7
  6
CONTINUOUS
 10
207.8957600835
 20
165.6574043707
  0
VERTEX
  8
0
 62
7
  6
CONTINUOUS
 10
207.8152674852
 20
165.589496886
  0
VERTEX
  8
0
 62
7
  6
CONTINUOUS
 10
207.7414408441
 20
165.5195774679
  0
VERTEX
  8
0
 62
7
  6
CONTINUOUS
 10
207.6739092129
 20
165.4481108894
  0
VERTEX
  8
0
 62
7
  6
CONTINUOUS
 10
207.6124704244
 20
165.375683648
  0
VERTEX
  8
0
 62
7
  6
CONTINUOUS
 10
207.5569125216
 20
165.3028709491
  0
VERTEX
  8
0
 62
7
  6
CONTINUOUS
 10
207.5069858679
 20
165.2302035989
  0
VERTEX
  8
0
 62
7
  6
CONTINUOUS
 10
207.4623972677
 20
165.1581454134
  0
VERTEX
  8
0
 62
7
  6
CONTINUOUS
 10
207.4229117623
 20
165.0872615085
  0
VERTEX
  8
0
 62
7
  6
CONTINUOUS
 10
207.3882568184
 20
165.0180893475
  0
VERTEX
  8
0
 62
7
  6
CONTINUOUS
 10
207.3581186192
 20
164.9511139112
  0
VERTEX
  8
0
 62
7
  6
CONTINUOUS
 10
207.3321925811
 20
164.8868689974
  0
VERTEX
  8
0
 62
7
  6
CONTINUOUS
 10
207.31031754
 20
164.8263598449
  0
VERTEX
  8
0
 62
7
  6
CONTINUOUS
 10
207.2922698476
 20
164.7706542771
  0
VERTEX
  8
0
 62
7
  6
CONTINUOUS
 10
207.2776632473
 20
164.7204622167
  0
VERTEX
  8
0
 62
7
  6
CONTINUOUS
 10
207.2658988633
 20
164.6756226849
  0
VERTEX
  8
0
 62
7
  6
CONTINUOUS
 10
207.2562498668
 20
164.6349679924
  0
VERTEX
  8
0
 62
7
  6
CONTINUOUS
 10
207.2481759508
 20
164.5974308257
  0
VERTEX
  8
0
 62
7
  6
CONTINUOUS
 10
207.2413088611
 20
164.5622121617
  0
VERTEX
  8
0
 62
7
  6
CONTINUOUS
 10
207.2354717014
 20
164.5291805575
  0
VERTEX
  8
0
 62
7
  6
CONTINUOUS
 10
207.2305441929
 20
164.4984315752
  0
VERTEX
  8
0
 62
7
  6
CONTINUOUS
 10
207.2263919283
 20
164.4699096341
  0
VERTEX
  8
0
 62
7
  6
CONTINUOUS
 10
207.2228773737
 20
164.4434089412
  0
VERTEX
  8
0
 62
7
  6
CONTINUOUS
 10
207.2198749237
 20
164.4186405772
  0
VERTEX
  8
0
 62
7
  6
CONTINUOUS
 10
207.2172805564
 20
164.395312728
  0
VERTEX
  8
0
 62
7
  6
CONTINUOUS
 10
207.2150077115
 20
164.3731231189
  0
VERTEX
  8
0
 62
7
  6
CONTINUOUS
 10
207.2129840725
 20
164.3517534953
  0
VERTEX
  8
0
 62
7
  6
CONTINUOUS
 10
207.2111541257
 20
164.3309264603
  0
VERTEX
  8
0
 62
7
  6
CONTINUOUS
 10
207.2094756852
 20
164.3104073989
  0
VERTEX
  8
0
 62
7
  6
CONTINUOUS
 10
207.2079167676
 20
164.2900012435
  0
VERTEX
  8
0
 62
7
  6
CONTINUOUS
 10
207.2050651482
 20
164.248900624
  0
SEQEND
  0
POLYLINE
  8
0
 62
7
  6
CONTINUOUS
 66
1
 70
0
  0
VERTEX
  8
0
 62
7
  6
CONTINUOUS
 10
175.5965541111
 20
166.0486042165
  0
VERTEX
  8
0
 62
7
  6
CONTINUOUS
 10
175.4978264166
 20
166.0458961537
  0
VERTEX
  8
0
 62
7
  6
CONTINUOUS
 10
175.3678100433
 20
166.0340189192
  0
VERTEX
  8
0
 62
7
  6
CONTINUOUS
 10
175.2386657563
 20
166.0126872694
  0
VERTEX
  8
0
 62
7
  6
CONTINUOUS
 10
175.1120021269
 20
165.9821975077
  0
VERTEX
  8
0
 62
7
  6
CONTINUOUS
 10
174.9893450315
 20
165.943159062
  0
VERTEX
  8
0
 62
7
  6
CONTINUOUS
 10
174.8720916472
 20
165.8964739562
  0
VERTEX
  8
0
 62
7
  6
CONTINUOUS
 10
174.7614659669
 20
165.8433041479
  0
VERTEX
  8
0
 62
7
  6
CONTINUOUS
 10
174.658464264
 20
165.7850168577
  0
VERTEX
  8
0
 62
7
  6
CONTINUOUS
 10
174.5633514448
 20
165.7227890343
  0
VERTEX
  8
0
 62
7
  6
CONTINUOUS
 10
174.4757600835
 20
165.6574043707
  0
VERTEX
  8
0
 62
7
  6
CONTINUOUS
 10
174.3952674852
 20
165.589496886
  0
VERTEX
  8
0
 62
7
  6
CONTINUOUS
 10
174.3214408441
 20
165.5195774679
  0
VERTEX
  8
0
 62
7
  6
CONTINUOUS
 10
174.2539092129
 20
165.4481108894
  0
VERTEX
  8
0
 62
7
  6
CONTINUOUS
 10
174.1924704244
 20
165.375683648
  0
VERTEX
  8
0
 62
7
  6
CONTINUOUS
 10
174.1369125215
 20
165.3028709491
  0
VERTEX
  8
0
 62
7
  6
CONTINUOUS
 10
174.0869858679
 20
165.2302035989
  0
VERTEX
  8
0
 62
7
  6
CONTINUOUS
 10
174.0423972677
 20
165.1581454134
  0
VERTEX
  8
0
 62
7
  6
CONTINUOUS
 10
174.0029117623
 20
165.0872615085
  0
VERTEX
  8
0
 62
7
  6
CONTINUOUS
 10
173.9682568184
 20
165.0180893475
  0
VERTEX
  8
0
 62
7
  6
CONTINUOUS
 10
173.9381186192
 20
164.9511139112
  0
VERTEX
  8
0
 62
7
  6
CONTINUOUS
 10
173.9121925811
 20
164.8868689974
  0
VERTEX
  8
0
 62
7
  6
CONTINUOUS
 10
173.89031754
 20
164.8263598449
  0
VERTEX
  8
0
 62
7
  6
CONTINUOUS
 10
173.8722698476
 20
164.7706542771
  0
VERTEX
  8
0
 62
7
  6
CONTINUOUS
 10
173.8576632473
 20
164.7204622167
  0
VERTEX
  8
0
 62
7
  6
CONTINUOUS
 10
173.8458988633
 20
164.6756226849
  0
VERTEX
  8
0
 62
7
  6
CONTINUOUS
 10
173.8362498668
 20
164.6349679924
  0
VERTEX
  8
0
 62
7
  6
CONTINUOUS
 10
173.8281759508
 20
164.5974308257
  0
VERTEX
  8
0
 62
7
  6
CONTINUOUS
 10
173.8213088611
 20
164.5622121617
  0
VERTEX
  8
0
 62
7
  6
CONTINUOUS
 10
173.8154717014
 20
164.5291805575
  0
VERTEX
  8
0
 62
7
  6
CONTINUOUS
 10
173.8105441929
 20
164.4984315752
  0
VERTEX
  8
0
 62
7
  6
CONTINUOUS
 10
173.8063919283
 20
164.4699096341
  0
VERTEX
  8
0
 62
7
  6
CONTINUOUS
 10
173.8028773737
 20
164.4434089412
  0
VERTEX
  8
0
 62
7
  6
CONTINUOUS
 10
173.7998749237
 20
164.4186405772
  0
VERTEX
  8
0
 62
7
  6
CONTINUOUS
 10
173.7972805564
 20
164.395312728
  0
VERTEX
  8
0
 62
7
  6
CONTINUOUS
 10
173.7950077115
 20
164.3731231189
  0
VERTEX
  8
0
 62
7
  6
CONTINUOUS
 10
173.7929840725
 20
164.3517534952
  0
VERTEX
  8
0
 62
7
  6
CONTINUOUS
 10
173.7911541257
 20
164.3309264603
  0
VERTEX
  8
0
 62
7
  6
CONTINUOUS
 10
173.7894756852
 20
164.3104073989
  0
VERTEX
  8
0
 62
7
  6
CONTINUOUS
 10
173.7879167676
 20
164.2900012435
  0
VERTEX
  8
0
 62
7
  6
CONTINUOUS
 10
173.7850651482
 20
164.248900624
  0
SEQEND
  0
POLYLINE
  8
0
 62
7
  6
CONTINUOUS
 66
1
 70
0
  0
VERTEX
  8
0
 62
7
  6
CONTINUOUS
 10
142.1765541111
 20
166.0486042165
  0
VERTEX
  8
0
 62
7
  6
CONTINUOUS
 10
142.0778264166
 20
166.0458961537
  0
VERTEX
  8
0
 62
7
  6
CONTINUOUS
 10
141.9478100433
 20
166.0340189192
  0
VERTEX
  8
0
 62
7
  6
CONTINUOUS
 10
141.8186657563
 20
166.0126872694
  0
VERTEX
  8
0
 62
7
  6
CONTINUOUS
 10
141.6920021269
 20
165.9821975077
  0
VERTEX
  8
0
 62
7
  6
CONTINUOUS
 10
141.5693450315
 20
165.943159062
  0
VERTEX
  8
0
 62
7
  6
CONTINUOUS
 10
141.4520916472
 20
165.8964739562
  0
VERTEX
  8
0
 62
7
  6
CONTINUOUS
 10
141.3414659669
 20
165.8433041479
  0
VERTEX
  8
0
 62
7
  6
CONTINUOUS
 10
141.238464264
 20
165.7850168577
  0
VERTEX
  8
0
 62
7
  6
CONTINUOUS
 10
141.1433514448
 20
165.7227890343
  0
VERTEX
  8
0
 62
7
  6
CONTINUOUS
 10
141.0557600835
 20
165.6574043707
  0
VERTEX
  8
0
 62
7
  6
CONTINUOUS
 10
140.9752674852
 20
165.589496886
  0
VERTEX
  8
0
 62
7
  6
CONTINUOUS
 10
140.9014408441
 20
165.5195774679
  0
VERTEX
  8
0
 62
7
  6
CONTINUOUS
 10
140.8339092129
 20
165.4481108894
  0
VERTEX
  8
0
 62
7
  6
CONTINUOUS
 10
140.7724704244
 20
165.375683648
  0
VERTEX
  8
0
 62
7
  6
CONTINUOUS
 10
140.7169125215
 20
165.3028709491
  0
VERTEX
  8
0
 62
7
  6
CONTINUOUS
 10
140.6669858679
 20
165.2302035989
  0
VERTEX
  8
0
 62
7
  6
CONTINUOUS
 10
140.6223972677
 20
165.1581454134
  0
VERTEX
  8
0
 62
7
  6
CONTINUOUS
 10
140.5829117623
 20
165.0872615085
  0
VERTEX
  8
0
 62
7
  6
CONTINUOUS
 10
140.5482568184
 20
165.0180893475
  0
VERTEX
  8
0
 62
7
  6
CONTINUOUS
 10
140.5181186192
 20
164.9511139112
  0
VERTEX
  8
0
 62
7
  6
CONTINUOUS
 10
140.4921925811
 20
164.8868689974
  0
VERTEX
  8
0
 62
7
  6
CONTINUOUS
 10
140.47031754
 20
164.8263598449
  0
VERTEX
  8
0
 62
7
  6
CONTINUOUS
 10
140.4522698476
 20
164.7706542771
  0
VERTEX
  8
0
 62
7
  6
CONTINUOUS
 10
140.4376632473
 20
164.7204622167
  0
VERTEX
  8
0
 62
7
  6
CONTINUOUS
 10
140.4258988633
 20
164.6756226849
  0
VERTEX
  8
0
 62
7
  6
CONTINUOUS
 10
140.4162498668
 20
164.6349679924
  0
VERTEX
  8
0
 62
7
  6
CONTINUOUS
 10
140.4081759508
 20
164.5974308257
  0
VERTEX
  8
0
 62
7
  6
CONTINUOUS
 10
140.4013088611
 20
164.5622121617
  0
VERTEX
  8
0
 62
7
  6
CONTINUOUS
 10
140.3954717014
 20
164.5291805575
  0
VERTEX
  8
0
 62
7
  6
CONTINUOUS
 10
140.3905441929
 20
164.4984315752
  0
VERTEX
  8
0
 62
7
  6
CONTINUOUS
 10
140.3863919283
 20
164.469909634
  0
VERTEX
  8
0
 62
7
  6
CONTINUOUS
 10
140.3828773737
 20
164.4434089412
  0
VERTEX
  8
0
 62
7
  6
CONTINUOUS
 10
140.3798749237
 20
164.4186405772
  0
VERTEX
  8
0
 62
7
  6
CONTINUOUS
 10
140.3772805564
 20
164.395312728
  0
VERTEX
  8
0
 62
7
  6
CONTINUOUS
 10
140.3750077115
 20
164.3731231189
  0
VERTEX
  8
0
 62
7
  6
CONTINUOUS
 10
140.3729840725
 20
164.3517534952
  0
VERTEX
  8
0
 62
7
  6
CONTINUOUS
 10
140.3711541257
 20
164.3309264603
  0
VERTEX
  8
0
 62
7
  6
CONTINUOUS
 10
140.3694756852
 20
164.3104073989
  0
VERTEX
  8
0
 62
7
  6
CONTINUOUS
 10
140.3679167676
 20
164.2900012435
  0
VERTEX
  8
0
 62
7
  6
CONTINUOUS
 10
140.3650651482
 20
164.248900624
  0
SEQEND
  0
POLYLINE
  8
0
 62
7
  6
CONTINUOUS
 66
1
 70
0
  0
VERTEX
  8
0
 62
7
  6
CONTINUOUS
 10
108.7565541111
 20
166.0486042165
  0
VERTEX
  8
0
 62
7
  6
CONTINUOUS
 10
108.6578264166
 20
166.0458961537
  0
VERTEX
  8
0
 62
7
  6
CONTINUOUS
 10
108.5278100433
 20
166.0340189192
  0
VERTEX
  8
0
 62
7
  6
CONTINUOUS
 10
108.3986657563
 20
166.0126872694
  0
VERTEX
  8
0
 62
7
  6
CONTINUOUS
 10
108.2720021269
 20
165.9821975077
  0
VERTEX
  8
0
 62
7
  6
CONTINUOUS
 10
108.1493450315
 20
165.943159062
  0
VERTEX
  8
0
 62
7
  6
CONTINUOUS
 10
108.0320916472
 20
165.8964739562
  0
VERTEX
  8
0
 62
7
  6
CONTINUOUS
 10
107.9214659669
 20
165.8433041479
  0
VERTEX
  8
0
 62
7
  6
CONTINUOUS
 10
107.818464264
 20
165.7850168577
  0
VERTEX
  8
0
 62
7
  6
CONTINUOUS
 10
107.7233514448
 20
165.7227890343
  0
VERTEX
  8
0
 62
7
  6
CONTINUOUS
 10
107.6357600835
 20
165.6574043707
  0
VERTEX
  8
0
 62
7
  6
CONTINUOUS
 10
107.5552674852
 20
165.589496886
  0
VERTEX
  8
0
 62
7
  6
CONTINUOUS
 10
107.4814408441
 20
165.5195774679
  0
VERTEX
  8
0
 62
7
  6
CONTINUOUS
 10
107.4139092129
 20
165.4481108894
  0
VERTEX
  8
0
 62
7
  6
CONTINUOUS
 10
107.3524704244
 20
165.375683648
  0
VERTEX
  8
0
 62
7
  6
CONTINUOUS
 10
107.2969125215
 20
165.3028709491
  0
VERTEX
  8
0
 62
7
  6
CONTINUOUS
 10
107.2469858679
 20
165.2302035989
  0
VERTEX
  8
0
 62
7
  6
CONTINUOUS
 10
107.2023972677
 20
165.1581454134
  0
VERTEX
  8
0
 62
7
  6
CONTINUOUS
 10
107.1629117623
 20
165.0872615085
  0
VERTEX
  8
0
 62
7
  6
CONTINUOUS
 10
107.1282568184
 20
165.0180893475
  0
VERTEX
  8
0
 62
7
  6
CONTINUOUS
 10
107.0981186192
 20
164.9511139112
  0
VERTEX
  8
0
 62
7
  6
CONTINUOUS
 10
107.0721925811
 20
164.8868689974
  0
VERTEX
  8
0
 62
7
  6
CONTINUOUS
 10
107.05031754
 20
164.8263598449
  0
VERTEX
  8
0
 62
7
  6
CONTINUOUS
 10
107.0322698476
 20
164.7706542771
  0
VERTEX
  8
0
 62
7
  6
CONTINUOUS
 10
107.0176632473
 20
164.7204622167
  0
VERTEX
  8
0
 62
7
  6
CONTINUOUS
 10
107.0058988633
 20
164.6756226849
  0
VERTEX
  8
0
 62
7
  6
CONTINUOUS
 10
106.9962498668
 20
164.6349679924
  0
VERTEX
  8
0
 62
7
  6
CONTINUOUS
 10
106.9881759508
 20
164.5974308257
  0
VERTEX
  8
0
 62
7
  6
CONTINUOUS
 10
106.9813088611
 20
164.5622121617
  0
VERTEX
  8
0
 62
7
  6
CONTINUOUS
 10
106.9754717014
 20
164.5291805575
  0
VERTEX
  8
0
 62
7
  6
CONTINUOUS
 10
106.9705441929
 20
164.4984315752
  0
VERTEX
  8
0
 62
7
  6
CONTINUOUS
 10
106.9663919283
 20
164.4699096341
  0
VERTEX
  8
0
 62
7
  6
CONTINUOUS
 10
106.9628773737
 20
164.4434089412
  0
VERTEX
  8
0
 62
7
  6
CONTINUOUS
 10
106.9598749237
 20
164.4186405772
  0
VERTEX
  8
0
 62
7
  6
CONTINUOUS
 10
106.9572805564
 20
164.395312728
  0
VERTEX
  8
0
 62
7
  6
CONTINUOUS
 10
106.9550077115
 20
164.3731231189
  0
VERTEX
  8
0
 62
7
  6
CONTINUOUS
 10
106.9529840725
 20
164.3517534952
  0
VERTEX
  8
0
 62
7
  6
CONTINUOUS
 10
106.9511541257
 20
164.3309264603
  0
VERTEX
  8
0
 62
7
  6
CONTINUOUS
 10
106.9494756852
 20
164.3104073989
  0
VERTEX
  8
0
 62
7
  6
CONTINUOUS
 10
106.9479167676
 20
164.2900012435
  0
VERTEX
  8
0
 62
7
  6
CONTINUOUS
 10
106.9450651482
 20
164.248900624
  0
SEQEND
  0
LINE
  8
0
 62
7
  6
CONTINUOUS
 10
221.5644167887
 20
166.0486043509
 11
209.0165540742
 21
166.0486043509
  0
LINE
  8
0
 62
7
  6
CONTINUOUS
 10
188.1444167887
 20
166.0486043509
 11
175.5965540742
 21
166.0486043509
  0
LINE
  8
0
 62
7
  6
CONTINUOUS
 10
154.7244167887
 20
166.0486043509
 11
142.1765540742
 21
166.0486043509
  0
LINE
  8
0
 62
7
  6
CONTINUOUS
 10
121.3044167887
 20
166.0486043509
 11
108.7565540742
 21
166.0486043509
  0
LINE
  8
0
 62
7
  6
CONTINUOUS
 10
87.8844167887
 20
166.0486043509
 11
75.3365540742
 21
166.0486043509
  0
LINE
  8
0
 62
7
  6
CONTINUOUS
 10
242.5865540741
 20
166.0486043509
 11
255.2054854315
 21
166.0486043509
  0
POLYLINE
  8
0
 62
7
  6
CONTINUOUS
 66
1
 70
0
  0
VERTEX
  8
0
 62
7
  6
CONTINUOUS
 10
190.7988077916
 20
141.0802986591
  0
VERTEX
  8
0
 62
7
  6
CONTINUOUS
 10
190.7022474754
 20
141.2418342783
  0
VERTEX
  8
0
 62
7
  6
CONTINUOUS
 10
190.6076420942
 20
141.4245479408
  0
VERTEX
  8
0
 62
7
  6
CONTINUOUS
 10
190.5206971298
 20
141.618907254
  0
VERTEX
  8
0
 62
7
  6
CONTINUOUS
 10
190.4411924622
 20
141.8249605771
  0
VERTEX
  8
0
 62
7
  6
CONTINUOUS
 10
190.3689950329
 20
142.0429530995
  0
VERTEX
  8
0
 62
7
  6
CONTINUOUS
 10
190.3042321659
 20
142.2726031827
  0
VERTEX
  8
0
 62
7
  6
CONTINUOUS
 10
190.2469561306
 20
142.5139174671
  0
VERTEX
  8
0
 62
7
  6
CONTINUOUS
 10
190.1971904725
 20
142.7671712426
  0
VERTEX
  8
0
 62
7
  6
CONTINUOUS
 10
190.1549977802
 20
143.0326324571
  0
VERTEX
  8
0
 62
7
  6
CONTINUOUS
 10
190.1204487985
 20
143.3106263462
  0
VERTEX
  8
0
 62
7
  6
CONTINUOUS
 10
190.0936014423
 20
143.60165116
  0
VERTEX
  8
0
 62
7
  6
CONTINUOUS
 10
190.0745097251
 20
143.9062660014
  0
VERTEX
  8
0
 62
7
  6
CONTINUOUS
 10
190.0632154986
 20
144.2249135132
  0
VERTEX
  8
0
 62
7
  6
CONTINUOUS
 10
190.0596966894
 20
144.5422349815
  0
SEQEND
  0
POLYLINE
  8
0
 62
7
  6
CONTINUOUS
 66
1
 70
0
  0
VERTEX
  8
0
 62
7
  6
CONTINUOUS
 10
223.0721630714
 20
97.5169100428
  0
VERTEX
  8
0
 62
7
  6
CONTINUOUS
 10
223.1684595626
 20
97.3558478526
  0
VERTEX
  8
0
 62
7
  6
CONTINUOUS
 10
223.2631313343
 20
97.1730709825
  0
VERTEX
  8
0
 62
7
  6
CONTINUOUS
 10
223.3501343293
 20
96.9786368321
  0
VERTEX
  8
0
 62
7
  6
CONTINUOUS
 10
223.4296884828
 20
96.7724994297
  0
VERTEX
  8
0
 62
7
  6
CONTINUOUS
 10
223.5019266773
 20
96.5544162287
  0
VERTEX
  8
0
 62
7
  6
CONTINUOUS
 10
223.5667224049
 20
96.3246683791
  0
VERTEX
  8
0
 62
7
  6
CONTINUOUS
 10
223.6240237389
 20
96.0832496351
  0
VERTEX
  8
0
 62
7
  6
CONTINUOUS
 10
223.6738073201
 20
95.8298856101
  0
VERTEX
  8
0
 62
7
  6
CONTINUOUS
 10
223.7160108813
 20
95.5643086749
  0
VERTEX
  8
0
 62
7
  6
CONTINUOUS
 10
223.7226448828
 20
95.510912217
  0
SEQEND
  0
LINE
  8
0
 62
7
  6
CONTINUOUS
 10
206.7693152184
 20
86.4748648332
 11
206.7696967888
 21
94.0549737209
  0
LINE
  8
0
 62
7
  6
CONTINUOUS
 10
207.1016556445
 20
152.1223438686
 11
207.1012740742
 21
144.542234981
  0
LINE
  8
0
 62
7
  6
CONTINUOUS
 10
206.767511368
 20
84.9889890098
 11
206.7693152184
 21
86.4748648332
  0
LINE
  8
0
 62
7
  6
CONTINUOUS
 10
207.1034594949
 20
153.6082196921
 11
207.1016556445
 21
152.1223438686
  0
LINE
  8
0
 62
7
  6
CONTINUOUS
 10
206.7646118673
 20
83.6690510667
 11
206.767511368
 21
84.9889890098
  0
LINE
  8
0
 62
7
  6
CONTINUOUS
 10
207.1063589957
 20
154.9281576351
 11
207.1034594949
 21
153.6082196921
  0
LINE
  8
0
 62
7
  6
CONTINUOUS
 10
206.7609338252
 20
82.4973060868
 11
206.7646118673
 21
83.6690510667
  0
LINE
  8
0
 62
7
  6
CONTINUOUS
 10
207.1100370378
 20
156.099902615
 11
207.1063589957
 21
154.9281576351
  0
LINE
  8
0
 62
7
  6
CONTINUOUS
 10
206.7551739255
 20
81.1305124754
 11
206.7609338252
 21
82.4973060868
  0
LINE
  8
0
 62
7
  6
CONTINUOUS
 10
207.1157969374
 20
157.4666962264
 11
207.1100370378
 21
156.099902615
  0
LINE
  8
0
 62
7
  6
CONTINUOUS
 10
207.1237953712
 20
158.8921027171
 11
207.1157969374
 21
157.4666962264
  0
LINE
  8
0
 62
7
  6
CONTINUOUS
 10
206.7471754917
 20
79.7051059848
 11
206.7551739255
 21
81.1305124754
  0
LINE
  8
0
 62
7
  6
CONTINUOUS
 10
207.1335528125
 20
160.2166718987
 11
207.1237953712
 21
158.8921027171
  0
LINE
  8
0
 62
7
  6
CONTINUOUS
 10
206.7374180504
 20
78.3805368032
 11
206.7471754917
 21
79.7051059848
  0
LINE
  8
0
 62
7
  6
CONTINUOUS
 10
207.144866329
 20
161.3958105951
 11
207.1335528125
 21
160.2166718987
  0
LINE
  8
0
 62
7
  6
CONTINUOUS
 10
206.726104534
 20
77.2013981067
 11
206.7374180504
 21
78.3805368032
  0
POLYLINE
  8
0
 62
7
  6
CONTINUOUS
 66
1
 70
0
  0
VERTEX
  8
0
 62
7
  6
CONTINUOUS
 10
207.1012741746
 20
144.542234981
  0
VERTEX
  8
0
 62
7
  6
CONTINUOUS
 10
207.0977262503
 20
144.2236336461
  0
VERTEX
  8
0
 62
7
  6
CONTINUOUS
 10
207.0864002851
 20
143.9050196504
  0
VERTEX
  8
0
 62
7
  6
CONTINUOUS
 10
207.067275661
 20
143.6004372787
  0
VERTEX
  8
0
 62
7
  6
CONTINUOUS
 10
207.0403943472
 20
143.3094441758
  0
VERTEX
  8
0
 62
7
  6
CONTINUOUS
 10
207.0058104185
 20
143.0314817201
  0
VERTEX
  8
0
 62
7
  6
CONTINUOUS
 10
206.9635818099
 20
142.766052085
  0
VERTEX
  8
0
 62
7
  6
CONTINUOUS
 10
206.9137793149
 20
142.5128305763
  0
VERTEX
  8
0
 62
7
  6
CONTINUOUS
 10
206.8564655631
 20
142.2715497316
  0
VERTEX
  8
0
 62
7
  6
CONTINUOUS
 10
206.7916640238
 20
142.0419344583
  0
VERTEX
  8
0
 62
7
  6
CONTINUOUS
 10
206.7194269437
 20
141.8239785741
  0
VERTEX
  8
0
 62
7
  6
CONTINUOUS
 10
206.6398818738
 20
141.6179647114
  0
VERTEX
  8
0
 62
7
  6
CONTINUOUS
 10
206.5528955211
 20
141.4236479278
  0
VERTEX
  8
0
 62
7
  6
CONTINUOUS
 10
206.4582473215
 20
141.2409801216
  0
VERTEX
  8
0
 62
7
  6
CONTINUOUS
 10
206.3621629657
 20
141.0802984947
  0
SEQEND
  0
POLYLINE
  8
0
 62
7
  6
CONTINUOUS
 66
1
 70
0
  0
VERTEX
  8
0
 62
7
  6
CONTINUOUS
 10
206.7696966883
 20
94.0549737209
  0
VERTEX
  8
0
 62
7
  6
CONTINUOUS
 10
206.7732446127
 20
94.3735750557
  0
VERTEX
  8
0
 62
7
  6
CONTINUOUS
 10
206.7845705779
 20
94.6921890515
  0
VERTEX
  8
0
 62
7
  6
CONTINUOUS
 10
206.8036952019
 20
94.9967714231
  0
VERTEX
  8
0
 62
7
  6
CONTINUOUS
 10
206.8305765158
 20
95.2877645261
  0
VERTEX
  8
0
 62
7
  6
CONTINUOUS
 10
206.8651604445
 20
95.5657269817
  0
VERTEX
  8
0
 62
7
  6
CONTINUOUS
 10
206.907389053
 20
95.8311566168
  0
VERTEX
  8
0
 62
7
  6
CONTINUOUS
 10
206.9571915481
 20
96.0843781256
  0
VERTEX
  8
0
 62
7
  6
CONTINUOUS
 10
207.0145052998
 20
96.3256589702
  0
VERTEX
  8
0
 62
7
  6
CONTINUOUS
 10
207.0793068391
 20
96.5552742435
  0
VERTEX
  8
0
 62
7
  6
CONTINUOUS
 10
207.1515439193
 20
96.7732301278
  0
VERTEX
  8
0
 62
7
  6
CONTINUOUS
 10
207.2310889891
 20
96.9792439904
  0
VERTEX
  8
0
 62
7
  6
CONTINUOUS
 10
207.3180753419
 20
97.173560774
  0
VERTEX
  8
0
 62
7
  6
CONTINUOUS
 10
207.4127235415
 20
97.3562285802
  0
VERTEX
  8
0
 62
7
  6
CONTINUOUS
 10
207.5088078972
 20
97.5169102071
  0
SEQEND
  0
LINE
  8
0
 62
7
  6
CONTINUOUS
 10
207.1561615358
 20
162.3050371845
 11
207.144866329
 21
161.3958105951
  0
LINE
  8
0
 62
7
  6
CONTINUOUS
 10
206.7148093271
 20
76.2921715174
 11
206.726104534
 21
77.2013981067
  0
LINE
  8
0
 62
7
  6
CONTINUOUS
 10
207.1671856782
 20
162.9934568764
 11
207.1561615358
 21
162.3050371845
  0
LINE
  8
0
 62
7
  6
CONTINUOUS
 10
206.7037851848
 20
75.6037518254
 11
206.7148093271
 21
76.2921715174
  0
LINE
  8
0
 62
7
  6
CONTINUOUS
 10
207.1762513218
 20
163.4365527343
 11
207.1671856782
 21
162.9934568764
  0
LINE
  8
0
 62
7
  6
CONTINUOUS
 10
206.6947195412
 20
75.1606559675
 11
206.7037851848
 21
75.6037518254
  0
LINE
  8
0
 62
7
  6
CONTINUOUS
 10
207.1832629824
 20
163.7119511179
 11
207.1762513218
 21
163.4365527343
  0
LINE
  8
0
 62
7
  6
CONTINUOUS
 10
206.6877078805
 20
74.8852575839
 11
206.6947195412
 21
75.1606559675
  0
LINE
  8
0
 62
7
  6
CONTINUOUS
 10
207.1883056621
 20
163.8766745892
 11
207.1832629824
 21
163.7119511179
  0
LINE
  8
0
 62
7
  6
CONTINUOUS
 10
206.6826652009
 20
74.7205341126
 11
206.6877078805
 21
74.8852575839
  0
LINE
  8
0
 62
7
  6
CONTINUOUS
 10
207.1918434895
 20
163.9766182608
 11
207.1883056621
 21
163.8766745892
  0
LINE
  8
0
 62
7
  6
CONTINUOUS
 10
206.6791273735
 20
74.620590441
 11
206.6826652009
 21
74.7205341126
  0
LINE
  8
0
 62
7
  6
CONTINUOUS
 10
207.1953119575
 20
164.06278135
 11
207.1918434895
 21
163.9766182608
  0
LINE
  8
0
 62
7
  6
CONTINUOUS
 10
206.6756589055
 20
74.5344273519
 11
206.6791273735
 21
74.620590441
  0
LINE
  8
0
 62
7
  6
CONTINUOUS
 10
207.1976376427
 20
164.1143399223
 11
207.1953119575
 21
164.06278135
  0
LINE
  8
0
 62
7
  6
CONTINUOUS
 10
206.6733332202
 20
74.4828687796
 11
206.6756589055
 21
74.5344273519
  0
LINE
  8
0
 62
7
  6
CONTINUOUS
 10
207.2000064986
 20
164.1620145037
 11
207.1976376427
 21
164.1143399223
  0
LINE
  8
0
 62
7
  6
CONTINUOUS
 10
206.6709643643
 20
74.4351941981
 11
206.6733332202
 21
74.4828687796
  0
LINE
  8
0
 62
7
  6
CONTINUOUS
 10
206.6685100245
 20
74.3906346013
 11
206.6709643643
 21
74.4351941981
  0
LINE
  8
0
 62
7
  6
CONTINUOUS
 10
206.6659057148
 20
74.3483080778
 11
206.6685100245
 21
74.3906346013
  0
POLYLINE
  8
0
 62
7
  6
CONTINUOUS
 66
1
 70
0
  0
VERTEX
  8
0
 62
7
  6
CONTINUOUS
 10
207.5088078464
 20
97.5169102397
  0
VERTEX
  8
0
 62
7
  6
CONTINUOUS
 10
207.5564584673
 20
97.5892442068
  0
VERTEX
  8
0
 62
7
  6
CONTINUOUS
 10
207.6137481775
 20
97.6711472579
  0
VERTEX
  8
0
 62
7
  6
CONTINUOUS
 10
207.6703073213
 20
97.7466015197
  0
VERTEX
  8
0
 62
7
  6
CONTINUOUS
 10
207.7267462797
 20
97.8165879222
  0
VERTEX
  8
0
 62
7
  6
CONTINUOUS
 10
207.7837102191
 20
97.8819067074
  0
VERTEX
  8
0
 62
7
  6
CONTINUOUS
 10
207.8417443052
 20
97.9430221826
  0
VERTEX
  8
0
 62
7
  6
CONTINUOUS
 10
207.9009372823
 20
97.9997783287
  0
VERTEX
  8
0
 62
7
  6
CONTINUOUS
 10
207.9611887921
 20
98.0518217338
  0
VERTEX
  8
0
 62
7
  6
CONTINUOUS
 10
208.022281595
 20
98.098738678
  0
VERTEX
  8
0
 62
7
  6
CONTINUOUS
 10
208.0840099326
 20
98.1401889247
  0
VERTEX
  8
0
 62
7
  6
CONTINUOUS
 10
208.1461671195
 20
98.1758962529
  0
VERTEX
  8
0
 62
7
  6
CONTINUOUS
 10
208.2082601127
 20
98.2055369455
  0
VERTEX
  8
0
 62
7
  6
CONTINUOUS
 10
208.2701805953
 20
98.2291211532
  0
VERTEX
  8
0
 62
7
  6
CONTINUOUS
 10
208.3317305252
 20
98.2467185118
  0
VERTEX
  8
0
 62
7
  6
CONTINUOUS
 10
208.392317413
 20
98.2584722374
  0
VERTEX
  8
0
 62
7
  6
CONTINUOUS
 10
208.45159525
 20
98.2648015366
  0
VERTEX
  8
0
 62
7
  6
CONTINUOUS
 10
208.4989443782
 20
98.2663261538
  0
SEQEND
  0
POLYLINE
  8
0
 62
7
  6
CONTINUOUS
 66
1
 70
0
  0
VERTEX
  8
0
 62
7
  6
CONTINUOUS
 10
75.336554117
 20
166.0486042166
  0
VERTEX
  8
0
 62
7
  6
CONTINUOUS
 10
75.2392001727
 20
166.0459710473
  0
VERTEX
  8
0
 62
7
  6
CONTINUOUS
 10
75.1091330631
 20
166.0341878276
  0
VERTEX
  8
0
 62
7
  6
CONTINUOUS
 10
74.9798669375
 20
166.0129303912
  0
VERTEX
  8
0
 62
7
  6
CONTINUOUS
 10
74.8530316067
 20
165.9824847513
  0
VERTEX
  8
0
 62
7
  6
CONTINUOUS
 10
74.7301747367
 20
165.9434559521
  0
VERTEX
  8
0
 62
7
  6
CONTINUOUS
 10
74.6127147017
 20
165.8967475484
  0
VERTEX
  8
0
 62
7
  6
CONTINUOUS
 10
74.5018950356
 20
165.8435286002
  0
VERTEX
  8
0
 62
7
  6
CONTINUOUS
 10
74.3987277888
 20
165.785177601
  0
VERTEX
  8
0
 62
7
  6
CONTINUOUS
 10
74.3034778211
 20
165.7228775219
  0
VERTEX
  8
0
 62
7
  6
CONTINUOUS
 10
74.2157722382
 20
165.6574140296
  0
VERTEX
  8
0
 62
7
  6
CONTINUOUS
 10
74.1351836378
 20
165.5894218407
  0
VERTEX
  8
0
 62
7
  6
CONTINUOUS
 10
74.061275021
 20
165.5194112786
  0
VERTEX
  8
0
 62
7
  6
CONTINUOUS
 10
73.9936748802
 20
165.4478488972
  0
VERTEX
  8
0
 62
7
  6
CONTINUOUS
 10
73.9321825402
 20
165.3753254816
  0
VERTEX
  8
0
 62
7
  6
CONTINUOUS
 10
73.8765860492
 20
165.3024196385
  0
VERTEX
  8
0
 62
7
  6
CONTINUOUS
 10
73.8266351442
 20
165.229665223
  0
VERTEX
  8
0
 62
7
  6
CONTINUOUS
 10
73.7820356015
 20
165.1575288161
  0
VERTEX
  8
0
 62
7
  6
CONTINUOUS
 10
73.7425498163
 20
165.0865756682
  0
VERTEX
  8
0
 62
7
  6
CONTINUOUS
 10
73.7079013724
 20
165.017339904
  0
VERTEX
  8
0
 62
7
  6
CONTINUOUS
 10
73.6777739094
 20
164.9503039563
  0
VERTEX
  8
0
 62
7
  6
CONTINUOUS
 10
73.6518642031
 20
164.8860077807
  0
VERTEX
  8
0
 62
7
  6
CONTINUOUS
 10
73.630018496
 20
164.8254840315
  0
VERTEX
  8
0
 62
7
  6
CONTINUOUS
 10
73.6120127829
 20
164.7698147269
  0
VERTEX
  8
0
 62
7
  6
CONTINUOUS
 10
73.5974569164
 20
164.7197133228
  0
VERTEX
  8
0
 62
7
  6
CONTINUOUS
 10
73.5857365598
 20
164.6749706875
  0
VERTEX
  8
0
 62
7
  6
CONTINUOUS
 10
73.5761194624
 20
164.6343897109
  0
VERTEX
  8
0
 62
7
  6
CONTINUOUS
 10
73.5680659281
 20
164.596892733
  0
VERTEX
  8
0
 62
7
  6
CONTINUOUS
 10
73.561211148
 20
164.561684873
  0
VERTEX
  8
0
 62
7
  6
CONTINUOUS
 10
73.5553849958
 20
164.5286642874
  0
VERTEX
  8
0
 62
7
  6
CONTINUOUS
 10
73.5504680006
 20
164.4979316396
  0
VERTEX
  8
0
 62
7
  6
CONTINUOUS
 10
73.5463257884
 20
164.4694325565
  0
VERTEX
  8
0
 62
7
  6
CONTINUOUS
 10
73.5428201904
 20
164.4429569385
  0
VERTEX
  8
0
 62
7
  6
CONTINUOUS
 10
73.5398253161
 20
164.4182124118
  0
VERTEX
  8
0
 62
7
  6
CONTINUOUS
 10
73.5372371243
 20
164.3949049767
  0
VERTEX
  8
0
 62
7
  6
CONTINUOUS
 10
73.5349690396
 20
164.3727297391
  0
VERTEX
  8
0
 62
7
  6
CONTINUOUS
 10
73.5329490457
 20
164.3513688612
  0
VERTEX
  8
0
 62
7
  6
CONTINUOUS
 10
73.531121927
 20
164.3305460855
  0
VERTEX
  8
0
 62
7
  6
CONTINUOUS
 10
73.5294457203
 20
164.310027819
  0
VERTEX
  8
0
 62
7
  6
CONTINUOUS
 10
73.5278886108
 20
164.2896199509
  0
VERTEX
  8
0
 62
7
  6
CONTINUOUS
 10
73.5264262018
 20
164.2691595576
  0
VERTEX
  8
0
 62
7
  6
CONTINUOUS
 10
73.5237148146
 20
164.2275616369
  0
SEQEND
  0
POLYLINE
  8
0
 62
7
  6
CONTINUOUS
 66
1
 70
0
  0
VERTEX
  8
0
 62
7
  6
CONTINUOUS
 10
223.9165667269
 20
74.3260257589
  0
VERTEX
  8
0
 62
7
  6
CONTINUOUS
 10
223.9181910941
 20
74.303516777
  0
VERTEX
  8
0
 62
7
  6
CONTINUOUS
 10
223.9199259527
 20
74.2811549526
  0
VERTEX
  8
0
 62
7
  6
CONTINUOUS
 10
223.9218074543
 20
74.2586708405
  0
VERTEX
  8
0
 62
7
  6
CONTINUOUS
 10
223.9238810862
 20
74.2357803807
  0
VERTEX
  8
0
 62
7
  6
CONTINUOUS
 10
223.9261991181
 20
74.2122322451
  0
VERTEX
  8
0
 62
7
  6
CONTINUOUS
 10
223.9288276523
 20
74.1877500749
  0
VERTEX
  8
0
 62
7
  6
CONTINUOUS
 10
223.9318498775
 20
74.1620333198
  0
VERTEX
  8
0
 62
7
  6
CONTINUOUS
 10
223.9353674043
 20
74.1347775555
  0
VERTEX
  8
0
 62
7
  6
CONTINUOUS
 10
223.9395027172
 20
74.1056822567
  0
VERTEX
  8
0
 62
7
  6
CONTINUOUS
 10
223.9443970771
 20
74.0744855174
  0
VERTEX
  8
0
 62
7
  6
CONTINUOUS
 10
223.9501918316
 20
74.0410729387
  0
VERTEX
  8
0
 62
7
  6
CONTINUOUS
 10
223.9570154402
 20
74.0054935537
  0
VERTEX
  8
0
 62
7
  6
CONTINUOUS
 10
223.9650360643
 20
73.9676563446
  0
VERTEX
  8
0
 62
7
  6
CONTINUOUS
 10
223.9745819877
 20
73.9269052481
  0
VERTEX
  8
0
 62
7
  6
CONTINUOUS
 10
223.9861352791
 20
73.8823217477
  0
VERTEX
  8
0
 62
7
  6
CONTINUOUS
 10
224.0003169247
 20
73.8329687659
  0
VERTEX
  8
0
 62
7
  6
CONTINUOUS
 10
224.0176783483
 20
73.7786289384
  0
VERTEX
  8
0
 62
7
  6
CONTINUOUS
 10
224.0387302455
 20
73.7194868824
  0
VERTEX
  8
0
 62
7
  6
CONTINUOUS
 10
224.0639440477
 20
73.6559779061
  0
VERTEX
  8
0
 62
7
  6
CONTINUOUS
 10
224.0938016238
 20
73.5885777048
  0
VERTEX
  8
0
 62
7
  6
CONTINUOUS
 10
224.1287742937
 20
73.5178299566
  0
VERTEX
  8
0
 62
7
  6
CONTINUOUS
 10
224.16929638
 20
73.4443681493
  0
VERTEX
  8
0
 62
7
  6
CONTINUOUS
 10
224.2159215832
 20
73.3686401132
  0
VERTEX
  8
0
 62
7
  6
CONTINUOUS
 10
224.2692733618
 20
73.2910828785
  0
VERTEX
  8
0
 62
7
  6
CONTINUOUS
 10
224.3299816852
 20
73.2122455811
  0
VERTEX
  8
0
 62
7
  6
CONTINUOUS
 10
224.3987031496
 20
73.1327630237
  0
VERTEX
  8
0
 62
7
  6
CONTINUOUS
 10
224.4760793338
 20
73.0534105487
  0
VERTEX
  8
0
 62
7
  6
CONTINUOUS
 10
224.5624632285
 20
72.975329136
  0
VERTEX
  8
0
 62
7
  6
CONTINUOUS
 10
224.6575192327
 20
72.9001714304
  0
VERTEX
  8
0
 62
7
  6
CONTINUOUS
 10
224.7605899024
 20
72.8295484481
  0
VERTEX
  8
0
 62
7
  6
CONTINUOUS
 10
224.870765143
 20
72.7649092445
  0
VERTEX
  8
0
 62
7
  6
CONTINUOUS
 10
224.9870398879
 20
72.7074298841
  0
VERTEX
  8
0
 62
7
  6
CONTINUOUS
 10
225.1084427369
 20
72.6579934177
  0
VERTEX
  8
0
 62
7
  6
CONTINUOUS
 10
225.2338927779
 20
72.6172969096
  0
VERTEX
  8
0
 62
7
  6
CONTINUOUS
 10
225.3622114954
 20
72.5858423724
  0
VERTEX
  8
0
 62
7
  6
CONTINUOUS
 10
225.4921571616
 20
72.5639227019
  0
VERTEX
  8
0
 62
7
  6
CONTINUOUS
 10
225.6224555316
 20
72.5516154585
  0
VERTEX
  8
0
 62
7
  6
CONTINUOUS
 10
225.726554107
 20
72.5486044853
  0
SEQEND
  0
POLYLINE
  8
0
 62
7
  6
CONTINUOUS
 66
1
 70
0
  0
VERTEX
  8
0
 62
7
  6
CONTINUOUS
 10
223.3766073731
 20
164.2379714284
  0
VERTEX
  8
0
 62
7
  6
CONTINUOUS
 10
223.3750024622
 20
164.2624804544
  0
VERTEX
  8
0
 62
7
  6
CONTINUOUS
 10
223.3733407242
 20
164.286097925
  0
VERTEX
  8
0
 62
7
  6
CONTINUOUS
 10
223.3715997789
 20
164.3090802692
  0
VERTEX
  8
0
 62
7
  6
CONTINUOUS
 10
223.3697466182
 20
164.3317530721
  0
VERTEX
  8
0
 62
7
  6
CONTINUOUS
 10
223.3677380248
 20
164.3544701866
  0
VERTEX
  8
0
 62
7
  6
CONTINUOUS
 10
223.3655187438
 20
164.3776041061
  0
VERTEX
  8
0
 62
7
  6
CONTINUOUS
 10
223.3630252984
 20
164.4014820436
  0
VERTEX
  8
0
 62
7
  6
CONTINUOUS
 10
223.3601769926
 20
164.4264556349
  0
VERTEX
  8
0
 62
7
  6
CONTINUOUS
 10
223.3568694751
 20
164.4529166021
  0
VERTEX
  8
0
 62
7
  6
CONTINUOUS
 10
223.3529709467
 20
164.4812780258
  0
VERTEX
  8
0
 62
7
  6
CONTINUOUS
 10
223.3483180422
 20
164.5119573519
  0
VERTEX
  8
0
 62
7
  6
CONTINUOUS
 10
223.3427119719
 20
164.5453586118
  0
VERTEX
  8
0
 62
7
  6
CONTINUOUS
 10
223.3359872988
 20
164.5814873399
  0
VERTEX
  8
0
 62
7
  6
CONTINUOUS
 10
223.3280633497
 20
164.6198708463
  0
VERTEX
  8
0
 62
7
  6
CONTINUOUS
 10
223.3189368452
 20
164.6598165814
  0
VERTEX
  8
0
 62
7
  6
CONTINUOUS
 10
223.3083374518
 20
164.7018438854
  0
VERTEX
  8
0
 62
7
  6
CONTINUOUS
 10
223.2956051387
 20
164.7475880379
  0
VERTEX
  8
0
 62
7
  6
CONTINUOUS
 10
223.2797586398
 20
164.7990135341
  0
VERTEX
  8
0
 62
7
  6
CONTINUOUS
 10
223.2599559777
 20
164.856783852
  0
VERTEX
  8
0
 62
7
  6
CONTINUOUS
 10
223.23574557
 20
164.9200447343
  0
VERTEX
  8
0
 62
7
  6
CONTINUOUS
 10
223.2068491296
 20
164.9875764405
  0
VERTEX
  8
0
 62
7
  6
CONTINUOUS
 10
223.1727940885
 20
165.0587457429
  0
VERTEX
  8
0
 62
7
  6
CONTINUOUS
 10
223.1329140446
 20
165.1332569875
  0
VERTEX
  8
0
 62
7
  6
CONTINUOUS
 10
223.0865320741
 20
165.2106777593
  0
VERTEX
  8
0
 62
7
  6
CONTINUOUS
 10
223.032989013
 20
165.2904184398
  0
VERTEX
  8
0
 62
7
  6
CONTINUOUS
 10
222.9716438844
 20
165.3717626554
  0
VERTEX
  8
0
 62
7
  6
CONTINUOUS
 10
222.9016779684
 20
165.4541018263
  0
VERTEX
  8
0
 62
7
  6
CONTINUOUS
 10
222.8220370698
 20
165.5368689997
  0
VERTEX
  8
0
 62
7
  6
CONTINUOUS
 10
222.7320691092
 20
165.6188556623
  0
VERTEX
  8
0
 62
7
  6
CONTINUOUS
 10
222.6326536657
 20
165.6976253605
  0
VERTEX
  8
0
 62
7
  6
CONTINUOUS
 10
222.5253762073
 20
165.7708286949
  0
VERTEX
  8
0
 62
7
  6
CONTINUOUS
 10
222.4122554033
 20
165.8365667989
  0
VERTEX
  8
0
 62
7
  6
CONTINUOUS
 10
222.2948980354
 20
165.8938165154
  0
VERTEX
  8
0
 62
7
  6
CONTINUOUS
 10
222.1739294395
 20
165.9423323666
  0
VERTEX
  8
0
 62
7
  6
CONTINUOUS
 10
222.0498912599
 20
165.9819395466
  0
VERTEX
  8
0
 62
7
  6
CONTINUOUS
 10
221.9233248325
 20
166.0124802063
  0
VERTEX
  8
0
 62
7
  6
CONTINUOUS
 10
221.7947710885
 20
166.0338119941
  0
VERTEX
  8
0
 62
7
  6
CONTINUOUS
 10
221.6647761995
 20
166.045805827
  0
VERTEX
  8
0
 62
7
  6
CONTINUOUS
 10
221.5644167521
 20
166.0486042165
  0
SEQEND
  0
LINE
  8
0
 62
7
  6
CONTINUOUS
 10
223.9135465306
 20
74.3723967029
 11
223.9165667269
 21
74.3260257589
  0
LINE
  8
0
 62
7
  6
CONTINUOUS
 10
223.3797035859
 20
164.1854967043
 11
223.3766073731
 21
164.2379714284
  0
LINE
  8
0
 62
7
  6
CONTINUOUS
 10
223.9107145835
 20
74.4218490463
 11
223.9135465306
 21
74.3723967029
  0
LINE
  8
0
 62
7
  6
CONTINUOUS
 10
223.3827186256
 20
164.1271672027
 11
223.3797035859
 21
164.1854967043
  0
LINE
  8
0
 62
7
  6
CONTINUOUS
 10
223.9079668704
 20
74.4759567976
 11
223.9107145835
 21
74.4218490463
  0
LINE
  8
0
 62
7
  6
CONTINUOUS
 10
223.3857189158
 20
164.0613863673
 11
223.3827186256
 21
164.1271672027
  0
LINE
  8
0
 62
7
  6
CONTINUOUS
 10
223.9052224855
 20
74.5365084001
 11
223.9079668704
 21
74.4759567976
  0
LINE
  8
0
 62
7
  6
CONTINUOUS
 10
223.3887506456
 20
163.9865319389
 11
223.3857189158
 21
164.0613863673
  0
LINE
  8
0
 62
7
  6
CONTINUOUS
 10
223.9010097694
 20
74.6430221792
 11
223.9052224855
 21
74.5365084001
  0
LINE
  8
0
 62
7
  6
CONTINUOUS
 10
223.3934861016
 20
163.851676166
 11
223.3887506456
 21
163.9865319389
  0
LINE
  8
0
 62
7
  6
CONTINUOUS
 10
223.8966679258
 20
74.7710986444
 11
223.9010097694
 21
74.6430221792
  0
LINE
  8
0
 62
7
  6
CONTINUOUS
 10
223.3985711551
 20
163.6810228708
 11
223.3934861016
 21
163.851676166
  0
LINE
  8
0
 62
7
  6
CONTINUOUS
 10
223.8907053067
 20
74.979280334
 11
223.8966679258
 21
74.7710986444
  0
LINE
  8
0
 62
7
  6
CONTINUOUS
 10
223.4057619801
 20
163.3907613321
 11
223.3985711551
 21
163.6810228708
  0
LINE
  8
0
 62
7
  6
CONTINUOUS
 10
223.8830520131
 20
75.3053426905
 11
223.8907053067
 21
74.979280334
  0
LINE
  8
0
 62
7
  6
CONTINUOUS
 10
223.4132458731
 20
163.0227476811
 11
223.4057619801
 21
163.3907613321
  0
LINE
  8
0
 62
7
  6
CONTINUOUS
 10
223.8752573881
 20
75.7116703397
 11
223.8830520131
 21
75.3053426905
  0
LINE
  8
0
 62
7
  6
CONTINUOUS
 10
223.4208670686
 20
162.5716747827
 11
223.4132458731
 21
163.0227476811
  0
LINE
  8
0
 62
7
  6
CONTINUOUS
 10
223.8656572843
 20
76.3280325637
 11
223.8752573881
 21
75.7116703397
  0
LINE
  8
0
 62
7
  6
CONTINUOUS
 10
223.4286212964
 20
162.0235653893
 11
223.4208670686
 21
162.5716747827
  0
LINE
  8
0
 62
7
  6
CONTINUOUS
 10
223.8573262317
 20
76.9832959522
 11
223.8656572843
 21
76.3280325637
  0
LINE
  8
0
 62
7
  6
CONTINUOUS
 10
223.4365429245
 20
161.3556530417
 11
223.4286212964
 21
162.0235653893
  0
LINE
  8
0
 62
7
  6
CONTINUOUS
 10
223.8483636482
 20
77.840511745
 11
223.8573262317
 21
76.9832959522
  0
LINE
  8
0
 62
7
  6
CONTINUOUS
 10
223.4427718835
 20
160.7392257838
 11
223.4365429245
 21
161.3556530417
  0
LINE
  8
0
 62
7
  6
CONTINUOUS
 10
223.4492708603
 20
159.9909883223
 11
223.4427718835
 21
160.7392257838
  0
LINE
  8
0
 62
7
  6
CONTINUOUS
 10
223.8392717474
 20
78.9187901478
 11
223.8483636482
 21
77.840511745
  0
LINE
  8
0
 62
7
  6
CONTINUOUS
 10
223.8392717434
 20
78.9187906903
 11
223.5786999888
 21
116.0044291627
  0
LINE
  8
0
 62
7
  6
CONTINUOUS
 10
223.5786991804
 20
116.0045443362
 11
223.5786732482
 21
116.0082748168
  0
LINE
  8
0
 62
7
  6
CONTINUOUS
 10
223.4558268613
 20
159.0974042146
 11
223.4492708603
 21
159.9909883223
  0
LINE
  8
0
 62
7
  6
CONTINUOUS
 10
223.4623113707
 20
158.024251644
 11
223.4558268613
 21
159.0974042146
  0
LINE
  8
0
 62
7
  6
CONTINUOUS
 10
223.4666028437
 20
157.1628441609
 11
223.4623113707
 21
158.024251644
  0
LINE
  8
0
 62
7
  6
CONTINUOUS
 10
223.4707394213
 20
156.1533933456
 11
223.4666028437
 21
157.1628441609
  0
LINE
  8
0
 62
7
  6
CONTINUOUS
 10
223.47429377
 20
155.044848727
 11
223.4707394213
 21
156.1533933456
  0
LINE
  8
0
 62
7
  6
CONTINUOUS
 10
223.4769404433
 20
153.9195957824
 11
223.47429377
 21
155.044848727
  0
LINE
  8
0
 62
7
  6
CONTINUOUS
 10
223.4787058154
 20
152.7767020249
 11
223.4769404433
 21
153.9195957824
  0
LINE
  8
0
 62
7
  6
CONTINUOUS
 10
223.4795903137
 20
151.6161418118
 11
223.4787058154
 21
152.7767020249
  0
LINE
  8
0
 62
7
  6
CONTINUOUS
 10
223.4795903137
 20
151.6161418118
 11
223.4796967888
 21
144.5422349815
  0
POLYLINE
  8
0
 62
7
  6
CONTINUOUS
 66
1
 70
0
  0
VERTEX
  8
0
 62
7
  6
CONTINUOUS
 10
240.1207279604
 20
141.4191543859
  0
VERTEX
  8
0
 62
7
  6
CONTINUOUS
 10
240.0880464167
 20
141.3522887731
  0
VERTEX
  8
0
 62
7
  6
CONTINUOUS
 10
240.045082834
 20
141.266907336
  0
VERTEX
  8
0
 62
7
  6
CONTINUOUS
 10
240.0020941503
 20
141.1846546155
  0
VERTEX
  8
0
 62
7
  6
CONTINUOUS
 10
239.9589530516
 20
141.1055823707
  0
VERTEX
  8
0
 62
7
  6
CONTINUOUS
 10
239.9155756501
 20
141.0297989036
  0
VERTEX
  8
0
 62
7
  6
CONTINUOUS
 10
239.8718419778
 20
140.9573303734
  0
VERTEX
  8
0
 62
7
  6
CONTINUOUS
 10
239.8275858305
 20
140.8881309709
  0
VERTEX
  8
0
 62
7
  6
CONTINUOUS
 10
239.7826950746
 20
140.8222543709
  0
VERTEX
  8
0
 62
7
  6
CONTINUOUS
 10
239.7371157288
 20
140.7598455651
  0
VERTEX
  8
0
 62
7
  6
CONTINUOUS
 10
239.6908263077
 20
140.7010823048
  0
VERTEX
  8
0
 62
7
  6
CONTINUOUS
 10
239.6437185495
 20
140.64603664
  0
VERTEX
  8
0
 62
7
  6
CONTINUOUS
 10
239.5957201218
 20
140.5948464264
  0
VERTEX
  8
0
 62
7
  6
CONTINUOUS
 10
239.5468290195
 20
140.5477330152
  0
VERTEX
  8
0
 62
7
  6
CONTINUOUS
 10
239.4970320587
 20
140.5049016655
  0
VERTEX
  8
0
 62
7
  6
CONTINUOUS
 10
239.4467383721
 20
140.4668492835
  0
VERTEX
  8
0
 62
7
  6
CONTINUOUS
 10
239.3966090119
 20
140.4340351821
  0
VERTEX
  8
0
 62
7
  6
CONTINUOUS
 10
239.3470887275
 20
140.4065116896
  0
VERTEX
  8
0
 62
7
  6
CONTINUOUS
 10
239.2981414611
 20
140.3839237074
  0
VERTEX
  8
0
 62
7
  6
CONTINUOUS
 10
239.2486664616
 20
140.3655428334
  0
VERTEX
  8
0
 62
7
  6
CONTINUOUS
 10
239.1971117881
 20
140.3508683214
  0
VERTEX
  8
0
 62
7
  6
CONTINUOUS
 10
239.141929803
 20
140.3398621516
  0
VERTEX
  8
0
 62
7
  6
CONTINUOUS
 10
239.0813639954
 20
140.3329178294
  0
VERTEX
  8
0
 62
7
  6
CONTINUOUS
 10
239.0247463246
 20
140.3308823167
  0
SEQEND
  0
POLYLINE
  8
0
 62
7
  6
CONTINUOUS
 66
1
 70
0
  0
VERTEX
  8
0
 62
7
  6
CONTINUOUS
 10
224.2188077916
 20
141.0802986591
  0
VERTEX
  8
0
 62
7
  6
CONTINUOUS
 10
224.1222474754
 20
141.2418342783
  0
VERTEX
  8
0
 62
7
  6
CONTINUOUS
 10
224.0276420942
 20
141.4245479408
  0
VERTEX
  8
0
 62
7
  6
CONTINUOUS
 10
223.9406971298
 20
141.618907254
  0
VERTEX
  8
0
 62
7
  6
CONTINUOUS
 10
223.8611924622
 20
141.8249605771
  0
VERTEX
  8
0
 62
7
  6
CONTINUOUS
 10
223.7889950329
 20
142.0429530995
  0
VERTEX
  8
0
 62
7
  6
CONTINUOUS
 10
223.7242321659
 20
142.2726031827
  0
VERTEX
  8
0
 62
7
  6
CONTINUOUS
 10
223.6669561306
 20
142.5139174671
  0
VERTEX
  8
0
 62
7
  6
CONTINUOUS
 10
223.6171904725
 20
142.7671712426
  0
VERTEX
  8
0
 62
7
  6
CONTINUOUS
 10
223.5749977802
 20
143.0326324571
  0
VERTEX
  8
0
 62
7
  6
CONTINUOUS
 10
223.5404487985
 20
143.3106263462
  0
VERTEX
  8
0
 62
7
  6
CONTINUOUS
 10
223.5136014423
 20
143.60165116
  0
VERTEX
  8
0
 62
7
  6
CONTINUOUS
 10
223.4945097251
 20
143.9062660014
  0
VERTEX
  8
0
 62
7
  6
CONTINUOUS
 10
223.4832154986
 20
144.2249135132
  0
VERTEX
  8
0
 62
7
  6
CONTINUOUS
 10
223.4796966894
 20
144.5422349815
  0
SEQEND
  0
LINE
  8
0
 62
7
  6
CONTINUOUS
 10
240.6716556415
 20
152.122339616
 11
240.6712740742
 21
144.5422350278
  0
LINE
  8
0
 62
7
  6
CONTINUOUS
 10
240.6734594803
 20
153.6082112149
 11
240.6716556415
 21
152.122339616
  0
LINE
  8
0
 62
7
  6
CONTINUOUS
 10
240.6763589632
 20
154.9281455304
 11
240.6734594803
 21
153.6082112149
  0
LINE
  8
0
 62
7
  6
CONTINUOUS
 10
240.6800369828
 20
156.0998873843
 11
240.6763589632
 21
154.9281455304
  0
LINE
  8
0
 62
7
  6
CONTINUOUS
 10
240.6857968477
 20
157.4666777356
 11
240.6800369828
 21
156.0998873843
  0
LINE
  8
0
 62
7
  6
CONTINUOUS
 10
240.6937952427
 20
158.8920827598
 11
240.6857968477
 21
157.4666777356
  0
LINE
  8
0
 62
7
  6
CONTINUOUS
 10
240.4222989344
 20
116.0084666293
 11
240.1642037029
 21
79.2632582737
  0
LINE
  8
0
 62
7
  6
CONTINUOUS
 10
240.7035526501
 20
160.2166525831
 11
240.6937952427
 21
158.8920827598
  0
LINE
  8
0
 62
7
  6
CONTINUOUS
 10
240.1547577173
 20
78.0741574139
 11
240.1642037033
 21
79.2632583389
  0
LINE
  8
0
 62
7
  6
CONTINUOUS
 10
240.714866125
 20
161.3957920089
 11
240.7035526501
 21
160.2166525831
  0
LINE
  8
0
 62
7
  6
CONTINUOUS
 10
240.1443093725
 20
77.0410467805
 11
240.1547577173
 21
78.0741574139
  0
POLYLINE
  8
0
 62
7
  6
CONTINUOUS
 66
1
 70
0
  0
VERTEX
  8
0
 62
7
  6
CONTINUOUS
 10
240.6712741709
 20
144.5422350278
  0
VERTEX
  8
0
 62
7
  6
CONTINUOUS
 10
240.667432698
 20
144.2110260716
  0
VERTEX
  8
0
 62
7
  6
CONTINUOUS
 10
240.6548677216
 20
143.8745036124
  0
VERTEX
  8
0
 62
7
  6
CONTINUOUS
 10
240.6330666221
 20
143.5477807415
  0
VERTEX
  8
0
 62
7
  6
CONTINUOUS
 10
240.6016487742
 20
143.231727783
  0
VERTEX
  8
0
 62
7
  6
CONTINUOUS
 10
240.5603933022
 20
142.9274387907
  0
VERTEX
  8
0
 62
7
  6
CONTINUOUS
 10
240.5092606455
 20
142.6360913476
  0
VERTEX
  8
0
 62
7
  6
CONTINUOUS
 10
240.4483238123
 20
142.3585416356
  0
VERTEX
  8
0
 62
7
  6
CONTINUOUS
 10
240.37785555
 20
142.095841355
  0
VERTEX
  8
0
 62
7
  6
CONTINUOUS
 10
240.2983946308
 20
141.8492547636
  0
VERTEX
  8
0
 62
7
  6
CONTINUOUS
 10
240.2105593844
 20
141.6195947192
  0
VERTEX
  8
0
 62
7
  6
CONTINUOUS
 10
240.1207279143
 20
141.4191544082
  0
SEQEND
  0
LINE
  8
0
 62
7
  6
CONTINUOUS
 10
240.7261612911
 20
162.3050198832
 11
240.714866125
 21
161.3957920089
  0
LINE
  8
0
 62
7
  6
CONTINUOUS
 10
240.1340497924
 20
76.2389218086
 11
240.1443093725
 21
77.0410467805
  0
LINE
  8
0
 62
7
  6
CONTINUOUS
 10
240.1240126896
 20
75.6162239442
 11
240.1340497924
 21
76.2389218086
  0
LINE
  8
0
 62
7
  6
CONTINUOUS
 10
240.7371853987
 20
162.9934415952
 11
240.7261612911
 21
162.3050198832
  0
LINE
  8
0
 62
7
  6
CONTINUOUS
 10
240.74625102
 20
163.4365396599
 11
240.7371853987
 21
162.9934415952
  0
LINE
  8
0
 62
7
  6
CONTINUOUS
 10
240.1143294692
 20
75.1438523827
 11
240.1240126896
 21
75.6162239442
  0
LINE
  8
0
 62
7
  6
CONTINUOUS
 10
240.1081032649
 20
74.8993217387
 11
240.1143294692
 21
75.1438523827
  0
LINE
  8
0
 62
7
  6
CONTINUOUS
 10
240.7532626845
 20
163.7119405849
 11
240.74625102
 21
163.4365396599
  0
LINE
  8
0
 62
7
  6
CONTINUOUS
 10
240.1036112584
 20
74.7494048901
 11
240.1081032649
 21
74.8993217387
  0
LINE
  8
0
 62
7
  6
CONTINUOUS
 10
240.7583053739
 20
163.8766659369
 11
240.7532626845
 21
163.7119405849
  0
LINE
  8
0
 62
7
  6
CONTINUOUS
 10
240.0993531663
 20
74.626598378
 11
240.1036112584
 21
74.7494048901
  0
LINE
  8
0
 62
7
  6
CONTINUOUS
 10
240.7618432006
 20
163.976610604
 11
240.7583053739
 21
163.8766659369
  0
LINE
  8
0
 62
7
  6
CONTINUOUS
 10
240.7653116572
 20
164.0627743814
 11
240.7618432006
 21
163.976610604
  0
LINE
  8
0
 62
7
  6
CONTINUOUS
 10
240.0953332313
 20
74.5269142812
 11
240.0993531663
 21
74.626598378
  0
LINE
  8
0
 62
7
  6
CONTINUOUS
 10
240.7676373297
 20
164.1143333015
 11
240.7653116572
 21
164.0627743814
  0
LINE
  8
0
 62
7
  6
CONTINUOUS
 10
240.0927391627
 20
74.4704648677
 11
240.0953332313
 21
74.5269142812
  0
LINE
  8
0
 62
7
  6
CONTINUOUS
 10
240.7700061677
 20
164.1620081746
 11
240.7676373297
 21
164.1143333015
  0
LINE
  8
0
 62
7
  6
CONTINUOUS
 10
240.0901500831
 20
74.4198824236
 11
240.0927391627
 21
74.4704648677
  0
LINE
  8
0
 62
7
  6
CONTINUOUS
 10
240.772460485
 20
164.2065680191
 11
240.7700061677
 21
164.1620081746
  0
LINE
  8
0
 62
7
  6
CONTINUOUS
 10
240.0874991147
 20
74.3736251613
 11
240.0901500831
 21
74.4198824236
  0
LINE
  8
0
 62
7
  6
CONTINUOUS
 10
240.775064753
 20
164.2488945625
 11
240.772460485
 21
164.2065680191
  0
POLYLINE
  8
0
 62
7
  6
CONTINUOUS
 66
1
 70
0
  0
VERTEX
  8
0
 62
7
  6
CONTINUOUS
 10
240.2783255071
 20
95.510844859
  0
VERTEX
  8
0
 62
7
  6
CONTINUOUS
 10
240.2850702819
 20
95.5650892696
  0
VERTEX
  8
0
 62
7
  6
CONTINUOUS
 10
240.3272834351
 20
95.8305614488
  0
VERTEX
  8
0
 62
7
  6
CONTINUOUS
 10
240.3770716802
 20
96.0838248373
  0
VERTEX
  8
0
 62
7
  6
CONTINUOUS
 10
240.4343725719
 20
96.3251471892
  0
VERTEX
  8
0
 62
7
  6
CONTINUOUS
 10
240.4991624935
 20
96.554802794
  0
VERTEX
  8
0
 62
7
  6
CONTINUOUS
 10
240.5713892846
 20
96.7727981586
  0
VERTEX
  8
0
 62
7
  6
CONTINUOUS
 10
240.6509264044
 20
96.9788530061
  0
VERTEX
  8
0
 62
7
  6
CONTINUOUS
 10
240.7379063689
 20
97.1732098285
  0
VERTEX
  8
0
 62
7
  6
CONTINUOUS
 10
240.832548377
 20
97.3559143736
  0
VERTEX
  8
0
 62
7
  6
CONTINUOUS
 10
240.9288077749
 20
97.5169100022
  0
SEQEND
  0
POLYLINE
  8
0
 62
7
  6
CONTINUOUS
 66
1
 70
0
  0
VERTEX
  8
0
 62
7
  6
CONTINUOUS
 10
240.92880772
 20
97.5169100374
  0
VERTEX
  8
0
 62
7
  6
CONTINUOUS
 10
240.9753012722
 20
97.5875328697
  0
VERTEX
  8
0
 62
7
  6
CONTINUOUS
 10
241.0324075297
 20
97.6692937098
  0
VERTEX
  8
0
 62
7
  6
CONTINUOUS
 10
241.0887706465
 20
97.7446220293
  0
VERTEX
  8
0
 62
7
  6
CONTINUOUS
 10
241.1450319842
 20
97.8145397263
  0
VERTEX
  8
0
 62
7
  6
CONTINUOUS
 10
241.2018761067
 20
97.8798861805
  0
VERTEX
  8
0
 62
7
  6
CONTINUOUS
 10
241.2598590968
 20
97.9411222807
  0
VERTEX
  8
0
 62
7
  6
CONTINUOUS
 10
241.3190541264
 20
97.9980588642
  0
VERTEX
  8
0
 62
7
  6
CONTINUOUS
 10
241.379351512
 20
98.0503196891
  0
VERTEX
  8
0
 62
7
  6
CONTINUOUS
 10
241.4405215661
 20
98.097469186
  0
VERTEX
  8
0
 62
7
  6
CONTINUOUS
 10
241.50233951
 20
98.139145886
  0
VERTEX
  8
0
 62
7
  6
CONTINUOUS
 10
241.5645991644
 20
98.1750698375
  0
VERTEX
  8
0
 62
7
  6
CONTINUOUS
 10
241.6268055633
 20
98.2049113852
  0
VERTEX
  8
0
 62
7
  6
CONTINUOUS
 10
241.6888450127
 20
98.2286750338
  0
VERTEX
  8
0
 62
7
  6
CONTINUOUS
 10
241.7505249898
 20
98.2464291042
  0
VERTEX
  8
0
 62
7
  6
CONTINUOUS
 10
241.8112457972
 20
98.2583113461
  0
VERTEX
  8
0
 62
7
  6
CONTINUOUS
 10
241.8706554229
 20
98.2647400171
  0
VERTEX
  8
0
 62
7
  6
CONTINUOUS
 10
241.9189443198
 20
98.2663261588
  0
SEQEND
  0
LINE
  8
0
 62
7
  6
CONTINUOUS
 10
257.0054854315
 20
164.2486043509
 11
257.0054854315
 21
100.0663257047
  0
POLYLINE
  8
0
 62
7
  6
CONTINUOUS
 66
1
 70
0
  0
VERTEX
  8
0
 62
7
  6
CONTINUOUS
 10
257.0054854315
 20
100.0663263376
  0
VERTEX
  8
0
 62
7
  6
CONTINUOUS
 10
257.0012008899
 20
99.9422054597
  0
VERTEX
  8
0
 62
7
  6
CONTINUOUS
 10
256.9888379194
 20
99.822084851
  0
VERTEX
  8
0
 62
7
  6
CONTINUOUS
 10
256.9680706579
 20
99.7012327612
  0
VERTEX
  8
0
 62
7
  6
CONTINUOUS
 10
256.940597652
 20
99.5873841883
  0
VERTEX
  8
0
 62
7
  6
CONTINUOUS
 10
256.9039319423
 20
99.4702731104
  0
VERTEX
  8
0
 62
7
  6
CONTINUOUS
 10
256.8610063391
 20
99.3597497144
  0
VERTEX
  8
0
 62
7
  6
CONTINUOUS
 10
256.8085379499
 20
99.247655083
  0
VERTEX
  8
0
 62
7
  6
CONTINUOUS
 10
256.7509038015
 20
99.1434601168
  0
VERTEX
  8
0
 62
7
  6
CONTINUOUS
 10
256.6831657395
 20
99.0384834959
  0
VERTEX
  8
0
 62
7
  6
CONTINUOUS
 10
256.6105792889
 20
98.9412880041
  0
VERTEX
  8
0
 62
7
  6
CONTINUOUS
 10
256.5295250826
 20
98.846933455
  0
VERTEX
  8
0
 62
7
  6
CONTINUOUS
 10
256.4411724637
 20
98.7574804496
  0
VERTEX
  8
0
 62
7
  6
CONTINUOUS
 10
256.3469918025
 20
98.6745780828
  0
VERTEX
  8
0
 62
7
  6
CONTINUOUS
 10
256.2455604776
 20
98.5972300513
  0
VERTEX
  8
0
 62
7
  6
CONTINUOUS
 10
256.1378604621
 20
98.5266261063
  0
VERTEX
  8
0
 62
7
  6
CONTINUOUS
 10
256.0251448134
 20
98.4637788351
  0
VERTEX
  8
0
 62
7
  6
CONTINUOUS
 10
255.9062949254
 20
98.4083558755
  0
VERTEX
  8
0
 62
7
  6
CONTINUOUS
 10
255.7826243313
 20
98.3613598598
  0
VERTEX
  8
0
 62
7
  6
CONTINUOUS
 10
255.6566516691
 20
98.3237853694
  0
VERTEX
  8
0
 62
7
  6
CONTINUOUS
 10
255.5237667548
 20
98.294689524
  0
VERTEX
  8
0
 62
7
  6
CONTINUOUS
 10
255.3927727751
 20
98.2760963382
  0
VERTEX
  8
0
 62
7
  6
CONTINUOUS
 10
255.2547473178
 20
98.2670005565
  0
VERTEX
  8
0
 62
7
  6
CONTINUOUS
 10
255.2054854315
 20
98.2663263377
  0
SEQEND
  0
LINE
  8
0
 62
7
  6
CONTINUOUS
 10
56.6054854315
 20
217.0209356047
 11
56.6054854315
 21
190.6209356047
  0
LINE
  8
0
 62
7
  6
CONTINUOUS
 10
66.7316061945
 20
250.9256337362
 11
65.6778895359
 21
220.7511366113
  0
LINE
  8
0
 62
7
  6
CONTINUOUS
 10
72.9554854315
 20
243.6191110471
 11
72.9554854315
 21
215.7209356047
  0
LINE
  8
0
 62
7
  6
CONTINUOUS
 10
72.9284120981
 20
215.7209356047
 11
72.7090681487
 21
190.6052162041
  0
LINE
  8
0
 62
7
  6
CONTINUOUS
 10
90.3619027142
 20
190.6052162041
 11
90.1425587648
 21
215.7209356047
  0
LINE
  8
0
 62
7
  6
CONTINUOUS
 10
90.1154854315
 20
215.7209356047
 11
90.1154854315
 21
243.6191110471
  0
LINE
  8
0
 62
7
  6
CONTINUOUS
 10
97.5430813271
 20
220.7511366113
 11
96.4893646684
 21
250.9256337362
  0
LINE
  8
0
 62
7
  6
CONTINUOUS
 10
107.3992354315
 20
212.4209356047
 11
107.3992354315
 21
212.1209356047
  0
LINE
  8
0
 62
7
  6
CONTINUOUS
 10
107.47215182
 20
212.4209356047
 11
107.47215182
 21
212.1209356047
  0
LINE
  8
0
 62
7
  6
CONTINUOUS
 10
107.69090182
 20
212.4209356047
 11
107.69090182
 21
212.1209356047
  0
LINE
  8
0
 62
7
  6
CONTINUOUS
 10
107.982569043
 20
212.4209356047
 11
107.982569043
 21
212.1209356047
  0
LINE
  8
0
 62
7
  6
CONTINUOUS
 10
108.34715182
 20
212.4209356047
 11
108.34715182
 21
212.1209356047
  0
LINE
  8
0
 62
7
  6
CONTINUOUS
 10
110.0971522372
 20
212.4209356047
 11
110.0971522372
 21
212.1209356047
  0
LINE
  8
0
 62
7
  6
CONTINUOUS
 10
110.6804854315
 20
212.4209356047
 11
110.6804854315
 21
212.1209356047
  0
LINE
  8
0
 62
7
  6
CONTINUOUS
 10
106.5096281487
 20
217.0052162041
 11
106.2790681487
 21
190.6052162041
  0
POLYLINE
  8
0
 62
7
  6
CONTINUOUS
 66
1
 70
0
  0
VERTEX
  8
0
 62
7
  6
CONTINUOUS
 10
75.1808850339
 20
211.2270884879
  0
VERTEX
  8
0
 62
7
  6
CONTINUOUS
 10
74.8212136296
 20
211.4000478138
  0
VERTEX
  8
0
 62
7
  6
CONTINUOUS
 10
74.6115111818
 20
211.5004329019
  0
SEQEND
  0
LINE
  8
0
 62
7
  6
CONTINUOUS
 10
113.3054854315
 20
212.4209356047
 11
113.3054854315
 21
212.1209356047
  0
LINE
  8
0
 62
7
  6
CONTINUOUS
 10
113.8888188344
 20
212.4209356047
 11
113.8888188344
 21
212.1209356047
  0
LINE
  8
0
 62
7
  6
CONTINUOUS
 10
114.3263188344
 20
212.4209356047
 11
114.3263188344
 21
212.1209356047
  0
LINE
  8
0
 62
7
  6
CONTINUOUS
 10
115.3471521329
 20
212.4209356047
 11
115.3471521329
 21
212.1209356047
  0
LINE
  8
0
 62
7
  6
CONTINUOUS
 10
116.3679854315
 20
212.4209356047
 11
116.3679854315
 21
212.1209356047
  0
LINE
  8
0
 62
7
  6
CONTINUOUS
 10
116.8054854315
 20
212.4209356047
 11
116.8054854315
 21
212.1209356047
  0
LINE
  8
0
 62
7
  6
CONTINUOUS
 10
116.8616062049
 20
250.9256340317
 11
115.8078895359
 21
220.7511366113
  0
POLYLINE
  8
0
 62
7
  6
CONTINUOUS
 66
1
 70
0
  0
VERTEX
  8
0
 62
7
  6
CONTINUOUS
 10
74.6115111818
 20
211.5004329019
  0
VERTEX
  8
0
 62
7
  6
CONTINUOUS
 10
74.491811556
 20
211.5524741636
  0
VERTEX
  8
0
 62
7
  6
CONTINUOUS
 10
74.3548259035
 20
211.601930297
  0
VERTEX
  8
0
 62
7
  6
CONTINUOUS
 10
74.1968822622
 20
211.6489117373
  0
VERTEX
  8
0
 62
7
  6
CONTINUOUS
 10
74.0141029539
 20
211.6934541488
  0
VERTEX
  8
0
 62
7
  6
CONTINUOUS
 10
73.8050904259
 20
211.7353086173
  0
VERTEX
  8
0
 62
7
  6
CONTINUOUS
 10
73.5711019976
 20
211.7745940106
  0
VERTEX
  8
0
 62
7
  6
CONTINUOUS
 10
73.3126591255
 20
211.8125405528
  0
VERTEX
  8
0
 62
7
  6
CONTINUOUS
 10
73.0291176442
 20
211.8512921549
  0
SEQEND
  0
POLYLINE
  8
0
 62
7
  6
CONTINUOUS
 66
1
 70
0
  0
VERTEX
  8
0
 62
7
  6
CONTINUOUS
 10
120.6110341322
 20
211.6452262481
  0
VERTEX
  8
0
 62
7
  6
CONTINUOUS
 10
120.6442107633
 20
211.52709878
  0
VERTEX
  8
0
 62
7
  6
CONTINUOUS
 10
120.6767365409
 20
211.4205282434
  0
VERTEX
  8
0
 62
7
  6
CONTINUOUS
 10
120.708607848
 20
211.3246064873
  0
VERTEX
  8
0
 62
7
  6
CONTINUOUS
 10
120.7398399735
 20
211.2384773322
  0
VERTEX
  8
0
 62
7
  6
CONTINUOUS
 10
120.7704315893
 20
211.1614263972
  0
VERTEX
  8
0
 62
7
  6
CONTINUOUS
 10
120.8004271988
 20
211.0927105077
  0
VERTEX
  8
0
 62
7
  6
CONTINUOUS
 10
120.8298712358
 20
211.0316856823
  0
VERTEX
  8
0
 62
7
  6
CONTINUOUS
 10
120.8586484668
 20
210.9780752052
  0
VERTEX
  8
0
 62
7
  6
CONTINUOUS
 10
120.8867503945
 20
210.9313847638
  0
VERTEX
  8
0
 62
7
  6
CONTINUOUS
 10
120.9141552564
 20
210.8911712278
  0
VERTEX
  8
0
 62
7
  6
CONTINUOUS
 10
120.9408174965
 20
210.8570379999
  0
VERTEX
  8
0
 62
7
  6
CONTINUOUS
 10
120.9666574706
 20
210.828620936
  0
VERTEX
  8
0
 62
7
  6
CONTINUOUS
 10
120.9915511564
 20
210.8055665212
  0
VERTEX
  8
0
 62
7
  6
CONTINUOUS
 10
121.0153239882
 20
210.7875011017
  0
VERTEX
  8
0
 62
7
  6
CONTINUOUS
 10
121.0377599004
 20
210.7739922201
  0
VERTEX
  8
0
 62
7
  6
CONTINUOUS
 10
121.0587568018
 20
210.7644700375
  0
VERTEX
  8
0
 62
7
  6
CONTINUOUS
 10
121.0785684968
 20
210.7582609826
  0
VERTEX
  8
0
 62
7
  6
CONTINUOUS
 10
121.0976194962
 20
210.7548440401
  0
SEQEND
  0
POLYLINE
  8
0
 62
7
  6
CONTINUOUS
 66
1
 70
0
  0
VERTEX
  8
0
 62
7
  6
CONTINUOUS
 10
120.6110341322
 20
211.6452262481
  0
VERTEX
  8
0
 62
7
  6
CONTINUOUS
 10
120.6696846418
 20
211.4282498284
  0
VERTEX
  8
0
 62
7
  6
CONTINUOUS
 10
120.681385663
 20
211.3841906944
  0
VERTEX
  8
0
 62
7
  6
CONTINUOUS
 10
120.691863327
 20
211.3437666783
  0
VERTEX
  8
0
 62
7
  6
CONTINUOUS
 10
120.7010862935
 20
211.3067498428
  0
VERTEX
  8
0
 62
7
  6
CONTINUOUS
 10
120.7090255187
 20
211.272884125
  0
VERTEX
  8
0
 62
7
  6
CONTINUOUS
 10
120.7156512167
 20
211.2418966012
  0
VERTEX
  8
0
 62
7
  6
CONTINUOUS
 10
120.7209330989
 20
211.2134827854
  0
VERTEX
  8
0
 62
7
  6
CONTINUOUS
 10
120.724811601
 20
211.1874608565
  0
VERTEX
  8
0
 62
7
  6
CONTINUOUS
 10
120.7272127582
 20
211.1638884024
  0
VERTEX
  8
0
 62
7
  6
CONTINUOUS
 10
120.72812611
 20
211.1428120088
  0
VERTEX
  8
0
 62
7
  6
CONTINUOUS
 10
120.7276153152
 20
211.1240242174
  0
VERTEX
  8
0
 62
7
  6
CONTINUOUS
 10
120.7257431189
 20
211.1071476455
  0
VERTEX
  8
0
 62
7
  6
CONTINUOUS
 10
120.7224824335
 20
211.0916868624
  0
VERTEX
  8
0
 62
7
  6
CONTINUOUS
 10
120.7177645983
 20
211.0774659573
  0
VERTEX
  8
0
 62
7
  6
CONTINUOUS
 10
120.7115420633
 20
211.0644734201
  0
VERTEX
  8
0
 62
7
  6
CONTINUOUS
 10
120.7036994623
 20
211.052603167
  0
VERTEX
  8
0
 62
7
  6
CONTINUOUS
 10
120.6939450471
 20
211.041678758
  0
VERTEX
  8
0
 62
7
  6
CONTINUOUS
 10
120.6819632427
 20
211.0317283904
  0
VERTEX
  8
0
 62
7
  6
CONTINUOUS
 10
120.6675680301
 20
211.0229731027
  0
SEQEND
  0
LINE
  8
0
 62
7
  6
CONTINUOUS
 10
123.7819027142
 20
190.6052162041
 11
123.3193235434
 21
243.5722968391
  0
POLYLINE
  8
0
 62
7
  6
CONTINUOUS
 66
1
 70
0
  0
VERTEX
  8
0
 62
7
  6
CONTINUOUS
 10
59.7801896484
 20
190.0181215248
  0
VERTEX
  8
0
 62
7
  6
CONTINUOUS
 10
59.7803155788
 20
190.0182146468
  0
VERTEX
  8
0
 62
7
  6
CONTINUOUS
 10
59.7847660338
 20
190.0213801655
  0
VERTEX
  8
0
 62
7
  6
CONTINUOUS
 10
59.795527757
 20
190.0285222614
  0
VERTEX
  8
0
 62
7
  6
CONTINUOUS
 10
59.8133131418
 20
190.0394891024
  0
VERTEX
  8
0
 62
7
  6
CONTINUOUS
 10
59.838843827
 20
190.0540804822
  0
VERTEX
  8
0
 62
7
  6
CONTINUOUS
 10
59.8727584381
 20
190.0719956992
  0
VERTEX
  8
0
 62
7
  6
CONTINUOUS
 10
59.915241287
 20
190.0926708912
  0
VERTEX
  8
0
 62
7
  6
CONTINUOUS
 10
59.96613018
 20
190.1154068768
  0
VERTEX
  8
0
 62
7
  6
CONTINUOUS
 10
60.0249868642
 20
190.139448147
  0
VERTEX
  8
0
 62
7
  6
CONTINUOUS
 10
60.0911153478
 20
190.1640231899
  0
VERTEX
  8
0
 62
7
  6
CONTINUOUS
 10
60.1635894449
 20
190.1883834154
  0
VERTEX
  8
0
 62
7
  6
CONTINUOUS
 10
60.2412367504
 20
190.2118244517
  0
VERTEX
  8
0
 62
7
  6
CONTINUOUS
 10
60.322877706
 20
190.2337757859
  0
VERTEX
  8
0
 62
7
  6
CONTINUOUS
 10
60.4075928816
 20
190.2538514531
  0
VERTEX
  8
0
 62
7
  6
CONTINUOUS
 10
60.4944902395
 20
190.2717592798
  0
VERTEX
  8
0
 62
7
  6
CONTINUOUS
 10
60.582780542
 20
190.2873064869
  0
VERTEX
  8
0
 62
7
  6
CONTINUOUS
 10
60.6720049654
 20
190.3004134443
  0
VERTEX
  8
0
 62
7
  6
CONTINUOUS
 10
60.7618249345
 20
190.3110446625
  0
VERTEX
  8
0
 62
7
  6
CONTINUOUS
 10
60.8519568646
 20
190.3191885706
  0
VERTEX
  8
0
 62
7
  6
CONTINUOUS
 10
60.942125257
 20
190.3248492638
  0
VERTEX
  8
0
 62
7
  6
CONTINUOUS
 10
61.0320805516
 20
190.32804702
  0
VERTEX
  8
0
 62
7
  6
CONTINUOUS
 10
61.1054854315
 20
190.3288551776
  0
SEQEND
  0
LINE
  8
0
 62
7
  6
CONTINUOUS
 10
58.4054854315
 20
188.8209356047
 11
255.2054854315
 21
188.8209356047
  0
LINE
  8
0
 62
7
  6
CONTINUOUS
 10
61.1054854315
 20
190.3288548845
 11
62.6054854323
 21
190.3288548845
  0
POLYLINE
  8
0
 62
7
  6
CONTINUOUS
 66
1
 70
0
  0
VERTEX
  8
0
 62
7
  6
CONTINUOUS
 10
62.6054854323
 20
190.3288550887
  0
VERTEX
  8
0
 62
7
  6
CONTINUOUS
 10
62.677512095
 20
190.3280770172
  0
VERTEX
  8
0
 62
7
  6
CONTINUOUS
 10
62.767499124
 20
190.3249150528
  0
VERTEX
  8
0
 62
7
  6
CONTINUOUS
 10
62.8576731951
 20
190.3192908914
  0
VERTEX
  8
0
 62
7
  6
CONTINUOUS
 10
62.947805574
 20
190.3111842222
  0
VERTEX
  8
0
 62
7
  6
CONTINUOUS
 10
63.0376368159
 20
190.3005894039
  0
VERTEX
  8
0
 62
7
  6
CONTINUOUS
 10
63.1268978951
 20
190.2875148693
  0
VERTEX
  8
0
 62
7
  6
CONTINUOUS
 10
63.2152635281
 20
190.2719915026
  0
VERTEX
  8
0
 62
7
  6
CONTINUOUS
 10
63.3022783668
 20
190.2540947382
  0
VERTEX
  8
0
 62
7
  6
CONTINUOUS
 10
63.3871210507
 20
190.2340213901
  0
VERTEX
  8
0
 62
7
  6
CONTINUOUS
 10
63.468864319
 20
190.2120724483
  0
VERTEX
  8
0
 62
7
  6
CONTINUOUS
 10
63.5465705434
 20
190.1886419205
  0
VERTEX
  8
0
 62
7
  6
CONTINUOUS
 10
63.6191052227
 20
190.1642886114
  0
VERTEX
  8
0
 62
7
  6
CONTINUOUS
 10
63.685337756
 20
190.1397002157
  0
VERTEX
  8
0
 62
7
  6
CONTINUOUS
 10
63.7443196674
 20
190.1156297383
  0
VERTEX
  8
0
 62
7
  6
CONTINUOUS
 10
63.7953257501
 20
190.092859404
  0
VERTEX
  8
0
 62
7
  6
CONTINUOUS
 10
63.8379021688
 20
190.0721531945
  0
VERTEX
  8
0
 62
7
  6
CONTINUOUS
 10
63.8718964878
 20
190.054207403
  0
VERTEX
  8
0
 62
7
  6
CONTINUOUS
 10
63.8974974618
 20
190.0395844832
  0
VERTEX
  8
0
 62
7
  6
CONTINUOUS
 10
63.9153384546
 20
190.0285893664
  0
VERTEX
  8
0
 62
7
  6
CONTINUOUS
 10
63.9261494127
 20
190.0214184781
  0
VERTEX
  8
0
 62
7
  6
CONTINUOUS
 10
63.9289715864
 20
190.0194380903
  0
SEQEND
  0
POLYLINE
  8
0
 62
7
  6
CONTINUOUS
 66
1
 70
0
  0
VERTEX
  8
0
 62
7
  6
CONTINUOUS
 10
242.7322402557
 20
210.7649515241
  0
VERTEX
  8
0
 62
7
  6
CONTINUOUS
 10
242.7512704103
 20
210.768371761
  0
VERTEX
  8
0
 62
7
  6
CONTINUOUS
 10
242.7710488219
 20
210.7745682563
  0
VERTEX
  8
0
 62
7
  6
CONTINUOUS
 10
242.7920030375
 20
210.7840598622
  0
VERTEX
  8
0
 62
7
  6
CONTINUOUS
 10
242.8143853362
 20
210.797516529
  0
VERTEX
  8
0
 62
7
  6
CONTINUOUS
 10
242.8380862592
 20
210.8154993881
  0
VERTEX
  8
0
 62
7
  6
CONTINUOUS
 10
242.8628891437
 20
210.8384350118
  0
VERTEX
  8
0
 62
7
  6
CONTINUOUS
 10
242.8886193758
 20
210.8666918759
  0
VERTEX
  8
0
 62
7
  6
CONTINUOUS
 10
242.9151523317
 20
210.9006178515
  0
VERTEX
  8
0
 62
7
  6
CONTINUOUS
 10
242.942408865
 20
210.9405729296
  0
VERTEX
  8
0
 62
7
  6
CONTINUOUS
 10
242.9703390206
 20
210.9869414989
  0
VERTEX
  8
0
 62
7
  6
CONTINUOUS
 10
242.9989328021
 20
211.040182812
  0
VERTEX
  8
0
 62
7
  6
CONTINUOUS
 10
243.028108499
 20
211.1006321628
  0
VERTEX
  8
0
 62
7
  6
CONTINUOUS
 10
243.0578639365
 20
211.1687899947
  0
VERTEX
  8
0
 62
7
  6
CONTINUOUS
 10
243.0882381541
 20
211.245313444
  0
VERTEX
  8
0
 62
7
  6
CONTINUOUS
 10
243.1192361273
 20
211.3308585983
  0
VERTEX
  8
0
 62
7
  6
CONTINUOUS
 10
243.1508684541
 20
211.4261771576
  0
VERTEX
  8
0
 62
7
  6
CONTINUOUS
 10
243.1831446073
 20
211.532116162
  0
VERTEX
  8
0
 62
7
  6
CONTINUOUS
 10
243.2160589076
 20
211.6495840152
  0
SEQEND
  0
LINE
  8
0
 62
7
  6
CONTINUOUS
 10
140.1616473196
 20
243.5722968391
 11
139.6990681487
 21
190.6052162041
  0
POLYLINE
  8
0
 62
7
  6
CONTINUOUS
 66
1
 70
0
  0
VERTEX
  8
0
 62
7
  6
CONTINUOUS
 10
176.4890093809
 20
210.8345969285
  0
VERTEX
  8
0
 62
7
  6
CONTINUOUS
 10
176.1560942977
 20
210.7953188471
  0
VERTEX
  8
0
 62
7
  6
CONTINUOUS
 10
175.8238453465
 20
210.757169494
  0
VERTEX
  8
0
 62
7
  6
CONTINUOUS
 10
175.4933077359
 20
210.7199722642
  0
SEQEND
  0
POLYLINE
  8
0
 62
7
  6
CONTINUOUS
 66
1
 70
0
  0
VERTEX
  8
0
 62
7
  6
CONTINUOUS
 10
173.8985674304
 20
210.5434084739
  0
VERTEX
  8
0
 62
7
  6
CONTINUOUS
 10
173.5973950584
 20
210.5092973939
  0
VERTEX
  8
0
 62
7
  6
CONTINUOUS
 10
173.2925895931
 20
210.4740838805
  0
SEQEND
  0
LINE
  8
0
 62
7
  6
CONTINUOUS
 10
242.7322402557
 20
210.7649515241
 11
242.4078121995
 21
210.7283044618
  0
POLYLINE
  8
0
 62
7
  6
CONTINUOUS
 66
1
 70
0
  0
VERTEX
  8
0
 62
7
  6
CONTINUOUS
 10
240.8381051922
 20
210.5545675513
  0
VERTEX
  8
0
 62
7
  6
CONTINUOUS
 10
240.5404871273
 20
210.5210389679
  0
VERTEX
  8
0
 62
7
  6
CONTINUOUS
 10
240.1325889192
 20
210.4740067133
  0
SEQEND
  0
POLYLINE
  8
0
 62
7
  6
CONTINUOUS
 66
1
 70
0
  0
VERTEX
  8
0
 62
7
  6
CONTINUOUS
 10
242.4078121995
 20
210.7283044618
  0
VERTEX
  8
0
 62
7
  6
CONTINUOUS
 10
241.7670760379
 20
210.6572773198
  0
VERTEX
  8
0
 62
7
  6
CONTINUOUS
 10
241.4522966495
 20
210.6226260395
  0
VERTEX
  8
0
 62
7
  6
CONTINUOUS
 10
240.8381051922
 20
210.5545675513
  0
SEQEND
  0
POLYLINE
  8
0
 62
7
  6
CONTINUOUS
 66
1
 70
0
  0
VERTEX
  8
0
 62
7
  6
CONTINUOUS
 10
175.4933077359
 20
210.7199722642
  0
VERTEX
  8
0
 62
7
  6
CONTINUOUS
 10
174.8413234811
 20
210.6478364014
  0
VERTEX
  8
0
 62
7
  6
CONTINUOUS
 10
174.5214536629
 20
210.6126163265
  0
VERTEX
  8
0
 62
7
  6
CONTINUOUS
 10
173.8985674304
 20
210.5434084739
  0
SEQEND
  0
LINE
  8
DEFAULT_1
 62
2
  6
CENTER
 10
46.3043056039
 20
203.8209356047
 11
266.76415936
 21
203.8209356047
  0
POLYLINE
  8
0
 62
7
  6
CONTINUOUS
 66
1
 70
0
  0
VERTEX
  8
0
 62
7
  6
CONTINUOUS
 10
76.2608275658
 20
210.8403004599
  0
VERTEX
  8
0
 62
7
  6
CONTINUOUS
 10
76.1904686113
 20
210.843397574
  0
VERTEX
  8
0
 62
7
  6
CONTINUOUS
 10
76.1121911686
 20
210.853868459
  0
VERTEX
  8
0
 62
7
  6
CONTINUOUS
 10
76.026375657
 20
210.8727438215
  0
VERTEX
  8
0
 62
7
  6
CONTINUOUS
 10
75.9331328785
 20
210.9001923853
  0
VERTEX
  8
0
 62
7
  6
CONTINUOUS
 10
75.8321056648
 20
210.9358954269
  0
VERTEX
  8
0
 62
7
  6
CONTINUOUS
 10
75.7229142016
 20
210.9792968695
  0
VERTEX
  8
0
 62
7
  6
CONTINUOUS
 10
75.6044128521
 20
211.0301518129
  0
VERTEX
  8
0
 62
7
  6
CONTINUOUS
 10
75.4754416741
 20
211.0883516471
  0
VERTEX
  8
0
 62
7
  6
CONTINUOUS
 10
75.3349080269
 20
211.1538584438
  0
VERTEX
  8
0
 62
7
  6
CONTINUOUS
 10
75.1808850339
 20
211.2270884879
  0
SEQEND
  0
POLYLINE
  8
0
 62
7
  6
CONTINUOUS
 66
1
 70
0
  0
VERTEX
  8
0
 62
7
  6
CONTINUOUS
 10
86.991961482
 20
210.8345969285
  0
VERTEX
  8
0
 62
7
  6
CONTINUOUS
 10
86.9442381001
 20
210.8388840046
  0
VERTEX
  8
0
 62
7
  6
CONTINUOUS
 10
86.8968488904
 20
210.8403004228
  0
SEQEND
  0
POLYLINE
  8
0
 62
7
  6
CONTINUOUS
 66
1
 70
0
  0
VERTEX
  8
0
 62
7
  6
CONTINUOUS
 10
122.7109375098
 20
210.5759585504
  0
VERTEX
  8
0
 62
7
  6
CONTINUOUS
 10
121.4275090136
 20
210.71775717
  0
VERTEX
  8
0
 62
7
  6
CONTINUOUS
 10
121.0976194962
 20
210.7548440401
  0
SEQEND
  0
POLYLINE
  8
0
 62
7
  6
CONTINUOUS
 66
1
 70
0
  0
VERTEX
  8
0
 62
7
  6
CONTINUOUS
 10
89.2741738749
 20
210.5778201478
  0
VERTEX
  8
0
 62
7
  6
CONTINUOUS
 10
89.5824973273
 20
210.5433979236
  0
VERTEX
  8
0
 62
7
  6
CONTINUOUS
 10
89.8836803362
 20
210.5092854503
  0
SEQEND
  0
POLYLINE
  8
0
 62
7
  6
CONTINUOUS
 66
1
 70
0
  0
VERTEX
  8
0
 62
7
  6
CONTINUOUS
 10
123.6083811646
 20
210.4740959349
  0
VERTEX
  8
0
 62
7
  6
CONTINUOUS
 10
123.318739732
 20
210.5075639548
  0
VERTEX
  8
0
 62
7
  6
CONTINUOUS
 10
123.0184163846
 20
210.5416085226
  0
VERTEX
  8
0
 62
7
  6
CONTINUOUS
 10
122.7109375098
 20
210.5759585504
  0
SEQEND
  0
POLYLINE
  8
0
 62
7
  6
CONTINUOUS
 66
1
 70
0
  0
VERTEX
  8
0
 62
7
  6
CONTINUOUS
 10
86.991961482
 20
210.8345969285
  0
VERTEX
  8
0
 62
7
  6
CONTINUOUS
 10
87.3248897762
 20
210.7953173113
  0
VERTEX
  8
0
 62
7
  6
CONTINUOUS
 10
87.6571507233
 20
210.7571666321
  0
VERTEX
  8
0
 62
7
  6
CONTINUOUS
 10
87.9877012051
 20
210.7199680125
  0
VERTEX
  8
0
 62
7
  6
CONTINUOUS
 10
89.2741738749
 20
210.5778201478
  0
SEQEND
  0
LINE
  8
0
 62
7
  6
CONTINUOUS
 10
89.8836803362
 20
210.5092854503
 11
90.1883812686
 21
210.4740840284
  0
POLYLINE
  8
0
 62
7
  6
CONTINUOUS
 66
1
 70
0
  0
VERTEX
  8
0
 62
7
  6
CONTINUOUS
 10
143.1641219525
 20
210.840298163
  0
VERTEX
  8
0
 62
7
  6
CONTINUOUS
 10
143.0471963866
 20
210.9015114665
  0
VERTEX
  8
0
 62
7
  6
CONTINUOUS
 10
142.8134101368
 20
211.0229686899
  0
SEQEND
  0
POLYLINE
  8
0
 62
7
  6
CONTINUOUS
 66
1
 70
0
  0
VERTEX
  8
0
 62
7
  6
CONTINUOUS
 10
142.8134101368
 20
211.0229686899
  0
VERTEX
  8
0
 62
7
  6
CONTINUOUS
 10
142.7993617304
 20
211.0314780069
  0
VERTEX
  8
0
 62
7
  6
CONTINUOUS
 10
142.7875602421
 20
211.0411686608
  0
VERTEX
  8
0
 62
7
  6
CONTINUOUS
 10
142.7779338557
 20
211.0517537223
  0
VERTEX
  8
0
 62
7
  6
CONTINUOUS
 10
142.7701917592
 20
211.0631483102
  0
VERTEX
  8
0
 62
7
  6
CONTINUOUS
 10
142.7640956905
 20
211.075317117
  0
VERTEX
  8
0
 62
7
  6
CONTINUOUS
 10
142.7594518453
 20
211.0882766057
  0
VERTEX
  8
0
 62
7
  6
CONTINUOUS
 10
142.7560428167
 20
211.1024454269
  0
VERTEX
  8
0
 62
7
  6
CONTINUOUS
 10
142.7538084912
 20
211.1184215179
  0
VERTEX
  8
0
 62
7
  6
CONTINUOUS
 10
142.7528582458
 20
211.1364646872
  0
VERTEX
  8
0
 62
7
  6
CONTINUOUS
 10
142.7532751235
 20
211.156290574
  0
VERTEX
  8
0
 62
7
  6
CONTINUOUS
 10
142.755016281
 20
211.1777075151
  0
VERTEX
  8
0
 62
7
  6
CONTINUOUS
 10
142.7580298986
 20
211.2009227642
  0
VERTEX
  8
0
 62
7
  6
CONTINUOUS
 10
142.7622921509
 20
211.2262199231
  0
VERTEX
  8
0
 62
7
  6
CONTINUOUS
 10
142.7677857138
 20
211.2538480165
  0
VERTEX
  8
0
 62
7
  6
CONTINUOUS
 10
142.7744858341
 20
211.2840055743
  0
VERTEX
  8
0
 62
7
  6
CONTINUOUS
 10
142.7823693167
 20
211.3169091538
  0
VERTEX
  8
0
 62
7
  6
CONTINUOUS
 10
142.7914436091
 20
211.352894538
  0
VERTEX
  8
0
 62
7
  6
CONTINUOUS
 10
142.8017030045
 20
211.3922295098
  0
SEQEND
  0
LINE
  8
0
 62
7
  6
CONTINUOUS
 10
147.6730813271
 20
220.7511366113
 11
146.6193646581
 21
250.9256340317
  0
LINE
  8
0
 62
7
  6
CONTINUOUS
 10
147.9554854315
 20
212.4209356047
 11
147.9554854315
 21
212.1209356047
  0
LINE
  8
0
 62
7
  6
CONTINUOUS
 10
148.8054854315
 20
212.4209356047
 11
148.8054854315
 21
212.1209356047
  0
LINE
  8
0
 62
7
  6
CONTINUOUS
 10
149.6554854315
 20
212.4209356047
 11
149.6554854315
 21
212.1209356047
  0
POLYLINE
  8
0
 62
7
  6
CONTINUOUS
 66
1
 70
0
  0
VERTEX
  8
0
 62
7
  6
CONTINUOUS
 10
142.8017030045
 20
211.3922295098
  0
VERTEX
  8
0
 62
7
  6
CONTINUOUS
 10
142.8393553461
 20
211.5321896519
  0
VERTEX
  8
0
 62
7
  6
CONTINUOUS
 10
142.8699210073
 20
211.6451679388
  0
SEQEND
  0
POLYLINE
  8
0
 62
7
  6
CONTINUOUS
 66
1
 70
0
  0
VERTEX
  8
0
 62
7
  6
CONTINUOUS
 10
142.3833513668
 20
210.7548440401
  0
VERTEX
  8
0
 62
7
  6
CONTINUOUS
 10
142.4024018499
 20
210.758260856
  0
VERTEX
  8
0
 62
7
  6
CONTINUOUS
 10
142.4222129754
 20
210.7644696233
  0
VERTEX
  8
0
 62
7
  6
CONTINUOUS
 10
142.4432092249
 20
210.7739913072
  0
VERTEX
  8
0
 62
7
  6
CONTINUOUS
 10
142.4656444044
 20
210.787499425
  0
VERTEX
  8
0
 62
7
  6
CONTINUOUS
 10
142.4894164546
 20
210.8055637861
  0
VERTEX
  8
0
 62
7
  6
CONTINUOUS
 10
142.5143093258
 20
210.828616824
  0
VERTEX
  8
0
 62
7
  6
CONTINUOUS
 10
142.5401484583
 20
210.8570321672
  0
VERTEX
  8
0
 62
7
  6
CONTINUOUS
 10
142.5668098315
 20
210.8911633032
  0
VERTEX
  8
0
 62
7
  6
CONTINUOUS
 10
142.5942137992
 20
210.931374341
  0
VERTEX
  8
0
 62
7
  6
CONTINUOUS
 10
142.6223148049
 20
210.9780618408
  0
VERTEX
  8
0
 62
7
  6
CONTINUOUS
 10
142.651091074
 20
211.0316688677
  0
VERTEX
  8
0
 62
7
  6
CONTINUOUS
 10
142.680534142
 20
211.0926897504
  0
VERTEX
  8
0
 62
7
  6
CONTINUOUS
 10
142.7105287912
 20
211.1614012116
  0
VERTEX
  8
0
 62
7
  6
CONTINUOUS
 10
142.7411194135
 20
211.2384470848
  0
VERTEX
  8
0
 62
7
  6
CONTINUOUS
 10
142.7723505159
 20
211.3245704787
  0
VERTEX
  8
0
 62
7
  6
CONTINUOUS
 10
142.8042207746
 20
211.4204857057
  0
VERTEX
  8
0
 62
7
  6
CONTINUOUS
 10
142.836745476
 20
211.5270488415
  0
VERTEX
  8
0
 62
7
  6
CONTINUOUS
 10
142.8699210073
 20
211.6451679388
  0
SEQEND
  0
POLYLINE
  8
0
 62
7
  6
CONTINUOUS
 66
1
 70
0
  0
VERTEX
  8
0
 62
7
  6
CONTINUOUS
 10
140.4626287177
 20
210.5416168707
  0
VERTEX
  8
0
 62
7
  6
CONTINUOUS
 10
140.1623170151
 20
210.5075737773
  0
VERTEX
  8
0
 62
7
  6
CONTINUOUS
 10
139.8725896994
 20
210.4740960541
  0
SEQEND
  0
LINE
  8
0
 62
7
  6
CONTINUOUS
 10
142.3833513668
 20
210.7548440401
 11
142.0534755195
 21
210.7177586952
  0
POLYLINE
  8
0
 62
7
  6
CONTINUOUS
 66
1
 70
0
  0
VERTEX
  8
0
 62
7
  6
CONTINUOUS
 10
142.0534755195
 20
210.7177586952
  0
VERTEX
  8
0
 62
7
  6
CONTINUOUS
 10
141.0838535648
 20
210.6106757198
  0
VERTEX
  8
0
 62
7
  6
CONTINUOUS
 10
140.4626287177
 20
210.5416168707
  0
SEQEND
  0
POLYLINE
  8
0
 62
7
  6
CONTINUOUS
 66
1
 70
0
  0
VERTEX
  8
0
 62
7
  6
CONTINUOUS
 10
176.4890093809
 20
210.8345969285
  0
VERTEX
  8
0
 62
7
  6
CONTINUOUS
 10
176.5367327628
 20
210.8388840046
  0
VERTEX
  8
0
 62
7
  6
CONTINUOUS
 10
176.5841219725
 20
210.8403004228
  0
SEQEND
  0
LINE
  8
0
 62
7
  6
CONTINUOUS
 10
76.2605707579
 20
210.8403004413
 11
86.8968488907
 21
210.8403004228
  0
LINE
  8
0
 62
7
  6
CONTINUOUS
 10
176.5841219722
 20
210.8403004228
 11
187.1568488907
 21
210.8403004228
  0
LINE
  8
0
 62
7
  6
CONTINUOUS
 10
155.7554854315
 20
212.1209356047
 11
152.9054854315
 21
212.1209356047
  0
LINE
  8
0
 62
7
  6
CONTINUOUS
 10
152.7054854315
 20
212.1209356047
 11
147.955486689
 21
212.1209356047
  0
LINE
  8
0
 62
7
  6
CONTINUOUS
 10
116.8054854315
 20
212.1209356047
 11
113.8888188344
 21
212.1209356047
  0
LINE
  8
0
 62
7
  6
CONTINUOUS
 10
113.3054854315
 20
212.1209356047
 11
110.6804854315
 21
212.1209356047
  0
LINE
  8
0
 62
7
  6
CONTINUOUS
 10
110.0971522372
 20
212.1209356047
 11
107.3992354315
 21
212.1209356047
  0
LINE
  8
0
 62
7
  6
CONTINUOUS
 10
247.2769772063
 20
212.4209356047
 11
240.1495920981
 21
212.4209356047
  0
LINE
  8
0
 62
7
  6
CONTINUOUS
 10
223.8513787648
 20
212.4209356047
 11
206.7295920981
 21
212.4209356047
  0
LINE
  8
0
 62
7
  6
CONTINUOUS
 10
190.4313787648
 20
212.4209356047
 11
173.3095920981
 21
212.4209356047
  0
LINE
  8
0
 62
7
  6
CONTINUOUS
 10
157.0113787648
 20
212.4209356047
 11
139.8895920981
 21
212.4209356047
  0
LINE
  8
0
 62
7
  6
CONTINUOUS
 10
123.5913787648
 20
212.4209356047
 11
106.4695920981
 21
212.4209356047
  0
LINE
  8
0
 62
7
  6
CONTINUOUS
 10
90.1713787648
 20
212.4209356047
 11
72.8995920981
 21
212.4209356047
  0
LINE
  8
0
 62
7
  6
CONTINUOUS
 10
68.2695462074
 20
215.7209356047
 11
73.0143575483
 21
215.7209356047
  0
LINE
  8
0
 62
7
  6
CONTINUOUS
 10
90.0342285087
 20
215.7209356047
 11
94.9514246544
 21
215.7209356047
  0
LINE
  8
0
 62
7
  6
CONTINUOUS
 10
168.5295462074
 20
215.7209356047
 11
173.446742346
 21
215.7209356047
  0
LINE
  8
0
 62
7
  6
CONTINUOUS
 10
190.2942285087
 20
215.7209356047
 11
195.2114246544
 21
215.7209356047
  0
POLYLINE
  8
0
 62
7
  6
CONTINUOUS
 66
1
 70
0
  0
VERTEX
  8
0
 62
7
  6
CONTINUOUS
 10
187.251961482
 20
210.8345969285
  0
VERTEX
  8
0
 62
7
  6
CONTINUOUS
 10
187.2042381001
 20
210.8388840046
  0
VERTEX
  8
0
 62
7
  6
CONTINUOUS
 10
187.1568488904
 20
210.8403004228
  0
SEQEND
  0
POLYLINE
  8
0
 62
7
  6
CONTINUOUS
 66
1
 70
0
  0
VERTEX
  8
0
 62
7
  6
CONTINUOUS
 10
189.5341738749
 20
210.5778201478
  0
VERTEX
  8
0
 62
7
  6
CONTINUOUS
 10
189.8424973273
 20
210.5433979236
  0
VERTEX
  8
0
 62
7
  6
CONTINUOUS
 10
190.1436803362
 20
210.5092854503
  0
SEQEND
  0
POLYLINE
  8
0
 62
7
  6
CONTINUOUS
 66
1
 70
0
  0
VERTEX
  8
0
 62
7
  6
CONTINUOUS
 10
187.251961482
 20
210.8345969285
  0
VERTEX
  8
0
 62
7
  6
CONTINUOUS
 10
187.5848897762
 20
210.7953173113
  0
VERTEX
  8
0
 62
7
  6
CONTINUOUS
 10
187.9171507233
 20
210.7571666321
  0
VERTEX
  8
0
 62
7
  6
CONTINUOUS
 10
188.2477012051
 20
210.7199680125
  0
VERTEX
  8
0
 62
7
  6
CONTINUOUS
 10
189.5341738749
 20
210.5778201478
  0
SEQEND
  0
LINE
  8
0
 62
7
  6
CONTINUOUS
 10
190.1436803362
 20
210.5092854503
 11
190.4483812686
 21
210.4740840284
  0
LINE
  8
0
 62
7
  6
CONTINUOUS
 10
157.2019027142
 20
190.6052162041
 11
156.9713427142
 21
217.0052162041
  0
LINE
  8
0
 62
7
  6
CONTINUOUS
 10
149.8554854315
 20
212.4209356047
 11
149.8554854315
 21
212.1209356047
  0
LINE
  8
0
 62
7
  6
CONTINUOUS
 10
150.7054854315
 20
212.4209356047
 11
150.7054854315
 21
212.1209356047
  0
LINE
  8
0
 62
7
  6
CONTINUOUS
 10
151.8554854315
 20
212.4209356047
 11
151.8554854315
 21
212.1209356047
  0
LINE
  8
0
 62
7
  6
CONTINUOUS
 10
152.7054854315
 20
212.4209356047
 11
152.7054854315
 21
212.1209356047
  0
LINE
  8
0
 62
7
  6
CONTINUOUS
 10
152.9054854315
 20
212.4209356047
 11
152.9054854315
 21
212.1209356047
  0
LINE
  8
0
 62
7
  6
CONTINUOUS
 10
153.7554854315
 20
212.4209356047
 11
153.7554854315
 21
212.1209356047
  0
LINE
  8
0
 62
7
  6
CONTINUOUS
 10
155.7554854315
 20
212.4209356047
 11
155.7554854315
 21
212.1209356047
  0
POLYLINE
  8
0
 62
7
  6
CONTINUOUS
 66
1
 70
0
  0
VERTEX
  8
0
 62
7
  6
CONTINUOUS
 10
120.3168532187
 20
210.8403004228
  0
VERTEX
  8
0
 62
7
  6
CONTINUOUS
 10
120.5506948352
 20
210.9624238021
  0
VERTEX
  8
0
 62
7
  6
CONTINUOUS
 10
120.6675732877
 20
211.0229758347
  0
SEQEND
  0
LINE
  8
0
 62
7
  6
CONTINUOUS
 10
189.0754877062
 20
218.8209356047
 11
174.6654831597
 21
218.8209356047
  0
LINE
  8
0
 62
7
  6
CONTINUOUS
 10
88.8154877062
 20
218.8209356047
 11
74.2554846583
 21
218.8209356047
  0
LINE
  8
0
 62
7
  6
CONTINUOUS
 10
63.805092925
 20
218.8209356047
 11
58.4054854315
 21
218.8209356047
  0
LINE
  8
0
 62
7
  6
CONTINUOUS
 10
99.4158743057
 20
218.8209356047
 11
118.806062017
 21
218.8209356047
  0
LINE
  8
0
 62
7
  6
CONTINUOUS
 10
144.674908846
 20
218.8209356047
 11
164.0650932989
 21
218.8209356047
  0
LINE
  8
0
 62
7
  6
CONTINUOUS
 10
199.6758743057
 20
218.8209356047
 11
219.141062017
 21
218.8209356047
  0
LINE
  8
0
 62
7
  6
CONTINUOUS
 10
245.009908846
 20
218.8209356047
 11
255.2054854315
 21
218.8209356047
  0
LINE
  8
0
 62
7
  6
CONTINUOUS
 10
99.5410377465
 20
218.8209357539
 11
99.423574792
 21
218.8244366743
  0
LINE
  8
0
 62
7
  6
CONTINUOUS
 10
199.8010377465
 20
218.8209357539
 11
199.6835747732
 21
218.8244366754
  0
POLYLINE
  8
0
 62
7
  6
CONTINUOUS
 66
1
 70
0
  0
VERTEX
  8
0
 62
7
  6
CONTINUOUS
 10
222.7333825813
 20
210.602260409
  0
VERTEX
  8
0
 62
7
  6
CONTINUOUS
 10
223.0435867775
 20
210.5678791024
  0
VERTEX
  8
0
 62
7
  6
CONTINUOUS
 10
223.3473737385
 20
210.5338411027
  0
VERTEX
  8
0
 62
7
  6
CONTINUOUS
 10
223.6439618208
 20
210.5000885234
  0
VERTEX
  8
0
 62
7
  6
CONTINUOUS
 10
223.8683817045
 20
210.4740341185
  0
SEQEND
  0
POLYLINE
  8
0
 62
7
  6
CONTINUOUS
 66
1
 70
0
  0
VERTEX
  8
0
 62
7
  6
CONTINUOUS
 10
221.4465083851
 20
210.7447896776
  0
VERTEX
  8
0
 62
7
  6
CONTINUOUS
 10
221.7734815962
 20
210.7081807432
  0
VERTEX
  8
0
 62
7
  6
CONTINUOUS
 10
222.7333825813
 20
210.602260409
  0
SEQEND
  0
LINE
  8
0
 62
7
  6
CONTINUOUS
 10
166.9916061945
 20
250.9256337362
 11
165.9378895359
 21
220.7511366113
  0
LINE
  8
0
 62
7
  6
CONTINUOUS
 10
173.3654854315
 20
243.6191110471
 11
173.3654854315
 21
215.7209356047
  0
LINE
  8
0
 62
7
  6
CONTINUOUS
 10
173.3384120981
 20
215.7209356047
 11
173.1190681487
 21
190.6052162041
  0
LINE
  8
0
 62
7
  6
CONTINUOUS
 10
243.9562081996
 20
253.8209356047
 11
220.1947626634
 21
253.8209356047
  0
LINE
  8
0
 62
7
  6
CONTINUOUS
 10
193.751229243
 20
253.8209356047
 11
169.98974162
 21
253.8209356047
  0
LINE
  8
0
 62
7
  6
CONTINUOUS
 10
143.6212081996
 20
253.8209356047
 11
119.8597626634
 21
253.8209356047
  0
LINE
  8
0
 62
7
  6
CONTINUOUS
 10
93.491229243
 20
253.8209356047
 11
69.72974162
 21
253.8209356047
  0
POLYLINE
  8
0
 62
7
  6
CONTINUOUS
 66
1
 70
0
  0
VERTEX
  8
0
 62
7
  6
CONTINUOUS
 10
243.4241219525
 20
210.8402981628
  0
VERTEX
  8
0
 62
7
  6
CONTINUOUS
 10
243.3265183407
 20
210.8914154727
  0
VERTEX
  8
0
 62
7
  6
CONTINUOUS
 10
243.1313563451
 20
210.9929925085
  0
SEQEND
  0
LINE
  8
0
 62
7
  6
CONTINUOUS
 10
190.6219027142
 20
190.6052162041
 11
190.4025587648
 21
215.7209356047
  0
LINE
  8
0
 62
7
  6
CONTINUOUS
 10
190.3754854315
 20
215.7209356047
 11
190.3754854315
 21
243.6191110471
  0
POLYLINE
  8
0
 62
7
  6
CONTINUOUS
 66
1
 70
0
  0
VERTEX
  8
0
 62
7
  6
CONTINUOUS
 10
243.1313563451
 20
210.9929925085
  0
VERTEX
  8
0
 62
7
  6
CONTINUOUS
 10
243.1193842581
 20
211.0002973616
  0
VERTEX
  8
0
 62
7
  6
CONTINUOUS
 10
243.10945967
 20
211.0085600085
  0
VERTEX
  8
0
 62
7
  6
CONTINUOUS
 10
243.1012568835
 20
211.0177668272
  0
VERTEX
  8
0
 62
7
  6
CONTINUOUS
 10
243.0946292957
 20
211.0278351742
  0
VERTEX
  8
0
 62
7
  6
CONTINUOUS
 10
243.0894628765
 20
211.0386391993
  0
VERTEX
  8
0
 62
7
  6
CONTINUOUS
 10
243.0855650469
 20
211.0502743308
  0
VERTEX
  8
0
 62
7
  6
CONTINUOUS
 10
243.0828027857
 20
211.0629647449
  0
VERTEX
  8
0
 62
7
  6
CONTINUOUS
 10
243.0811361941
 20
211.0769091209
  0
VERTEX
  8
0
 62
7
  6
CONTINUOUS
 10
243.0805698234
 20
211.0922816106
  0
VERTEX
  8
0
 62
7
  6
CONTINUOUS
 10
243.0811218509
 20
211.1092277683
  0
VERTEX
  8
0
 62
7
  6
CONTINUOUS
 10
243.0827991617
 20
211.1278197501
  0
VERTEX
  8
0
 62
7
  6
CONTINUOUS
 10
243.0855869973
 20
211.1481161522
  0
VERTEX
  8
0
 62
7
  6
CONTINUOUS
 10
243.0894751611
 20
211.1703041019
  0
VERTEX
  8
0
 62
7
  6
CONTINUOUS
 10
243.0944608107
 20
211.1946080526
  0
VERTEX
  8
0
 62
7
  6
CONTINUOUS
 10
243.1005232004
 20
211.2211704963
  0
VERTEX
  8
0
 62
7
  6
CONTINUOUS
 10
243.1076311186
 20
211.2501236235
  0
VERTEX
  8
0
 62
7
  6
CONTINUOUS
 10
243.1157523342
 20
211.2816119131
  0
VERTEX
  8
0
 62
7
  6
CONTINUOUS
 10
243.124873518
 20
211.31585255
  0
SEQEND
  0
LINE
  8
0
 62
7
  6
CONTINUOUS
 10
197.8030813271
 20
220.7511366113
 11
196.7493646684
 21
250.9256337362
  0
POLYLINE
  8
0
 62
7
  6
CONTINUOUS
 66
1
 70
0
  0
VERTEX
  8
0
 62
7
  6
CONTINUOUS
 10
220.5768532187
 20
210.8403004228
  0
VERTEX
  8
0
 62
7
  6
CONTINUOUS
 10
220.7134746761
 20
210.9117967131
  0
VERTEX
  8
0
 62
7
  6
CONTINUOUS
 10
220.8500742648
 20
210.9828652797
  0
VERTEX
  8
0
 62
7
  6
CONTINUOUS
 10
220.9866222896
 20
211.0534258979
  0
SEQEND
  0
LINE
  8
0
 62
7
  6
CONTINUOUS
 10
206.7696281487
 20
217.0052162041
 11
206.5390681487
 21
190.6052162041
  0
LINE
  8
0
 62
7
  6
CONTINUOUS
 10
217.1966062049
 20
250.9256340317
 11
216.1428895359
 21
220.7511366113
  0
POLYLINE
  8
0
 62
7
  6
CONTINUOUS
 66
1
 70
0
  0
VERTEX
  8
0
 62
7
  6
CONTINUOUS
 10
220.9554161174
 20
211.6478376448
  0
VERTEX
  8
0
 62
7
  6
CONTINUOUS
 10
220.9891397715
 20
211.5275127863
  0
VERTEX
  8
0
 62
7
  6
CONTINUOUS
 10
221.022174583
 20
211.4190449309
  0
VERTEX
  8
0
 62
7
  6
CONTINUOUS
 10
221.0545194615
 20
211.3214872295
  0
VERTEX
  8
0
 62
7
  6
CONTINUOUS
 10
221.0861821706
 20
211.2339772276
  0
VERTEX
  8
0
 62
7
  6
CONTINUOUS
 10
221.1171739085
 20
211.1557416694
  0
VERTEX
  8
0
 62
7
  6
CONTINUOUS
 10
221.1475503569
 20
211.0859949547
  0
VERTEX
  8
0
 62
7
  6
CONTINUOUS
 10
221.1772680421
 20
211.0242569699
  0
VERTEX
  8
0
 62
7
  6
CONTINUOUS
 10
221.2062848101
 20
210.9700596637
  0
VERTEX
  8
0
 62
7
  6
CONTINUOUS
 10
221.2346052982
 20
210.9228730481
  0
VERTEX
  8
0
 62
7
  6
CONTINUOUS
 10
221.2622059192
 20
210.882249641
  0
VERTEX
  8
0
 62
7
  6
CONTINUOUS
 10
221.2890427258
 20
210.8477831444
  0
VERTEX
  8
0
 62
7
  6
CONTINUOUS
 10
221.3150366823
 20
210.8191019613
  0
VERTEX
  8
0
 62
7
  6
CONTINUOUS
 10
221.3400637317
 20
210.7958459874
  0
VERTEX
  8
0
 62
7
  6
CONTINUOUS
 10
221.363950016
 20
210.7776341488
  0
VERTEX
  8
0
 62
7
  6
CONTINUOUS
 10
221.3864760074
 20
210.7640286689
  0
VERTEX
  8
0
 62
7
  6
CONTINUOUS
 10
221.4075451589
 20
210.7544480954
  0
VERTEX
  8
0
 62
7
  6
CONTINUOUS
 10
221.427414505
 20
210.7482105912
  0
VERTEX
  8
0
 62
7
  6
CONTINUOUS
 10
221.4465083851
 20
210.7447896776
  0
SEQEND
  0
POLYLINE
  8
0
 62
7
  6
CONTINUOUS
 66
1
 70
0
  0
VERTEX
  8
0
 62
7
  6
CONTINUOUS
 10
220.9554161174
 20
211.6478376448
  0
VERTEX
  8
0
 62
7
  6
CONTINUOUS
 10
220.9995587535
 20
211.4826657491
  0
VERTEX
  8
0
 62
7
  6
CONTINUOUS
 10
221.0115998894
 20
211.4363409081
  0
VERTEX
  8
0
 62
7
  6
CONTINUOUS
 10
221.0223018136
 20
211.3938691086
  0
VERTEX
  8
0
 62
7
  6
CONTINUOUS
 10
221.0316324086
 20
211.3550079024
  0
VERTEX
  8
0
 62
7
  6
CONTINUOUS
 10
221.0395613294
 20
211.3194929436
  0
VERTEX
  8
0
 62
7
  6
CONTINUOUS
 10
221.0460373973
 20
211.2871596343
  0
VERTEX
  8
0
 62
7
  6
CONTINUOUS
 10
221.051026332
 20
211.257824056
  0
VERTEX
  8
0
 62
7
  6
CONTINUOUS
 10
221.0545182206
 20
211.2312723384
  0
VERTEX
  8
0
 62
7
  6
CONTINUOUS
 10
221.0565294506
 20
211.2071829553
  0
VERTEX
  8
0
 62
7
  6
CONTINUOUS
 10
221.0570726368
 20
211.1853456482
  0
VERTEX
  8
0
 62
7
  6
CONTINUOUS
 10
221.0561707553
 20
211.1655021536
  0
VERTEX
  8
0
 62
7
  6
CONTINUOUS
 10
221.0538205709
 20
211.147320214
  0
VERTEX
  8
0
 62
7
  6
CONTINUOUS
 10
221.0499306992
 20
211.1303969881
  0
VERTEX
  8
0
 62
7
  6
CONTINUOUS
 10
221.0444093614
 20
211.1146943021
  0
VERTEX
  8
0
 62
7
  6
CONTINUOUS
 10
221.0371800041
 20
211.1002261207
  0
VERTEX
  8
0
 62
7
  6
CONTINUOUS
 10
221.0281012798
 20
211.0869169023
  0
VERTEX
  8
0
 62
7
  6
CONTINUOUS
 10
221.016821289
 20
211.0745839925
  0
VERTEX
  8
0
 62
7
  6
CONTINUOUS
 10
221.00303917
 20
211.0633288118
  0
VERTEX
  8
0
 62
7
  6
CONTINUOUS
 10
220.9866077212
 20
211.0534183599
  0
SEQEND
  0
LINE
  8
0
 62
7
  6
CONTINUOUS
 10
224.0419027142
 20
190.6052162041
 11
223.5793235434
 21
243.5722968391
  0
LINE
  8
0
 62
7
  6
CONTINUOUS
 10
239.9590681487
 20
190.6052162041
 11
240.4216473196
 21
243.5722968391
  0
LINE
  8
0
 62
7
  6
CONTINUOUS
 10
248.0080813271
 20
220.7511366113
 11
246.9543646581
 21
250.9256340317
  0
LINE
  8
0
 62
7
  6
CONTINUOUS
 10
249.0784606496
 20
210.4588038652
 11
249.0769086339
 21
210.6366472516
  0
LINE
  8
0
 62
7
  6
CONTINUOUS
 10
243.1711036107
 20
211.4843060292
 11
243.2160589076
 21
211.6495840152
  0
LINE
  8
0
 62
7
  6
CONTINUOUS
 10
243.124873518
 20
211.31585255
 11
243.1711036107
 21
211.4843060292
  0
LINE
  8
0
 62
7
  6
CONTINUOUS
 10
257.0054854315
 20
217.0209356047
 11
257.0054854315
 21
190.6209356047
  0
LINE
  8
0
 62
7
  6
CONTINUOUS
 10
298.0860810991
 20
87.5486043509
 11
298.0860810991
 21
151.0485995233
  0
LINE
  8
DEFAULT_1
 62
2
  6
CENTER
 10
318.3360810991
 20
87.5486043509
 11
315.0861810991
 21
87.5486043509
  0
LINE
  8
0
 62
2
  6
CONTINUOUS
 10
314.1360810991
 20
87.5486043509
 11
312.0360810991
 21
87.5486043509
  0
LINE
  8
DEFAULT_1
 62
2
  6
CENTER
 10
307.8360810991
 20
87.5486043509
 11
311.0859810991
 21
87.5486043509
  0
LINE
  8
0
 62
2
  6
CONTINUOUS
 10
313.0860810991
 20
152.0986043509
 11
313.0860810991
 21
149.9986043509
  0
LINE
  8
DEFAULT_1
 62
2
  6
CENTER
 10
313.0860810991
 20
145.7986043509
 11
313.0860810991
 21
143.7986043509
  0
LINE
  8
DEFAULT_1
 62
2
  6
CENTER
 10
313.0860810991
 20
92.7986043509
 11
313.0860810991
 21
89.5487043509
  0
LINE
  8
0
 62
2
  6
CONTINUOUS
 10
313.0860810991
 20
88.5986043509
 11
313.0860810991
 21
86.4986043509
  0
LINE
  8
DEFAULT_1
 62
2
  6
CENTER
 10
313.0860810991
 20
82.2986043509
 11
313.0860810991
 21
85.5485043509
  0
LINE
  8
DEFAULT_1
 62
2
  6
CENTER
 10
313.0860810991
 20
156.2986043509
 11
313.0860810991
 21
158.2986043509
  0
LINE
  8
0
 62
7
  6
CONTINUOUS
 10
319.9018004996
 20
133.6693216904
 11
319.9018004996
 21
132.5866773572
  0
LINE
  8
0
 62
7
  6
CONTINUOUS
 10
324.9860810991
 20
78.4105681627
 11
324.9860810991
 21
78.4167918606
  0
LINE
  8
0
 62
7
  6
CONTINUOUS
 10
328.0860810991
 20
151.0486043509
 11
328.0860810991
 21
139.4799814463
  0
LINE
  8
0
 62
7
  6
CONTINUOUS
 10
328.0860810991
 20
87.5486043509
 11
328.0860810991
 21
138.8009850262
  0
LINE
  8
0
 62
7
  6
CONTINUOUS
 10
328.0289449755
 20
138.9808058014
 11
328.0285139134
 21
138.9824661192
  0
LINE
  8
0
 62
7
  6
CONTINUOUS
 10
304.5730616781
 20
122.0951054129
 11
299.666716281
 21
121.4926819477
  0
LINE
  8
0
 62
7
  6
CONTINUOUS
 10
320.4420396238
 20
133.6693098986
 11
319.9018018631
 21
133.6693098986
  0
LINE
  8
0
 62
7
  6
CONTINUOUS
 10
324.7747497034
 20
78.1478051158
 11
361.3200376881
 21
123.5871076282
  0
LINE
  8
0
 62
7
  6
CONTINUOUS
 10
329.8947513803
 20
137.4854441929
 11
355.3652734098
 21
136.5959939643
  0
LINE
  8
0
 62
2
  6
CONTINUOUS
 10
314.1360810991
 20
151.0486043509
 11
312.0360810991
 21
151.0486043509
  0
LINE
  8
DEFAULT_1
 62
2
  6
CENTER
 10
307.8360810991
 20
151.0486043509
 11
305.8360810991
 21
151.0486043509
  0
LINE
  8
DEFAULT_1
 62
2
  6
CENTER
 10
318.3360810991
 20
151.0486043509
 11
320.3360810991
 21
151.0486043509
  0
ARC
  8
0
 62
7
  6
CONTINUOUS
 10
58.4054854315
 20
74.3486043509
 40
1.8
 50
179.9999999999
 51
270.0
  0
ARC
  8
0
 62
7
  6
CONTINUOUS
 10
255.2054854315
 20
164.2486043509
 40
1.8
 50
0.0
 51
90.0
  0
ARC
  8
0
 62
7
  6
CONTINUOUS
 10
58.4054854315
 20
190.6209356047
 40
1.8
 50
180.0
 51
270.0
  0
ARC
  8
0
 62
7
  6
CONTINUOUS
 10
58.4054854315
 20
217.0209356047
 40
1.8
 50
90.0
 51
180.0
  0
ARC
  8
0
 62
7
  6
CONTINUOUS
 10
92.1618340742
 20
190.6209356047
 40
1.8
 50
180.5003704201
 51
270.0
  0
ARC
  8
0
 62
7
  6
CONTINUOUS
 10
70.9091367888
 20
190.6209356047
 40
1.8
 50
270.0
 51
359.4996295799
  0
ARC
  8
0
 62
7
  6
CONTINUOUS
 10
125.5818340742
 20
190.6209356047
 40
1.8
 50
180.5003704201
 51
270.0
  0
ARC
  8
0
 62
7
  6
CONTINUOUS
 10
104.4791367888
 20
190.6209356047
 40
1.8
 50
270.0
 51
359.4996295799
  0
ARC
  8
0
 62
7
  6
CONTINUOUS
 10
104.7096967888
 20
217.0209356047
 40
1.8
 50
359.4996295799
 51
90.0
  0
ARC
  8
0
 62
7
  6
CONTINUOUS
 10
137.8991367888
 20
190.6209356047
 40
1.8
 50
270.0
 51
359.4996295799
  0
ARC
  8
0
 62
7
  6
CONTINUOUS
 10
65.1054854315
 20
190.3209356047
 40
1.5
 50
185.9395288867
 51
270.0
  0
ARC
  8
0
 62
7
  6
CONTINUOUS
 10
58.6054854315
 20
190.3209356047
 40
1.5
 50
270.0
 51
354.0600112104
  0
ARC
  8
0
 62
7
  6
CONTINUOUS
 10
74.2554854315
 20
220.1209356047
 40
1.3
 50
180.0000051282
 51
270.0
  0
ARC
  8
0
 62
7
  6
CONTINUOUS
 10
88.8154854315
 20
220.1209356047
 40
1.3
 50
270.0001002595
 51
359.9999983863
  0
ARC
  8
0
 62
7
  6
CONTINUOUS
 10
143.621192175
 20
250.8209355991
 40
3.0
 50
2.0
 51
89.9999999955
  0
ARC
  8
0
 62
7
  6
CONTINUOUS
 10
119.8597786879
 20
250.8209355991
 40
3.0
 50
90.0000000045
 51
178.0
  0
ARC
  8
0
 62
7
  6
CONTINUOUS
 10
93.491192175
 20
250.8209355991
 40
3.0
 50
2.0
 51
89.9999999955
  0
ARC
  8
0
 62
7
  6
CONTINUOUS
 10
69.7297786879
 20
250.8209355991
 40
3.0
 50
90.0000000045
 51
178.0
  0
ARC
  8
0
 62
7
  6
CONTINUOUS
 10
99.5418629811
 20
220.8209356047
 40
2.0
 50
181.9999999919
 51
266.6091683996
  0
ARC
  8
0
 62
7
  6
CONTINUOUS
 10
113.8091078819
 20
220.8209356047
 40
2.0
 50
270.0
 51
358.0
  0
ARC
  8
0
 62
7
  6
CONTINUOUS
 10
149.67186296
 20
220.8209356047
 40
1.9999999916
 50
182.0000000211
 51
270.0000006034
  0
ARC
  8
0
 62
7
  6
CONTINUOUS
 10
63.679107925
 20
220.8209356047
 40
1.9999999828
 50
273.3950228724
 51
358.0
  0
ARC
  8
0
 62
7
  6
CONTINUOUS
 10
247.2769772063
 20
210.6209356047
 40
1.8
 50
0.5001236104
 51
90.0
  0
ARC
  8
0
 62
7
  6
CONTINUOUS
 10
159.0018340742
 20
190.6209356047
 40
1.8
 50
180.5003704201
 51
270.0
  0
ARC
  8
0
 62
7
  6
CONTINUOUS
 10
158.7712740742
 20
217.0209356047
 40
1.8
 50
90.0
 51
180.5003704201
  0
ARC
  8
0
 62
7
  6
CONTINUOUS
 10
192.4218340742
 20
190.6209356047
 40
1.8
 50
180.5003704201
 51
270.0
  0
ARC
  8
0
 62
7
  6
CONTINUOUS
 10
171.3191367888
 20
190.6209356047
 40
1.8
 50
270.0
 51
359.4996295799
  0
ARC
  8
0
 62
7
  6
CONTINUOUS
 10
225.8418340742
 20
190.6209356047
 40
1.8
 50
180.5003704201
 51
270.0
  0
ARC
  8
0
 62
7
  6
CONTINUOUS
 10
204.7391367888
 20
190.6209356047
 40
1.8
 50
270.0
 51
359.4996295799
  0
ARC
  8
0
 62
7
  6
CONTINUOUS
 10
204.9696967888
 20
217.0209356047
 40
1.8
 50
359.4996295799
 51
90.0
  0
ARC
  8
0
 62
7
  6
CONTINUOUS
 10
255.2054854315
 20
190.6209356047
 40
1.8
 50
270.0
 51
360.0
  0
ARC
  8
0
 62
7
  6
CONTINUOUS
 10
238.1591367889
 20
190.6209356127
 40
1.8
 50
269.9999999978
 51
359.4996293228
  0
ARC
  8
0
 62
7
  6
CONTINUOUS
 10
255.2054854315
 20
217.0209356047
 40
1.8
 50
0.0
 51
90.0
  0
ARC
  8
0
 62
7
  6
CONTINUOUS
 10
174.6654854315
 20
220.1209356047
 40
1.3
 50
180.0000016056
 51
269.9998998721
  0
ARC
  8
0
 62
7
  6
CONTINUOUS
 10
189.0754854315
 20
220.1209356047
 40
1.3
 50
270.0001002595
 51
359.9999983863
  0
ARC
  8
0
 62
7
  6
CONTINUOUS
 10
243.956192175
 20
250.8209355991
 40
3.0
 50
2.0
 51
89.9999999955
  0
ARC
  8
0
 62
7
  6
CONTINUOUS
 10
220.1947786879
 20
250.8209355991
 40
3.0
 50
90.0000000045
 51
178.0
  0
ARC
  8
0
 62
7
  6
CONTINUOUS
 10
193.751192175
 20
250.8209355991
 40
3.0
 50
2.0
 51
89.9999999955
  0
ARC
  8
0
 62
7
  6
CONTINUOUS
 10
169.9897786879
 20
250.8209355991
 40
3.0
 50
90.0000000045
 51
178.0
  0
ARC
  8
0
 62
7
  6
CONTINUOUS
 10
199.8018629811
 20
220.8209356047
 40
2.0
 50
181.9999999919
 51
266.6091678609
  0
ARC
  8
0
 62
7
  6
CONTINUOUS
 10
214.1441078819
 20
220.8209356047
 40
2.0
 50
270.0
 51
358.0
  0
ARC
  8
0
 62
7
  6
CONTINUOUS
 10
250.00686296
 20
220.8209356047
 40
1.9999999916
 50
182.0000000211
 51
270.0000006034
  0
ARC
  8
0
 62
7
  6
CONTINUOUS
 10
163.939107925
 20
220.8209356047
 40
1.9999999828
 50
273.3950228652
 51
358.0
  0
ARC
  8
0
 62
7
  6
CONTINUOUS
 10
313.0860810991
 20
87.5486043509
 40
15.0
 50
180.0
 51
360.0
  0
CIRCLE
  8
0
 62
7
  6
CONTINUOUS
 10
313.0860810991
 20
87.5486043509
 40
5.25
  0
ARC
  8
0
 62
7
  6
CONTINUOUS
 10
299.8860810991
 20
119.7060988747
 40
1.8
 50
97.0
 51
180.0
  0
ARC
  8
0
 62
7
  6
CONTINUOUS
 10
302.1125196348
 20
142.1346122145
 40
20.19
 50
277.0
 51
342.7946088705
  0
ARC
  8
0
 62
7
  6
CONTINUOUS
 10
324.2647795147
 20
135.2750581319
 40
3.0
 50
124.4786113686
 51
162.7946088705
  0
ARC
  8
0
 62
7
  6
CONTINUOUS
 10
313.0860810991
 20
151.0486043509
 40
15.0
 50
359.9999789564
 51
180.0000186723
  0
CIRCLE
  8
0
 62
7
  6
CONTINUOUS
 10
313.0860810991
 20
151.0486043509
 40
5.25
  0
ARC
  8
0
 62
7
  6
CONTINUOUS
 10
313.2258577999
 20
151.349640782
 40
16.5
 50
304.4786113686
 51
315.5345851829
  0
ARC
  8
0
 62
7
  6
CONTINUOUS
 10
326.2860810991
 20
138.5308823642
 40
1.8
 50
0.0
 51
135.5345850659
  0
ARC
  8
0
 62
7
  6
CONTINUOUS
 10
329.9645503737
 20
139.484225847
 40
2.0
 50
194.5295829404
 51
267.9999997827
  0
ARC
  8
0
 62
7
  6
CONTINUOUS
 10
330.0860810991
 20
139.4799819005
 40
2.0
 50
180.000013012
 51
268.0
  0
ARC
  8
0
 62
7
  6
CONTINUOUS
 10
355.0860810991
 20
128.6008672203
 40
8.0
 50
321.19146122
 51
88.0000262499
  0
ENDSEC
  0
EOF
