  0
SECTION
  2
HEADER
  9
$EXTMAX
 10
420.0
 20
297.0
 30
0.0
  9
$EXTMIN
 10
0.0
 20
0.0
 30
0.0
  9
$LIMMIN
 10
0.0
 20
0.0
  9
$LIMMAX
 10
420.0
 20
297.0
  9
$VIEWCTR
 10
210.0
 20
148.5
  9
$VIEWSIZE
 40
297.0
  9
$CLAYER
  8
0
  9
$LTSCALE
 40
23.1
  9
$CELTYPE
  6
BYLAYER
  9
$DIMSCALE
 40
1.0
  9
$DIMASZ
 40
3.5
  9
$DIMEXO
 40
2.625
  9
$DIMDLI
 40
15.96
  9
$DIMEXE
 40
7.56
  9
$DIMCEN
 40
3.78
  9
$DIMLFAC
 40
1.0
  9
$DIMBLK
  1
_FILLED
  9
$DIMTXT
 40
3.5
  9
$PDMODE
 70
3
  9
$PDSIZE
 40
0.3125
  9
$TILEMODE
 70
1
  0
ENDSEC
  0
SECTION
  2
TABLES
  0
TABLE
  2
LTYPE
 70
6
  0
LTYPE
  2
BYBLOCK
 70
0
  3

 72
65
 73
0
 40
0.0
  0
LTYPE
  2
BYLAYER
 70
0
  3

 72
65
 73
0
 40
0.0
  0
LTYPE
  2
CONTINUOUS
 70
64
  3
Solid line
 72
65
 73
0
 40
0.0
  0
LTYPE
  2
CENTER
 70
64
  3
____ _ ____ _ ____ _ ____ _ ____ _ ____ _ ____
 72
65
 73
4
 40
0.6
 49
0.375
 49
-0.075
 49
0.075
 49
-0.075
  0
LTYPE
  2
HIDDEN
 70
64
  3
- - - - - - - - - - - - - - - - - - - -
 72
65
 73
2
 40
0.2
 49
0.1
 49
-0.1
  0
LTYPE
  2
PHANTOM
 70
64
  3
_____ _ _ _____ _ _ _____ _ _ _____
 72
65
 73
6
 40
0.8
 49
0.45
 49
-0.05
 49
0.1
 49
-0.05
 49
0.1
 49
-0.05
  0
LTYPE
  2
DOT
 70
64
  3
. . . . . . . . . . . . . . . . . . . .
 72
65
 73
2
 40
0.2
 49
0.1
 49
-0.1
  0
LTYPE
  2
DASHED
 70
64
  3
- - - - - - - - - - - - - - - - - - - -
 72
65
 73
2
 40
0.2
 49
0.1
 49
-0.1
  0
ENDTAB
  0
TABLE
  2
LAYER
 70
36
  0
LAYER
  2
0
 70
0
 62
7
  6
CONTINUOUS
  0
LAYER
  2
DEFAULT_1
 70
0
 62
7
  6
CENTER
  0
LAYER
  2
DEFAULT_2
 70
0
 62
8
  6
HIDDEN
  0
LAYER
  2
DEFAULT_3
 70
0
 62
7
  6
PHANTOM
  0
LAYER
  2
1_DATUMPLANE
 70
0
 62
7
  6
CONTINUOUS
  0
LAYER
  2
3_CURVE
 70
0
 62
7
  6
CONTINUOUS
  0
LAYER
  2
6_DIM
 70
0
 62
7
  6
CONTINUOUS
  0
LAYER
  2
CSYS
 70
0
 62
7
  6
CONTINUOUS
  0
LAYER
  2
CURVE
 70
0
 62
7
  6
CONTINUOUS
  0
LAYER
  2
SURFACE
 70
0
 62
7
  6
CONTINUOUS
  0
ENDTAB
  0
TABLE
  2
STYLE
 70
1
  0
STYLE
  2
STANDARD
 70
0
 40
0.0
 41
0.8
 50
0.0
 71
0
 42
0.2
  3
txt
  4

  0
STYLE
  2
TEXTSTYLE_1
 70
0
 40
0.0
 41
0.8
 50
0.0
 71
0
 42
0.2
  3
gdt
  4

  0
STYLE
  2
TEXTSTYLE_2
 70
0
 40
0.0
 41
0.6
 50
0.0
 71
0
 42
0.2
  3
txt
  4

  0
STYLE
  2
TEXTSTYLE_3
 70
0
 40
0.0
 41
1.0
 50
0.0
 71
0
 42
0.2
  3
ftb_____.ttf
  4

  0
STYLE
  2
TEXTSTYLE_4
 70
0
 40
0.0
 41
1.0
 50
0.0
 71
0
 42
0.2
  3
fti_____.ttf
  4

  0
STYLE
  2
TEXTSTYLE_5
 70
0
 40
0.0
 41
1.0
 50
0.0
 71
0
 42
0.2
  3
frutiger light.ttf
  4

  0
STYLE
  2
TEXTSTYLE_6
 70
0
 40
0.0
 41
0.7
 50
0.0
 71
0
 42
0.2
  3
txt
  4

  0
STYLE
  2
TEXTSTYLE_7
 70
0
 40
0.0
 41
0.7
 50
0.0
 71
0
 42
0.2
  3
txt
  4

  0
ENDTAB
  0
ENDSEC
  0
SECTION
  2
BLOCKS
  0
BLOCK
  8
0
 62
2
  6
CONTINUOUS
  2
SYMBOL_5_BL1
 70
64
 10
382.7840918555
 20
35.5067593403
  0
TEXT
  8
0
 62
7
  6
CONTINUOUS
 10
373.842376864
 20
30.5995157174
  7
TEXTSTYLE_4
 40
1.0655737705
  1
The brand for plastic modular belts and chains
 41
1.0
 72
0
  0
LINE
  8
0
 62
7
  6
CONTINUOUS
 10
358.7621602445
 20
36.0805298321
 11
358.7621602445
 21
33.9493822911
  0
LINE
  8
0
 62
7
  6
CONTINUOUS
 10
359.0512227376
 20
30.9584509954
 11
359.0512227376
 21
31.0552420547
  0
LINE
  8
0
 62
7
  6
CONTINUOUS
 10
358.7621602445
 20
31.0229783683
 11
358.8199727462
 21
30.8293962497
  0
LINE
  8
0
 62
7
  6
CONTINUOUS
 10
360.1556028675
 20
33.867415078
 11
360.1556028675
 21
36.0805298321
  0
LINE
  8
0
 62
7
  6
CONTINUOUS
 10
361.0746601894
 20
32.0231527829
 11
361.0746601894
 21
30.5067593403
  0
LINE
  8
0
 62
7
  6
CONTINUOUS
 10
361.3637227445
 20
30.5067593403
 11
361.3637227445
 21
31.2488242184
  0
LINE
  8
0
 62
7
  6
CONTINUOUS
 10
361.3637227445
 20
31.3778789641
 11
361.3637227445
 21
32.0231527829
  0
LINE
  8
0
 62
7
  6
CONTINUOUS
 10
358.8199727462
 20
31.216560532
 11
358.7621602445
 21
31.0229783683
  0
LINE
  8
0
 62
7
  6
CONTINUOUS
 10
359.1668477307
 20
30.7971325633
 11
359.0512227376
 21
30.9584509954
  0
LINE
  8
0
 62
7
  6
CONTINUOUS
 10
360.2652852997
 20
31.3133515913
 11
360.3230977445
 21
31.216560532
  0
LINE
  8
0
 62
7
  6
CONTINUOUS
 10
360.6121602997
 20
31.216560532
 11
360.5543476894
 21
31.3456152777
  0
LINE
  8
0
 62
7
  6
CONTINUOUS
 10
362.0408487691
 20
36.0805298321
 11
362.0408487691
 21
34.2772511436
  0
LINE
  8
0
 62
7
  6
CONTINUOUS
 10
362.0408487691
 20
32.9657757338
 11
362.0408487691
 21
32.3100380288
  0
LINE
  8
0
 62
7
  6
CONTINUOUS
 10
362.4043477445
 20
31.1520331591
 11
362.4043477445
 21
30.5067593403
  0
LINE
  8
0
 62
7
  6
CONTINUOUS
 10
362.6934101343
 20
30.5067593403
 11
362.6934101343
 21
31.1520331591
  0
LINE
  8
0
 62
7
  6
CONTINUOUS
 10
359.0512227376
 20
31.0552420547
 11
359.1090352445
 21
31.1842968456
  0
LINE
  8
0
 62
7
  6
CONTINUOUS
 10
358.8199727462
 20
30.8293962497
 11
358.9355977445
 21
30.7003414814
  0
LINE
  8
0
 62
7
  6
CONTINUOUS
 10
362.3465351343
 20
31.2810879048
 11
362.4043477445
 21
31.1520331591
  0
LINE
  8
0
 62
7
  6
CONTINUOUS
 10
363.1559103548
 20
30.7971325633
 11
363.2137226343
 21
30.668077795
  0
LINE
  8
0
 62
7
  6
CONTINUOUS
 10
362.6934101343
 20
31.1520331591
 11
362.6355978548
 21
31.3133515913
  0
LINE
  8
0
 62
7
  6
CONTINUOUS
 10
363.1559103548
 20
31.3456152777
 11
363.1559103548
 21
31.2810879048
  0
LINE
  8
0
 62
7
  6
CONTINUOUS
 10
363.1559103548
 20
30.8939236226
 11
363.1559103548
 21
30.7971325633
  0
LINE
  8
0
 62
7
  6
CONTINUOUS
 10
363.4342913921
 20
32.3100380288
 11
363.4342913921
 21
36.0805298321
  0
LINE
  8
0
 62
7
  6
CONTINUOUS
 10
363.4449727445
 20
30.7648688543
 11
363.4449727445
 21
30.8293962497
  0
LINE
  8
0
 62
7
  6
CONTINUOUS
 10
363.7621602445
 20
36.0805298321
 11
363.7621602445
 21
32.3100380288
  0
LINE
  8
0
 62
7
  6
CONTINUOUS
 10
360.5543476894
 20
30.7003414814
 11
360.6121602997
 21
30.8293962497
  0
LINE
  8
0
 62
7
  6
CONTINUOUS
 10
364.9480979651
 20
30.6035504109
 11
364.890285024
 21
30.7648688543
  0
LINE
  8
0
 62
7
  6
CONTINUOUS
 10
364.6012229651
 20
31.2810879048
 11
364.6012229651
 21
31.1842968456
  0
LINE
  8
0
 62
7
  6
CONTINUOUS
 10
364.6012229651
 20
31.0552420547
 11
364.6012229651
 21
30.8616599362
  0
LINE
  8
0
 62
7
  6
CONTINUOUS
 10
364.890285024
 20
30.7648688543
 11
364.890285024
 21
31.2810879048
  0
LINE
  8
0
 62
7
  6
CONTINUOUS
 10
365.1556028675
 20
32.3100380288
 11
365.1556028675
 21
34.1133167174
  0
LINE
  8
0
 62
7
  6
CONTINUOUS
 10
365.1556028675
 20
35.4247921272
 11
365.1556028675
 21
36.0805298321
  0
LINE
  8
0
 62
7
  6
CONTINUOUS
 10
365.4684104651
 20
32.0231527829
 11
365.4684104651
 21
31.8618343508
  0
LINE
  8
0
 62
7
  6
CONTINUOUS
 10
365.4684104651
 20
31.5391973962
 11
365.4684104651
 21
30.5067593403
  0
LINE
  8
0
 62
7
  6
CONTINUOUS
 10
365.757472524
 20
30.5067593403
 11
365.757472524
 21
31.5391973962
  0
LINE
  8
0
 62
7
  6
CONTINUOUS
 10
365.757472524
 20
31.8618343508
 11
365.757472524
 21
32.0231527829
  0
LINE
  8
0
 62
7
  6
CONTINUOUS
 10
360.3230977445
 20
30.8293962497
 11
360.2652852997
 21
30.7326051679
  0
LINE
  8
0
 62
7
  6
CONTINUOUS
 10
362.6355978548
 20
31.3133515913
 11
362.5777852445
 21
31.3778789641
  0
LINE
  8
0
 62
7
  6
CONTINUOUS
 10
363.5027853548
 20
30.7003414814
 11
363.4449727445
 21
30.7648688543
  0
LINE
  8
0
 62
7
  6
CONTINUOUS
 10
364.6590352445
 20
30.5712867188
 11
364.716847524
 21
30.5067593403
  0
LINE
  8
0
 62
7
  6
CONTINUOUS
 10
364.6012229651
 20
30.668077795
 11
364.6590352445
 21
30.5712867188
  0
LINE
  8
0
 62
7
  6
CONTINUOUS
 10
365.0059102445
 20
30.5067593403
 11
364.9480979651
 21
30.6035504109
  0
LINE
  8
0
 62
7
  6
CONTINUOUS
 10
364.890285024
 20
31.2810879048
 11
364.8324727445
 21
31.3778789641
  0
LINE
  8
0
 62
7
  6
CONTINUOUS
 10
366.2199727445
 20
31.5391973962
 11
366.2199727445
 21
30.5067593403
  0
LINE
  8
0
 62
7
  6
CONTINUOUS
 10
366.5090354651
 20
30.5067593403
 11
366.5090354651
 21
31.2488242184
  0
LINE
  8
0
 62
7
  6
CONTINUOUS
 10
366.5090354651
 20
31.3778789641
 11
366.5090354651
 21
31.5391973962
  0
LINE
  8
0
 62
7
  6
CONTINUOUS
 10
367.0408487691
 20
34.5231527829
 11
367.0408487691
 21
32.3100380288
  0
LINE
  8
0
 62
7
  6
CONTINUOUS
 10
358.9355977445
 20
31.3456152777
 11
358.8199727462
 21
31.216560532
  0
LINE
  8
0
 62
7
  6
CONTINUOUS
 10
359.1090352445
 20
31.1842968456
 11
359.1668477307
 21
31.2488242184
  0
LINE
  8
0
 62
7
  6
CONTINUOUS
 10
358.9355977445
 20
30.7003414814
 11
359.0512227376
 21
30.6358140973
  0
LINE
  8
0
 62
7
  6
CONTINUOUS
 10
359.3402852307
 20
30.7003414814
 11
359.1668477307
 21
30.7971325633
  0
LINE
  8
0
 62
7
  6
CONTINUOUS
 10
364.543410024
 20
31.3456152777
 11
364.6012229651
 21
31.2810879048
  0
LINE
  8
0
 62
7
  6
CONTINUOUS
 10
367.491847524
 20
31.2810879048
 11
367.5496604651
 21
31.1197694727
  0
LINE
  8
0
 62
7
  6
CONTINUOUS
 10
367.838722524
 20
31.1197694727
 11
367.7809102445
 21
31.2810879048
  0
LINE
  8
0
 62
7
  6
CONTINUOUS
 10
367.5496604651
 20
31.1197694727
 11
367.5496604651
 21
30.5067593403
  0
LINE
  8
0
 62
7
  6
CONTINUOUS
 10
367.838722524
 20
30.5067593403
 11
367.838722524
 21
31.1197694727
  0
LINE
  8
0
 62
7
  6
CONTINUOUS
 10
368.3012227445
 20
31.3456152777
 11
368.3012227445
 21
31.2810879048
  0
LINE
  8
0
 62
7
  6
CONTINUOUS
 10
368.4342913921
 20
32.3100380288
 11
368.4342913921
 21
34.4411855698
  0
LINE
  8
0
 62
7
  6
CONTINUOUS
 10
368.7621602445
 20
36.0805298321
 11
368.7621602445
 21
32.3100380288
  0
LINE
  8
0
 62
7
  6
CONTINUOUS
 10
363.4449727445
 20
30.8293962497
 11
363.5027853548
 21
30.926187309
  0
LINE
  8
0
 62
7
  6
CONTINUOUS
 10
359.0512227376
 20
30.6358140973
 11
359.2246602583
 21
30.5712867188
  0
LINE
  8
0
 62
7
  6
CONTINUOUS
 10
360.5543476894
 20
31.3456152777
 11
360.3809101894
 21
31.4424063369
  0
LINE
  8
0
 62
7
  6
CONTINUOUS
 10
363.2137226343
 20
30.668077795
 11
363.3871601343
 21
30.5712867188
  0
LINE
  8
0
 62
7
  6
CONTINUOUS
 10
362.2309102445
 20
31.3456152777
 11
362.3465351343
 21
31.2810879048
  0
LINE
  8
0
 62
7
  6
CONTINUOUS
 10
362.5777852445
 20
31.3778789641
 11
362.4621603548
 21
31.4424063369
  0
LINE
  8
0
 62
7
  6
CONTINUOUS
 10
368.3012227445
 20
30.7648688543
 11
368.4168479651
 21
30.6358140973
  0
LINE
  8
0
 62
7
  6
CONTINUOUS
 10
368.6480977445
 20
30.7003414814
 11
368.5902854651
 21
30.7648688543
  0
LINE
  8
0
 62
7
  6
CONTINUOUS
 10
368.3012227445
 20
31.2810879048
 11
368.4168479651
 21
31.1520331591
  0
LINE
  8
0
 62
7
  6
CONTINUOUS
 10
367.7809102445
 20
31.2810879048
 11
367.7230979651
 21
31.3778789641
  0
LINE
  8
0
 62
7
  6
CONTINUOUS
 10
370.1512223035
 20
30.7003414814
 11
370.1512223035
 21
30.7648688543
  0
LINE
  8
0
 62
7
  6
CONTINUOUS
 10
370.1556028675
 20
32.3100380288
 11
370.1556028675
 21
36.0805298321
  0
LINE
  8
0
 62
7
  6
CONTINUOUS
 10
363.2137226343
 20
31.4101426505
 11
363.1559103548
 21
31.3456152777
  0
LINE
  8
0
 62
7
  6
CONTINUOUS
 10
360.091847717
 20
31.3778789641
 11
360.2652852997
 21
31.3133515913
  0
LINE
  8
0
 62
7
  6
CONTINUOUS
 10
364.8324727445
 20
31.3778789641
 11
364.716847524
 21
31.4424063369
  0
LINE
  8
0
 62
7
  6
CONTINUOUS
 10
368.6480977445
 20
31.216560532
 11
368.5902854651
 21
31.2810879048
  0
LINE
  8
0
 62
7
  6
CONTINUOUS
 10
369.8043479651
 20
30.8293962497
 11
369.8621602445
 21
30.7648688543
  0
LINE
  8
0
 62
7
  6
CONTINUOUS
 10
370.1512223035
 20
30.7648688543
 11
370.0355977445
 21
30.8939236226
  0
LINE
  8
0
 62
7
  6
CONTINUOUS
 10
369.8043479651
 20
31.3456152777
 11
369.8621602445
 21
31.2810879048
  0
LINE
  8
0
 62
7
  6
CONTINUOUS
 10
370.1512223035
 20
31.2810879048
 11
370.0355977445
 21
31.4101426505
  0
LINE
  8
0
 62
7
  6
CONTINUOUS
 10
363.4449727445
 20
31.2810879048
 11
363.5027853548
 21
31.3456152777
  0
LINE
  8
0
 62
7
  6
CONTINUOUS
 10
363.2715352445
 20
31.0229783683
 11
363.1559103548
 21
30.8939236226
  0
LINE
  8
0
 62
7
  6
CONTINUOUS
 10
364.6012229651
 20
30.8616599362
 11
364.543410024
 21
30.7971325633
  0
LINE
  8
0
 62
7
  6
CONTINUOUS
 10
364.543410024
 20
30.6035504109
 11
364.6012229651
 21
30.668077795
  0
LINE
  8
0
 62
7
  6
CONTINUOUS
 10
363.3871601343
 20
30.5712867188
 11
363.5027853548
 21
30.5390230296
  0
LINE
  8
0
 62
7
  6
CONTINUOUS
 10
360.3809101894
 20
31.4424063369
 11
360.1496602445
 21
31.5069337098
  0
LINE
  8
0
 62
7
  6
CONTINUOUS
 10
363.7340351343
 20
30.6358140973
 11
363.5027853548
 21
30.7003414814
  0
LINE
  8
0
 62
7
  6
CONTINUOUS
 10
362.4621603548
 20
31.4424063369
 11
362.2887228548
 21
31.5069337098
  0
LINE
  8
0
 62
7
  6
CONTINUOUS
 10
364.716847524
 20
31.4424063369
 11
364.543410024
 21
31.5069337098
  0
LINE
  8
0
 62
7
  6
CONTINUOUS
 10
367.3762229651
 20
31.3456152777
 11
367.491847524
 21
31.2810879048
  0
LINE
  8
0
 62
7
  6
CONTINUOUS
 10
367.7230979651
 20
31.3778789641
 11
367.6074727445
 21
31.4424063369
  0
LINE
  8
0
 62
7
  6
CONTINUOUS
 10
359.2246602583
 20
30.5712867188
 11
359.3980977583
 21
30.5390230296
  0
LINE
  8
0
 62
7
  6
CONTINUOUS
 10
359.6871602721
 20
30.6358140973
 11
359.3402852307
 21
30.7003414814
  0
LINE
  8
0
 62
7
  6
CONTINUOUS
 10
362.1152853548
 20
31.3778789641
 11
362.2309102445
 21
31.3456152777
  0
LINE
  8
0
 62
7
  6
CONTINUOUS
 10
364.4277854651
 20
31.3778789641
 11
364.543410024
 21
31.3456152777
  0
LINE
  8
0
 62
7
  6
CONTINUOUS
 10
368.7637229651
 20
30.668077795
 11
368.6480977445
 21
30.7003414814
  0
LINE
  8
0
 62
7
  6
CONTINUOUS
 10
367.2605977445
 20
31.3778789641
 11
367.3762229651
 21
31.3456152777
  0
LINE
  8
0
 62
7
  6
CONTINUOUS
 10
368.4168479651
 20
30.6358140973
 11
368.5902854651
 21
30.5712867188
  0
LINE
  8
0
 62
7
  6
CONTINUOUS
 10
367.6074727445
 20
31.4424063369
 11
367.4340352445
 21
31.5069337098
  0
LINE
  8
0
 62
7
  6
CONTINUOUS
 10
368.8215352445
 20
31.1520331591
 11
368.6480977445
 21
31.216560532
  0
LINE
  8
0
 62
7
  6
CONTINUOUS
 10
369.6309104651
 20
30.8939236226
 11
369.8043479651
 21
30.8293962497
  0
LINE
  8
0
 62
7
  6
CONTINUOUS
 10
370.0355977445
 20
31.4101426505
 11
369.8621602445
 21
31.4746700234
  0
LINE
  8
0
 62
7
  6
CONTINUOUS
 10
368.4168479651
 20
31.1520331591
 11
368.6480977445
 21
31.0552420547
  0
LINE
  8
0
 62
7
  6
CONTINUOUS
 10
370.0355977445
 20
30.8939236226
 11
369.8043479651
 21
30.9907146818
  0
LINE
  8
0
 62
7
  6
CONTINUOUS
 10
368.5902854651
 20
31.2810879048
 11
368.6480977445
 21
31.3456152777
  0
LINE
  8
0
 62
7
  6
CONTINUOUS
 10
359.0512227376
 20
31.4101426505
 11
358.9355977445
 21
31.3456152777
  0
LINE
  8
0
 62
7
  6
CONTINUOUS
 10
359.1668477307
 20
31.2488242184
 11
359.3402852307
 21
31.3456152777
  0
LINE
  8
0
 62
7
  6
CONTINUOUS
 10
361.4793477997
 20
31.4424063369
 11
361.3637227445
 21
31.3778789641
  0
LINE
  8
0
 62
7
  6
CONTINUOUS
 10
361.3637227445
 20
31.2488242184
 11
361.4793477997
 21
31.3133515913
  0
LINE
  8
0
 62
7
  6
CONTINUOUS
 10
360.3809101894
 20
30.6035504109
 11
360.5543476894
 21
30.7003414814
  0
LINE
  8
0
 62
7
  6
CONTINUOUS
 10
359.3980977583
 20
30.5390230296
 11
359.744972717
 21
30.5067593403
  0
LINE
  8
0
 62
7
  6
CONTINUOUS
 10
363.5027853548
 20
30.5390230296
 11
363.7340351343
 21
30.5067593403
  0
LINE
  8
0
 62
7
  6
CONTINUOUS
 10
361.8840352445
 20
31.4101426505
 11
362.1152853548
 21
31.3778789641
  0
LINE
  8
0
 62
7
  6
CONTINUOUS
 10
364.1965353548
 20
31.4101426505
 11
364.4277854651
 21
31.3778789641
  0
LINE
  8
0
 62
7
  6
CONTINUOUS
 10
368.6480977445
 20
31.0552420547
 11
369.6309104651
 21
30.8939236226
  0
LINE
  8
0
 62
7
  6
CONTINUOUS
 10
369.8043479651
 20
30.9907146818
 11
368.8215352445
 21
31.1520331591
  0
LINE
  8
0
 62
7
  6
CONTINUOUS
 10
362.2887228548
 20
31.5069337098
 11
362.1152853548
 21
31.5391973962
  0
LINE
  8
0
 62
7
  6
CONTINUOUS
 10
368.5902854651
 20
30.5712867188
 11
368.7637229651
 21
30.5390230296
  0
LINE
  8
0
 62
7
  6
CONTINUOUS
 10
367.4340352445
 20
31.5069337098
 11
367.2605977445
 21
31.5391973962
  0
LINE
  8
0
 62
7
  6
CONTINUOUS
 10
369.6887227445
 20
31.3778789641
 11
369.8043479651
 21
31.3456152777
  0
LINE
  8
0
 62
7
  6
CONTINUOUS
 10
369.8621602445
 20
30.7648688543
 11
369.8043479651
 21
30.7003414814
  0
LINE
  8
0
 62
7
  6
CONTINUOUS
 10
368.4168479651
 20
31.4424063369
 11
368.3012227445
 21
31.3456152777
  0
LINE
  8
0
 62
7
  6
CONTINUOUS
 10
363.3293478548
 20
31.4746700234
 11
363.2137226343
 21
31.4101426505
  0
LINE
  8
0
 62
7
  6
CONTINUOUS
 10
363.3871601343
 20
31.0875057863
 11
363.2715352445
 21
31.0229783683
  0
LINE
  8
0
 62
7
  6
CONTINUOUS
 10
363.5027853548
 20
30.926187309
 11
363.6184102445
 21
30.9907146818
  0
LINE
  8
0
 62
7
  6
CONTINUOUS
 10
361.0746601894
 20
30.5067593403
 11
361.3637227445
 21
30.5067593403
  0
LINE
  8
0
 62
7
  6
CONTINUOUS
 10
362.4043477445
 20
30.5067593403
 11
362.6934101343
 21
30.5067593403
  0
LINE
  8
0
 62
7
  6
CONTINUOUS
 10
363.7340351343
 20
30.5067593403
 11
364.0809101343
 21
30.5067593403
  0
LINE
  8
0
 62
7
  6
CONTINUOUS
 10
364.716847524
 20
30.5067593403
 11
365.0059102445
 21
30.5067593403
  0
LINE
  8
0
 62
7
  6
CONTINUOUS
 10
365.4684104651
 20
30.5067593403
 11
365.757472524
 21
30.5067593403
  0
LINE
  8
0
 62
7
  6
CONTINUOUS
 10
366.2199727445
 20
30.5067593403
 11
366.5090354651
 21
30.5067593403
  0
LINE
  8
0
 62
7
  6
CONTINUOUS
 10
367.5496604651
 20
30.5067593403
 11
367.838722524
 21
30.5067593403
  0
LINE
  8
0
 62
7
  6
CONTINUOUS
 10
369.1105979651
 20
30.5067593403
 11
369.4574729651
 21
30.5067593403
  0
LINE
  8
0
 62
7
  6
CONTINUOUS
 10
369.4574729651
 20
30.6358140973
 11
369.1105979651
 21
30.6358140973
  0
LINE
  8
0
 62
7
  6
CONTINUOUS
 10
364.0809101343
 20
30.6358140973
 11
363.7340351343
 21
30.6358140973
  0
LINE
  8
0
 62
7
  6
CONTINUOUS
 10
368.5902854651
 20
30.7648688543
 11
368.3012227445
 21
30.7648688543
  0
LINE
  8
0
 62
7
  6
CONTINUOUS
 10
360.6121602997
 20
30.8293962497
 11
360.3230977445
 21
30.8293962497
  0
LINE
  8
0
 62
7
  6
CONTINUOUS
 10
359.6871602721
 20
31.4101426505
 11
360.091847717
 21
31.3778789641
  0
LINE
  8
0
 62
7
  6
CONTINUOUS
 10
360.1496602445
 20
31.5069337098
 11
359.744972717
 21
31.5391973962
  0
LINE
  8
0
 62
7
  6
CONTINUOUS
 10
368.7637229651
 20
30.5390230296
 11
369.1105979651
 21
30.5067593403
  0
LINE
  8
0
 62
7
  6
CONTINUOUS
 10
369.1105979651
 20
30.6358140973
 11
368.7637229651
 21
30.668077795
  0
LINE
  8
0
 62
7
  6
CONTINUOUS
 10
364.543410024
 20
31.5069337098
 11
364.1965353548
 21
31.5391973962
  0
LINE
  8
0
 62
7
  6
CONTINUOUS
 10
369.3418477445
 20
31.4101426505
 11
369.6887227445
 21
31.3778789641
  0
LINE
  8
0
 62
7
  6
CONTINUOUS
 10
369.6887227445
 20
31.5069337098
 11
369.3418477445
 21
31.5391973962
  0
LINE
  8
0
 62
7
  6
CONTINUOUS
 10
367.0293479651
 20
31.4101426505
 11
367.2605977445
 21
31.3778789641
  0
LINE
  8
0
 62
7
  6
CONTINUOUS
 10
369.8621602445
 20
31.4746700234
 11
369.6887227445
 21
31.5069337098
  0
LINE
  8
0
 62
7
  6
CONTINUOUS
 10
370.0355977445
 20
30.6035504109
 11
370.1512223035
 21
30.7003414814
  0
LINE
  8
0
 62
7
  6
CONTINUOUS
 10
364.543410024
 20
30.7971325633
 11
364.369972524
 21
30.7003414814
  0
LINE
  8
0
 62
7
  6
CONTINUOUS
 10
366.624660024
 20
31.4424063369
 11
366.5090354651
 21
31.3778789641
  0
LINE
  8
0
 62
7
  6
CONTINUOUS
 10
366.5090354651
 20
31.2488242184
 11
366.624660024
 21
31.3133515913
  0
LINE
  8
0
 62
7
  6
CONTINUOUS
 10
359.2246602583
 20
31.4746700234
 11
359.0512227376
 21
31.4101426505
  0
LINE
  8
0
 62
7
  6
CONTINUOUS
 10
361.6527851343
 20
31.5069337098
 11
361.4793477997
 21
31.4424063369
  0
LINE
  8
0
 62
7
  6
CONTINUOUS
 10
361.4793477997
 20
31.3133515913
 11
361.6527851343
 21
31.3778789641
  0
LINE
  8
0
 62
7
  6
CONTINUOUS
 10
360.2652852997
 20
30.7326051679
 11
360.091847717
 21
30.668077795
  0
LINE
  8
0
 62
7
  6
CONTINUOUS
 10
369.6887227445
 20
30.668077795
 11
369.4574729651
 21
30.6358140973
  0
LINE
  8
0
 62
7
  6
CONTINUOUS
 10
364.0809101343
 20
30.5067593403
 11
364.369972524
 21
30.5390230296
  0
LINE
  8
0
 62
7
  6
CONTINUOUS
 10
369.4574729651
 20
30.5067593403
 11
369.8043479651
 21
30.5390230296
  0
LINE
  8
0
 62
7
  6
CONTINUOUS
 10
359.744972717
 20
30.5067593403
 11
360.1496602445
 21
30.5390230296
  0
LINE
  8
0
 62
7
  6
CONTINUOUS
 10
360.091847717
 20
30.668077795
 11
359.6871602721
 21
30.6358140973
  0
LINE
  8
0
 62
7
  6
CONTINUOUS
 10
363.9652852445
 20
31.0552420547
 11
364.6012229651
 21
31.0552420547
  0
LINE
  8
0
 62
7
  6
CONTINUOUS
 10
364.6012229651
 20
31.1842968456
 11
363.9652852445
 21
31.1842968456
  0
LINE
  8
0
 62
7
  6
CONTINUOUS
 10
360.3230977445
 20
31.216560532
 11
360.6121602997
 21
31.216560532
  0
LINE
  8
0
 62
7
  6
CONTINUOUS
 10
363.1559103548
 20
31.2810879048
 11
363.4449727445
 21
31.2810879048
  0
LINE
  8
0
 62
7
  6
CONTINUOUS
 10
369.8621602445
 20
31.2810879048
 11
370.1512223035
 21
31.2810879048
  0
LINE
  8
0
 62
7
  6
CONTINUOUS
 10
363.8496603548
 20
31.4101426505
 11
364.1965353548
 21
31.4101426505
  0
LINE
  8
0
 62
7
  6
CONTINUOUS
 10
368.9949727445
 20
31.4101426505
 11
369.3418477445
 21
31.4101426505
  0
LINE
  8
0
 62
7
  6
CONTINUOUS
 10
369.3418477445
 20
31.5391973962
 11
368.9949727445
 21
31.5391973962
  0
LINE
  8
0
 62
7
  6
CONTINUOUS
 10
367.2605977445
 20
31.5391973962
 11
367.0293479651
 21
31.5391973962
  0
LINE
  8
0
 62
7
  6
CONTINUOUS
 10
366.5090354651
 20
31.5391973962
 11
366.2199727445
 21
31.5391973962
  0
LINE
  8
0
 62
7
  6
CONTINUOUS
 10
365.757472524
 20
31.5391973962
 11
365.4684104651
 21
31.5391973962
  0
LINE
  8
0
 62
7
  6
CONTINUOUS
 10
364.1965353548
 20
31.5391973962
 11
363.8496603548
 21
31.5391973962
  0
LINE
  8
0
 62
7
  6
CONTINUOUS
 10
362.1152853548
 20
31.5391973962
 11
361.8840352445
 21
31.5391973962
  0
LINE
  8
0
 62
7
  6
CONTINUOUS
 10
365.4684104651
 20
31.8618343508
 11
365.757472524
 21
31.8618343508
  0
LINE
  8
0
 62
7
  6
CONTINUOUS
 10
365.757472524
 20
32.0231527829
 11
365.4684104651
 21
32.0231527829
  0
LINE
  8
0
 62
7
  6
CONTINUOUS
 10
361.3637227445
 20
32.0231527829
 11
361.0746601894
 21
32.0231527829
  0
LINE
  8
0
 62
7
  6
CONTINUOUS
 10
360.4015045068
 20
32.3100380288
 11
360.8140758554
 21
32.3100380288
  0
LINE
  8
0
 62
7
  6
CONTINUOUS
 10
362.0408487691
 20
32.3100380288
 11
363.4342913921
 21
32.3100380288
  0
LINE
  8
0
 62
7
  6
CONTINUOUS
 10
363.7621602445
 20
32.3100380288
 11
365.1556028675
 21
32.3100380288
  0
LINE
  8
0
 62
7
  6
CONTINUOUS
 10
367.0408487691
 20
32.3100380288
 11
368.4342913921
 21
32.3100380288
  0
LINE
  8
0
 62
7
  6
CONTINUOUS
 10
368.7621602445
 20
32.3100380288
 11
370.1556028675
 21
32.3100380288
  0
LINE
  8
0
 62
7
  6
CONTINUOUS
 10
366.798097524
 20
31.5069337098
 11
366.624660024
 21
31.4424063369
  0
LINE
  8
0
 62
7
  6
CONTINUOUS
 10
364.369972524
 20
30.5390230296
 11
364.543410024
 21
30.6035504109
  0
LINE
  8
0
 62
7
  6
CONTINUOUS
 10
369.8043479651
 20
30.5390230296
 11
370.0355977445
 21
30.6035504109
  0
LINE
  8
0
 62
7
  6
CONTINUOUS
 10
369.8043479651
 20
30.7003414814
 11
369.6887227445
 21
30.668077795
  0
LINE
  8
0
 62
7
  6
CONTINUOUS
 10
368.7637229651
 20
31.3778789641
 11
368.9949727445
 21
31.4101426505
  0
LINE
  8
0
 62
7
  6
CONTINUOUS
 10
366.798097524
 20
31.3778789641
 11
367.0293479651
 21
31.4101426505
  0
LINE
  8
0
 62
7
  6
CONTINUOUS
 10
363.7340351343
 20
31.0229783683
 11
363.9652852445
 21
31.0552420547
  0
LINE
  8
0
 62
7
  6
CONTINUOUS
 10
367.0293479651
 20
31.5391973962
 11
366.798097524
 21
31.5069337098
  0
LINE
  8
0
 62
7
  6
CONTINUOUS
 10
363.6184102445
 20
31.3778789641
 11
363.8496603548
 21
31.4101426505
  0
LINE
  8
0
 62
7
  6
CONTINUOUS
 10
368.9949727445
 20
31.5391973962
 11
368.6480977445
 21
31.5069337098
  0
LINE
  8
0
 62
7
  6
CONTINUOUS
 10
363.9652852445
 20
31.1842968456
 11
363.6184102445
 21
31.1520331591
  0
LINE
  8
0
 62
7
  6
CONTINUOUS
 10
359.744972717
 20
31.5391973962
 11
359.3980977583
 21
31.5069337098
  0
LINE
  8
0
 62
7
  6
CONTINUOUS
 10
363.8496603548
 20
31.5391973962
 11
363.4449727445
 21
31.5069337098
  0
LINE
  8
0
 62
7
  6
CONTINUOUS
 10
361.221176638
 20
33.4575790124
 11
360.565438933
 21
33.4575790124
  0
LINE
  8
0
 62
7
  6
CONTINUOUS
 10
366.624660024
 20
31.3133515913
 11
366.798097524
 21
31.3778789641
  0
LINE
  8
0
 62
7
  6
CONTINUOUS
 10
368.6480977445
 20
31.3456152777
 11
368.7637229651
 21
31.3778789641
  0
LINE
  8
0
 62
7
  6
CONTINUOUS
 10
368.6480977445
 20
31.5069337098
 11
368.4168479651
 21
31.4424063369
  0
LINE
  8
0
 62
7
  6
CONTINUOUS
 10
364.369972524
 20
30.7003414814
 11
364.0809101343
 21
30.6358140973
  0
LINE
  8
0
 62
7
  6
CONTINUOUS
 10
361.6527851343
 20
31.3778789641
 11
361.8840352445
 21
31.4101426505
  0
LINE
  8
0
 62
7
  6
CONTINUOUS
 10
361.8840352445
 20
31.5391973962
 11
361.6527851343
 21
31.5069337098
  0
LINE
  8
0
 62
7
  6
CONTINUOUS
 10
359.4559102445
 20
31.3778789641
 11
359.6871602721
 21
31.4101426505
  0
LINE
  8
0
 62
7
  6
CONTINUOUS
 10
365.9752749986
 20
34.9329888485
 11
366.6310127035
 21
34.9329888485
  0
LINE
  8
0
 62
7
  6
CONTINUOUS
 10
363.6184102445
 20
30.9907146818
 11
363.7340351343
 21
31.0229783683
  0
LINE
  8
0
 62
7
  6
CONTINUOUS
 10
363.6184102445
 20
31.1520331591
 11
363.3871601343
 21
31.0875057863
  0
LINE
  8
0
 62
7
  6
CONTINUOUS
 10
363.5027853548
 20
31.3456152777
 11
363.6184102445
 21
31.3778789641
  0
LINE
  8
0
 62
7
  6
CONTINUOUS
 10
360.1496602445
 20
30.5390230296
 11
360.3809101894
 21
30.6035504109
  0
LINE
  8
0
 62
7
  6
CONTINUOUS
 10
363.4449727445
 20
31.5069337098
 11
363.3293478548
 21
31.4746700234
  0
LINE
  8
0
 62
7
  6
CONTINUOUS
 10
359.3980977583
 20
31.5069337098
 11
359.2246602583
 21
31.4746700234
  0
LINE
  8
0
 62
7
  6
CONTINUOUS
 10
370.1556028675
 20
36.0805298321
 11
368.7621602445
 21
36.0805298321
  0
LINE
  8
0
 62
7
  6
CONTINUOUS
 10
366.7949471298
 20
36.0805298321
 11
366.3823757812
 21
36.0805298321
  0
LINE
  8
0
 62
7
  6
CONTINUOUS
 10
365.1556028675
 20
36.0805298321
 11
363.7621602445
 21
36.0805298321
  0
LINE
  8
0
 62
7
  6
CONTINUOUS
 10
363.4342913921
 20
36.0805298321
 11
362.0408487691
 21
36.0805298321
  0
LINE
  8
0
 62
7
  6
CONTINUOUS
 10
360.1556028675
 20
36.0805298321
 11
358.7621602445
 21
36.0805298321
  0
LINE
  8
0
 62
7
  6
CONTINUOUS
 10
359.3402852307
 20
31.3456152777
 11
359.4559102445
 21
31.3778789641
  0
CIRCLE
  8
0
 62
7
  6
CONTINUOUS
 10
369.458881556
 20
38.4165954059
 40
2.0901639344
  0
ARC
  8
0
 62
7
  6
CONTINUOUS
 10
360.4015045068
 20
33.9493822911
 40
1.6393442623
 50
180.0
 51
270.0
  0
ARC
  8
0
 62
7
  6
CONTINUOUS
 10
366.7949471298
 20
34.4411855698
 40
1.6393442623
 50
0.0
 51
90.0
  0
ARC
  8
0
 62
7
  6
CONTINUOUS
 10
360.8140758554
 20
33.7854478649
 40
1.4754098361
 50
270.0
 51
326.2510114041
  0
ARC
  8
0
 62
7
  6
CONTINUOUS
 10
366.3823757812
 20
34.6051199961
 40
1.4754098361
 50
90.0
 51
146.2510114041
  0
ARC
  8
0
 62
7
  6
CONTINUOUS
 10
361.221176638
 20
34.2772511436
 40
0.8196721311
 50
270.0
 51
360.0
  0
ARC
  8
0
 62
7
  6
CONTINUOUS
 10
365.9752749986
 20
34.1133167174
 40
0.8196721311
 50
90.0
 51
180.0
  0
ARC
  8
0
 62
7
  6
CONTINUOUS
 10
360.565438933
 20
33.867415078
 40
0.4098360656
 50
180.0
 51
270.0
  0
ARC
  8
0
 62
7
  6
CONTINUOUS
 10
366.6310127035
 20
34.5231527829
 40
0.4098360656
 50
0.0
 51
90.0
  0
SOLID
  8
0
 62
7
  6
CONTINUOUS
 10
365.4684104651
 20
31.8618347111
 11
365.4684104651
 21
32.0231531947
 12
365.757472524
 22
31.8618347111
 13
365.757472524
 23
32.0231531947
  0
SOLID
  8
0
 62
7
  6
CONTINUOUS
 10
359.744972717
 20
31.5391977439
 11
360.1496602445
 21
31.5069333244
 12
359.3980977583
 22
31.5069333244
 13
359.3980977583
 23
31.5069333244
  0
SOLID
  8
0
 62
7
  6
CONTINUOUS
 10
359.2246602583
 20
31.4746706537
 11
359.3980977583
 21
31.5069333244
 12
360.1496602445
 22
31.5069333244
 13
360.1496602445
 23
31.5069333244
  0
SOLID
  8
0
 62
7
  6
CONTINUOUS
 10
360.1496602445
 20
31.5069333244
 11
360.3809101894
 21
31.4424063504
 12
359.2246602583
 22
31.4746706537
 13
359.2246602583
 23
31.4746706537
  0
SOLID
  8
0
 62
7
  6
CONTINUOUS
 10
359.0512227376
 20
31.4101419116
 11
359.2246602583
 21
31.4746706537
 12
360.3809101894
 22
31.4424063504
 13
360.3809101894
 23
31.4424063504
  0
SOLID
  8
0
 62
7
  6
CONTINUOUS
 10
359.0512227376
 20
31.4101419116
 11
360.3809101894
 21
31.4424063504
 12
359.6871602721
 22
31.4101419116
 13
359.6871602721
 23
31.4101419116
  0
SOLID
  8
0
 62
7
  6
CONTINUOUS
 10
359.6871602721
 20
31.4101419116
 11
360.3809101894
 21
31.4424063504
 12
360.091847717
 22
31.3778792603
 13
360.091847717
 23
31.3778792603
  0
SOLID
  8
0
 62
7
  6
CONTINUOUS
 10
360.3809101894
 20
31.4424063504
 11
360.5543476894
 21
31.345614957
 12
360.091847717
 22
31.3778792603
 13
360.091847717
 23
31.3778792603
  0
SOLID
  8
0
 62
7
  6
CONTINUOUS
 10
360.2652852997
 20
31.3133521701
 11
360.091847717
 21
31.3778792603
 12
360.5543476894
 22
31.345614957
 13
360.5543476894
 23
31.345614957
  0
SOLID
  8
0
 62
7
  6
CONTINUOUS
 10
360.2652852997
 20
31.3133521701
 11
360.5543476894
 21
31.345614957
 12
360.3230977445
 22
31.2165606992
 13
360.3230977445
 23
31.2165606992
  0
SOLID
  8
0
 62
7
  6
CONTINUOUS
 10
360.5543476894
 20
31.345614957
 11
360.6121602997
 21
31.2165606992
 12
360.3230977445
 22
31.2165606992
 13
360.3230977445
 23
31.2165606992
  0
SOLID
  8
0
 62
7
  6
CONTINUOUS
 10
361.6527851343
 20
31.5069329918
 11
361.8840352445
 21
31.5391972951
 12
362.1152853548
 22
31.5391972951
 13
362.1152853548
 23
31.5391972951
  0
SOLID
  8
0
 62
7
  6
CONTINUOUS
 10
362.1152853548
 20
31.5391972951
 11
362.2887228548
 21
31.5069329918
 12
361.6527851343
 22
31.5069329918
 13
361.6527851343
 23
31.5069329918
  0
SOLID
  8
0
 62
7
  6
CONTINUOUS
 10
361.4793477997
 20
31.4424059016
 11
361.6527851343
 21
31.5069329918
 12
362.2887228548
 22
31.5069329918
 13
362.2887228548
 23
31.5069329918
  0
SOLID
  8
0
 62
7
  6
CONTINUOUS
 10
362.2887228548
 20
31.5069329918
 11
362.4621603548
 21
31.4424059016
 12
361.4793477997
 22
31.4424059016
 13
361.4793477997
 23
31.4424059016
  0
SOLID
  8
0
 62
7
  6
CONTINUOUS
 10
362.4621603548
 20
31.4424059016
 11
361.8840352445
 21
31.4101420472
 12
361.4793477997
 22
31.4424059016
 13
361.4793477997
 23
31.4424059016
  0
SOLID
  8
0
 62
7
  6
CONTINUOUS
 10
361.3637227445
 20
31.3778788115
 11
361.4793477997
 21
31.4424059016
 12
361.8840352445
 22
31.4101420472
 13
361.8840352445
 23
31.4101420472
  0
SOLID
  8
0
 62
7
  6
CONTINUOUS
 10
361.8840352445
 20
31.4101420472
 11
361.6527851343
 21
31.3778788115
 12
361.3637227445
 22
31.3778788115
 13
361.3637227445
 23
31.3778788115
  0
SOLID
  8
0
 62
7
  6
CONTINUOUS
 10
361.8840352445
 20
31.4101420472
 11
362.4621603548
 21
31.4424059016
 12
362.1152853548
 22
31.3778788115
 13
362.1152853548
 23
31.3778788115
  0
SOLID
  8
0
 62
7
  6
CONTINUOUS
 10
362.4621603548
 20
31.4424059016
 11
362.5777852445
 21
31.3778788115
 12
362.1152853548
 22
31.3778788115
 13
362.1152853548
 23
31.3778788115
  0
SOLID
  8
0
 62
7
  6
CONTINUOUS
 10
362.2309102445
 20
31.345614957
 11
362.1152853548
 21
31.3778788115
 12
362.5777852445
 22
31.3778788115
 13
362.5777852445
 23
31.3778788115
  0
SOLID
  8
0
 62
7
  6
CONTINUOUS
 10
362.5777852445
 20
31.3778788115
 11
362.6355978548
 21
31.3133517213
 12
362.2309102445
 22
31.345614957
 13
362.2309102445
 23
31.345614957
  0
SOLID
  8
0
 62
7
  6
CONTINUOUS
 10
362.3465351343
 20
31.2810878668
 11
362.2309102445
 21
31.345614957
 12
362.6355978548
 22
31.3133517213
 13
362.6355978548
 23
31.3133517213
  0
SOLID
  8
0
 62
7
  6
CONTINUOUS
 10
362.3465351343
 20
31.2810878668
 11
362.6355978548
 21
31.3133517213
 12
362.4043477445
 22
31.1520332377
 13
362.4043477445
 23
31.1520332377
  0
SOLID
  8
0
 62
7
  6
CONTINUOUS
 10
362.6355978548
 20
31.3133517213
 11
362.6934101343
 21
31.1520332377
 12
362.4043477445
 22
31.1520332377
 13
362.4043477445
 23
31.1520332377
  0
SOLID
  8
0
 62
7
  6
CONTINUOUS
 10
361.6527851343
 20
31.3778788115
 11
361.4793477997
 21
31.3133517213
 12
361.3637227445
 22
31.3778788115
 13
361.3637227445
 23
31.3778788115
  0
SOLID
  8
0
 62
7
  6
CONTINUOUS
 10
361.4793477997
 20
31.3133517213
 11
361.3637227445
 21
31.2488235635
 12
361.3637227445
 22
31.3778788115
 13
361.3637227445
 23
31.3778788115
  0
SOLID
  8
0
 62
7
  6
CONTINUOUS
 10
361.3637227445
 20
31.2488235635
 11
361.0746601894
 21
30.5067593033
 12
361.3637227445
 22
31.3778788115
 13
361.3637227445
 23
31.3778788115
  0
SOLID
  8
0
 62
7
  6
CONTINUOUS
 10
361.3637227445
 20
31.3778788115
 11
361.0746601894
 21
30.5067593033
 12
361.3637227445
 22
32.0231527459
 13
361.3637227445
 23
32.0231527459
  0
SOLID
  8
0
 62
7
  6
CONTINUOUS
 10
361.0746601894
 20
30.5067593033
 11
361.0746601894
 21
32.0231527459
 12
361.3637227445
 22
32.0231527459
 13
361.3637227445
 23
32.0231527459
  0
SOLID
  8
0
 62
7
  6
CONTINUOUS
 10
361.3637227445
 20
31.2488235635
 11
361.3637227445
 21
30.5067593033
 12
361.0746601894
 22
30.5067593033
 13
361.0746601894
 23
30.5067593033
  0
SOLID
  8
0
 62
7
  6
CONTINUOUS
 10
362.4043477445
 20
30.5067593033
 11
362.4043477445
 21
31.1520332377
 12
362.6934101343
 22
31.1520332377
 13
362.6934101343
 23
31.1520332377
  0
SOLID
  8
0
 62
7
  6
CONTINUOUS
 10
362.6934101343
 20
31.1520332377
 11
362.6934101343
 21
30.5067593033
 12
362.4043477445
 22
30.5067593033
 13
362.4043477445
 23
30.5067593033
  0
SOLID
  8
0
 62
7
  6
CONTINUOUS
 10
363.4449727445
 20
31.506933758
 11
363.8496603548
 21
31.5391977507
 12
364.1965353548
 22
31.5391977507
 13
364.1965353548
 23
31.5391977507
  0
SOLID
  8
0
 62
7
  6
CONTINUOUS
 10
364.1965353548
 20
31.5391977507
 11
364.543410024
 21
31.506933758
 12
363.4449727445
 22
31.506933758
 13
363.4449727445
 23
31.506933758
  0
SOLID
  8
0
 62
7
  6
CONTINUOUS
 10
363.3293478548
 20
31.4746706537
 11
363.4449727445
 21
31.506933758
 12
364.543410024
 22
31.506933758
 13
364.543410024
 23
31.506933758
  0
SOLID
  8
0
 62
7
  6
CONTINUOUS
 10
364.543410024
 20
31.506933758
 11
364.716847524
 21
31.4424063504
 12
363.3293478548
 22
31.4746706537
 13
363.3293478548
 23
31.4746706537
  0
SOLID
  8
0
 62
7
  6
CONTINUOUS
 10
363.2137226343
 20
31.4101417797
 11
363.3293478548
 21
31.4746706537
 12
364.716847524
 22
31.4424063504
 13
364.716847524
 23
31.4424063504
  0
SOLID
  8
0
 62
7
  6
CONTINUOUS
 10
363.2137226343
 20
31.4101417797
 11
364.716847524
 21
31.4424063504
 12
363.8496603548
 22
31.4101417797
 13
363.8496603548
 23
31.4101417797
  0
SOLID
  8
0
 62
7
  6
CONTINUOUS
 10
363.8496603548
 20
31.4101417797
 11
364.716847524
 21
31.4424063504
 12
364.1965353548
 22
31.4101417797
 13
364.1965353548
 23
31.4101417797
  0
SOLID
  8
0
 62
7
  6
CONTINUOUS
 10
364.1965353548
 20
31.4101417797
 11
364.716847524
 21
31.4424063504
 12
364.4277854651
 22
31.3778793357
 13
364.4277854651
 23
31.3778793357
  0
SOLID
  8
0
 62
7
  6
CONTINUOUS
 10
364.716847524
 20
31.4424063504
 11
364.8324727445
 21
31.3778793357
 12
364.4277854651
 22
31.3778793357
 13
364.4277854651
 23
31.3778793357
  0
SOLID
  8
0
 62
7
  6
CONTINUOUS
 10
363.1559103548
 20
31.3456153429
 11
363.2137226343
 21
31.4101417797
 12
363.8496603548
 22
31.4101417797
 13
363.8496603548
 23
31.4101417797
  0
SOLID
  8
0
 62
7
  6
CONTINUOUS
 10
364.543410024
 20
31.3456153429
 11
364.4277854651
 21
31.3778793357
 12
364.8324727445
 22
31.3778793357
 13
364.8324727445
 23
31.3778793357
  0
SOLID
  8
0
 62
7
  6
CONTINUOUS
 10
364.543410024
 20
31.3456153429
 11
364.8324727445
 21
31.3778793357
 12
364.6012229651
 22
31.2810881318
 13
364.6012229651
 23
31.2810881318
  0
SOLID
  8
0
 62
7
  6
CONTINUOUS
 10
364.8324727445
 20
31.3778793357
 11
364.890285024
 21
31.2810881318
 12
364.6012229651
 22
31.2810881318
 13
364.6012229651
 23
31.2810881318
  0
SOLID
  8
0
 62
7
  6
CONTINUOUS
 10
364.6012229651
 20
31.1842964734
 11
364.6012229651
 21
31.2810881318
 12
364.890285024
 22
31.2810881318
 13
364.890285024
 23
31.2810881318
  0
SOLID
  8
0
 62
7
  6
CONTINUOUS
 10
364.6012229651
 20
31.1842964734
 11
364.890285024
 21
31.2810881318
 12
364.6012229651
 22
31.0552422931
 13
364.6012229651
 23
31.0552422931
  0
SOLID
  8
0
 62
7
  6
CONTINUOUS
 10
364.6012229651
 20
31.0552422931
 11
364.890285024
 21
31.2810881318
 12
364.6012229651
 22
30.8616599362
 13
364.6012229651
 23
30.8616599362
  0
SOLID
  8
0
 62
7
  6
CONTINUOUS
 10
364.890285024
 20
31.2810881318
 11
364.890285024
 21
30.7648681127
 12
364.6012229651
 22
30.8616599362
 13
364.6012229651
 23
30.8616599362
  0
SOLID
  8
0
 62
7
  6
CONTINUOUS
 10
366.798097524
 20
31.5069339419
 11
367.0293479651
 21
31.5391976292
 12
367.2605977445
 22
31.5391976292
 13
367.2605977445
 23
31.5391976292
  0
SOLID
  8
0
 62
7
  6
CONTINUOUS
 10
367.2605977445
 20
31.5391976292
 11
367.4340352445
 21
31.5069339419
 12
366.798097524
 22
31.5069339419
 13
366.798097524
 23
31.5069339419
  0
SOLID
  8
0
 62
7
  6
CONTINUOUS
 10
366.624660024
 20
31.4424065674
 11
366.798097524
 21
31.5069339419
 12
367.4340352445
 22
31.5069339419
 13
367.4340352445
 23
31.5069339419
  0
SOLID
  8
0
 62
7
  6
CONTINUOUS
 10
367.4340352445
 20
31.5069339419
 11
367.6074727445
 21
31.4424065674
 12
366.624660024
 22
31.4424065674
 13
366.624660024
 23
31.4424065674
  0
SOLID
  8
0
 62
7
  6
CONTINUOUS
 10
367.6074727445
 20
31.4424065674
 11
367.0293479651
 21
31.4101420472
 12
366.624660024
 22
31.4424065674
 13
366.624660024
 23
31.4424065674
  0
SOLID
  8
0
 62
7
  6
CONTINUOUS
 10
366.5090354651
 20
31.377879193
 11
366.624660024
 21
31.4424065674
 12
367.0293479651
 22
31.4101420472
 13
367.0293479651
 23
31.4101420472
  0
SOLID
  8
0
 62
7
  6
CONTINUOUS
 10
367.0293479651
 20
31.4101420472
 11
366.798097524
 21
31.377879193
 12
366.5090354651
 22
31.377879193
 13
366.5090354651
 23
31.377879193
  0
SOLID
  8
0
 62
7
  6
CONTINUOUS
 10
367.0293479651
 20
31.4101420472
 11
367.6074727445
 21
31.4424065674
 12
367.2605977445
 22
31.377879193
 13
367.2605977445
 23
31.377879193
  0
SOLID
  8
0
 62
7
  6
CONTINUOUS
 10
367.6074727445
 20
31.4424065674
 11
367.7230979651
 21
31.377879193
 12
367.2605977445
 22
31.377879193
 13
367.2605977445
 23
31.377879193
  0
SOLID
  8
0
 62
7
  6
CONTINUOUS
 10
367.3762229651
 20
31.345614957
 11
367.2605977445
 21
31.377879193
 12
367.7230979651
 22
31.377879193
 13
367.7230979651
 23
31.377879193
  0
SOLID
  8
0
 62
7
  6
CONTINUOUS
 10
367.3762229651
 20
31.345614957
 11
367.7230979651
 21
31.377879193
 12
367.491847524
 22
31.2810881312
 13
367.491847524
 23
31.2810881312
  0
SOLID
  8
0
 62
7
  6
CONTINUOUS
 10
367.7230979651
 20
31.377879193
 11
367.7809102445
 21
31.2810881312
 12
367.491847524
 22
31.2810881312
 13
367.491847524
 23
31.2810881312
  0
SOLID
  8
0
 62
7
  6
CONTINUOUS
 10
367.5496604651
 20
31.119769695
 11
367.491847524
 21
31.2810881312
 12
367.7809102445
 22
31.2810881312
 13
367.7809102445
 23
31.2810881312
  0
SOLID
  8
0
 62
7
  6
CONTINUOUS
 10
367.7809102445
 20
31.2810881312
 11
367.838722524
 21
31.119769695
 12
367.5496604651
 22
31.119769695
 13
367.5496604651
 23
31.119769695
  0
SOLID
  8
0
 62
7
  6
CONTINUOUS
 10
366.798097524
 20
31.377879193
 11
366.624660024
 21
31.3133521701
 12
366.5090354651
 22
31.377879193
 13
366.5090354651
 23
31.377879193
  0
SOLID
  8
0
 62
7
  6
CONTINUOUS
 10
366.624660024
 20
31.3133521701
 11
366.5090354651
 21
31.2488235635
 12
366.5090354651
 22
31.377879193
 13
366.5090354651
 23
31.377879193
  0
SOLID
  8
0
 62
7
  6
CONTINUOUS
 10
366.5090354651
 20
31.2488235635
 11
366.2199727445
 21
30.5067596374
 12
366.5090354651
 22
31.377879193
 13
366.5090354651
 23
31.377879193
  0
SOLID
  8
0
 62
7
  6
CONTINUOUS
 10
366.5090354651
 20
31.377879193
 11
366.2199727445
 21
30.5067596374
 12
366.5090354651
 22
31.5391976292
 13
366.5090354651
 23
31.5391976292
  0
SOLID
  8
0
 62
7
  6
CONTINUOUS
 10
366.2199727445
 20
30.5067596374
 11
366.2199727445
 21
31.5391976292
 12
366.5090354651
 22
31.5391976292
 13
366.5090354651
 23
31.5391976292
  0
SOLID
  8
0
 62
7
  6
CONTINUOUS
 10
366.5090354651
 20
31.2488235635
 11
366.5090354651
 21
30.5067596374
 12
366.2199727445
 22
30.5067596374
 13
366.2199727445
 23
30.5067596374
  0
SOLID
  8
0
 62
7
  6
CONTINUOUS
 10
367.5496604651
 20
30.5067596374
 11
367.5496604651
 21
31.119769695
 12
367.838722524
 22
31.119769695
 13
367.838722524
 23
31.119769695
  0
SOLID
  8
0
 62
7
  6
CONTINUOUS
 10
367.838722524
 20
31.119769695
 11
367.838722524
 21
30.5067596374
 12
367.5496604651
 22
30.5067596374
 13
367.5496604651
 23
30.5067596374
  0
SOLID
  8
0
 62
7
  6
CONTINUOUS
 10
368.6480977445
 20
31.5069334157
 11
368.9949727445
 21
31.539197762
 12
369.3418477445
 22
31.539197762
 13
369.3418477445
 23
31.539197762
  0
SOLID
  8
0
 62
7
  6
CONTINUOUS
 10
369.3418477445
 20
31.539197762
 11
369.6887227445
 21
31.5069334157
 12
368.6480977445
 22
31.5069334157
 13
368.6480977445
 23
31.5069334157
  0
SOLID
  8
0
 62
7
  6
CONTINUOUS
 10
368.4168479651
 20
31.4424063504
 11
368.6480977445
 21
31.5069334157
 12
369.6887227445
 22
31.5069334157
 13
369.6887227445
 23
31.5069334157
  0
SOLID
  8
0
 62
7
  6
CONTINUOUS
 10
368.4168479651
 20
31.4424063504
 11
369.6887227445
 21
31.5069334406
 12
369.8621602445
 22
31.4746706537
 13
369.8621602445
 23
31.4746706537
  0
SOLID
  8
0
 62
7
  6
CONTINUOUS
 10
368.4168479651
 20
31.4424063504
 11
369.8621602445
 21
31.4746706537
 12
368.9949727445
 22
31.4101421267
 13
368.9949727445
 23
31.4101421267
  0
SOLID
  8
0
 62
7
  6
CONTINUOUS
 10
368.9949727445
 20
31.4101421267
 11
369.8621602445
 21
31.4746706537
 12
369.3418477445
 22
31.4101421267
 13
369.3418477445
 23
31.4101421267
  0
SOLID
  8
0
 62
7
  6
CONTINUOUS
 10
369.8621602445
 20
31.4746706537
 11
370.0355977445
 21
31.4101421267
 12
369.3418477445
 22
31.4101421267
 13
369.3418477445
 23
31.4101421267
  0
SOLID
  8
0
 62
7
  6
CONTINUOUS
 10
369.6887227445
 20
31.3778792603
 11
369.3418477445
 21
31.4101421267
 12
370.0355977445
 22
31.4101421267
 13
370.0355977445
 23
31.4101421267
  0
SOLID
  8
0
 62
7
  6
CONTINUOUS
 10
368.3012227445
 20
31.3456148845
 11
368.4168479651
 21
31.4424063504
 12
368.9949727445
 22
31.4101421267
 13
368.9949727445
 23
31.4101421267
  0
SOLID
  8
0
 62
7
  6
CONTINUOUS
 10
369.6887227445
 20
31.3778792603
 11
370.0355977445
 21
31.4101421267
 12
369.8043479651
 22
31.3456148845
 13
369.8043479651
 23
31.3456148845
  0
SOLID
  8
0
 62
7
  6
CONTINUOUS
 10
369.8043479651
 20
31.3456148845
 11
370.0355977445
 21
31.4101421267
 12
369.8621602445
 22
31.281087868
 13
369.8621602445
 23
31.281087868
  0
SOLID
  8
0
 62
7
  6
CONTINUOUS
 10
370.0355977445
 20
31.4101421267
 11
370.1512223035
 21
31.281087868
 12
369.8621602445
 22
31.281087868
 13
369.8621602445
 23
31.281087868
  0
SOLID
  8
0
 62
7
  6
CONTINUOUS
 10
359.4559102445
 20
31.3778792603
 11
358.9355977445
 21
31.3456148963
 12
359.6871602721
 22
31.4101421155
 13
359.6871602721
 23
31.4101421155
  0
SOLID
  8
0
 62
7
  6
CONTINUOUS
 10
358.9355977445
 20
31.3456148963
 11
359.0512227376
 21
31.4101421155
 12
359.6871602721
 22
31.4101421155
 13
359.6871602721
 23
31.4101421155
  0
SOLID
  8
0
 62
7
  6
CONTINUOUS
 10
359.4559102445
 20
31.3778792603
 11
359.3402852307
 21
31.3456148963
 12
358.9355977445
 22
31.3456148963
 13
358.9355977445
 23
31.3456148963
  0
SOLID
  8
0
 62
7
  6
CONTINUOUS
 10
358.8199727462
 20
31.2165607767
 11
358.9355977445
 21
31.3456148963
 12
359.3402852307
 22
31.3456148963
 13
359.3402852307
 23
31.3456148963
  0
SOLID
  8
0
 62
7
  6
CONTINUOUS
 10
363.1559103548
 20
31.3456149608
 11
363.8496603548
 21
31.4101420472
 12
363.6184102445
 22
31.3778792603
 13
363.6184102445
 23
31.3778792603
  0
SOLID
  8
0
 62
7
  6
CONTINUOUS
 10
363.6184102445
 20
31.3778792603
 11
363.5027853548
 21
31.3456149608
 12
363.1559103548
 22
31.3456149608
 13
363.1559103548
 23
31.3456149608
  0
SOLID
  8
0
 62
7
  6
CONTINUOUS
 10
363.1559103548
 20
31.2810878707
 11
363.1559103548
 21
31.3456149608
 12
363.5027853548
 22
31.3456149608
 13
363.5027853548
 23
31.3456149608
  0
SOLID
  8
0
 62
7
  6
CONTINUOUS
 10
363.5027853548
 20
31.3456149608
 11
363.4449727445
 21
31.2810878707
 12
363.1559103548
 22
31.2810878707
 13
363.1559103548
 23
31.2810878707
  0
SOLID
  8
0
 62
7
  6
CONTINUOUS
 10
368.3012227445
 20
31.3456149608
 11
368.9949727445
 21
31.4101420472
 12
368.7637229651
 22
31.3778792603
 13
368.7637229651
 23
31.3778792603
  0
SOLID
  8
0
 62
7
  6
CONTINUOUS
 10
368.7637229651
 20
31.3778792603
 11
368.6480977445
 21
31.3456149608
 12
368.3012227445
 22
31.3456149608
 13
368.3012227445
 23
31.3456149608
  0
SOLID
  8
0
 62
7
  6
CONTINUOUS
 10
368.3012227445
 20
31.2810878707
 11
368.3012227445
 21
31.3456149608
 12
368.6480977445
 22
31.3456149608
 13
368.6480977445
 23
31.3456149608
  0
SOLID
  8
0
 62
7
  6
CONTINUOUS
 10
368.6480977445
 20
31.3456149608
 11
368.5902854651
 21
31.2810878707
 12
368.3012227445
 22
31.2810878707
 13
368.3012227445
 23
31.2810878707
  0
SOLID
  8
0
 62
7
  6
CONTINUOUS
 10
368.4168479651
 20
31.1520336865
 11
368.3012227445
 21
31.2810878707
 12
368.5902854651
 22
31.2810878707
 13
368.5902854651
 23
31.2810878707
  0
SOLID
  8
0
 62
7
  6
CONTINUOUS
 10
358.8199727462
 20
31.2165607767
 11
359.3402852307
 21
31.345614957
 12
359.1668477307
 22
31.2488235635
 13
359.1668477307
 23
31.2488235635
  0
SOLID
  8
0
 62
7
  6
CONTINUOUS
 10
359.1668477307
 20
31.2488235635
 11
359.1090352445
 21
31.1842964734
 12
358.8199727462
 22
31.2165607767
 13
358.8199727462
 23
31.2165607767
  0
SOLID
  8
0
 62
7
  6
CONTINUOUS
 10
358.7621602445
 20
31.0229779898
 11
358.8199727462
 21
31.2165607767
 12
359.1090352445
 22
31.1842964734
 13
359.1090352445
 23
31.1842964734
  0
SOLID
  8
0
 62
7
  6
CONTINUOUS
 10
363.6184102445
 20
31.1520336865
 11
363.9652852445
 21
31.1842964611
 12
364.6012229651
 22
31.1842964611
 13
364.6012229651
 23
31.1842964611
  0
SOLID
  8
0
 62
7
  6
CONTINUOUS
 10
363.6184102445
 20
31.1520336865
 11
364.6012229651
 21
31.1842964611
 12
363.3871601343
 22
31.0875057863
 13
363.3871601343
 23
31.0875057863
  0
SOLID
  8
0
 62
7
  6
CONTINUOUS
 10
363.3871601343
 20
31.0875057863
 11
364.6012229651
 21
31.1842964611
 12
363.9652852445
 22
31.0552422808
 13
363.9652852445
 23
31.0552422808
  0
SOLID
  8
0
 62
7
  6
CONTINUOUS
 10
364.6012229651
 20
31.1842964611
 11
364.6012229651
 21
31.0552422808
 12
363.9652852445
 22
31.0552422808
 13
363.9652852445
 23
31.0552422808
  0
SOLID
  8
0
 62
7
  6
CONTINUOUS
 10
368.4168479651
 20
31.1520338754
 11
368.5902854651
 21
31.2810878668
 12
368.6480977445
 22
31.2165607767
 13
368.6480977445
 23
31.2165607767
  0
SOLID
  8
0
 62
7
  6
CONTINUOUS
 10
368.6480977445
 20
31.2165607767
 11
368.8215352445
 21
31.1520338754
 12
368.4168479651
 22
31.1520338754
 13
368.4168479651
 23
31.1520338754
  0
SOLID
  8
0
 62
7
  6
CONTINUOUS
 10
368.6480977445
 20
31.0552422931
 11
368.4168479651
 21
31.1520338754
 12
368.8215352445
 22
31.1520338754
 13
368.8215352445
 23
31.1520338754
  0
SOLID
  8
0
 62
7
  6
CONTINUOUS
 10
368.8215352445
 20
31.1520338754
 11
369.8043479651
 21
30.9907152029
 12
368.6480977445
 22
31.0552422931
 13
368.6480977445
 23
31.0552422931
  0
SOLID
  8
0
 62
7
  6
CONTINUOUS
 10
369.6309104651
 20
30.8939239876
 11
368.6480977445
 21
31.0552422931
 12
369.8043479651
 22
30.9907152029
 13
369.8043479651
 23
30.9907152029
  0
SOLID
  8
0
 62
7
  6
CONTINUOUS
 10
369.8043479651
 20
30.9907152029
 11
370.0355977445
 21
30.8939239876
 12
369.6309104651
 22
30.8939239876
 13
369.6309104651
 23
30.8939239876
  0
SOLID
  8
0
 62
7
  6
CONTINUOUS
 10
369.8043479651
 20
30.8293967193
 11
369.6309104651
 21
30.8939239876
 12
370.0355977445
 22
30.8939239876
 13
370.0355977445
 23
30.8939239876
  0
SOLID
  8
0
 62
7
  6
CONTINUOUS
 10
369.8043479651
 20
30.8293967193
 11
370.0355977445
 21
30.8939239876
 12
369.8621602445
 22
30.7648682694
 13
369.8621602445
 23
30.7648682694
  0
SOLID
  8
0
 62
7
  6
CONTINUOUS
 10
370.0355977445
 20
30.8939239876
 11
370.1512223035
 21
30.7648682694
 12
369.8621602445
 22
30.7648682694
 13
369.8621602445
 23
30.7648682694
  0
SOLID
  8
0
 62
7
  6
CONTINUOUS
 10
369.8043479651
 20
30.7003411846
 11
369.8621602445
 21
30.7648682694
 12
370.1512223035
 22
30.7648682694
 13
370.1512223035
 23
30.7648682694
  0
SOLID
  8
0
 62
7
  6
CONTINUOUS
 10
370.1512223035
 20
30.7648682694
 11
370.1512223035
 21
30.7003411846
 12
369.8043479651
 22
30.7003411846
 13
369.8043479651
 23
30.7003411846
  0
SOLID
  8
0
 62
7
  6
CONTINUOUS
 10
369.6887227445
 20
30.6680782357
 11
369.8043479651
 21
30.7003411846
 12
370.1512223035
 22
30.7003411846
 13
370.1512223035
 23
30.7003411846
  0
SOLID
  8
0
 62
7
  6
CONTINUOUS
 10
369.6887227445
 20
30.6680782357
 11
370.1512223035
 21
30.7003411846
 12
369.4574729651
 22
30.6358140998
 13
369.4574729651
 23
30.6358140998
  0
SOLID
  8
0
 62
7
  6
CONTINUOUS
 10
370.1512223035
 20
30.7003411846
 11
370.0355977445
 21
30.6035511455
 12
369.4574729651
 22
30.6358140998
 13
369.4574729651
 23
30.6358140998
  0
SOLID
  8
0
 62
7
  6
CONTINUOUS
 10
370.0355977445
 20
30.6035511455
 11
368.5902854651
 21
30.5712868422
 12
369.4574729651
 22
30.6358140998
 13
369.4574729651
 23
30.6358140998
  0
SOLID
  8
0
 62
7
  6
CONTINUOUS
 10
369.4574729651
 20
30.6358140998
 11
368.5902854651
 21
30.5712868422
 12
369.1105979651
 22
30.6358140998
 13
369.1105979651
 23
30.6358140998
  0
SOLID
  8
0
 62
7
  6
CONTINUOUS
 10
368.5902854651
 20
30.5712868422
 11
368.4168479651
 21
30.6358140998
 12
369.1105979651
 22
30.6358140998
 13
369.1105979651
 23
30.6358140998
  0
SOLID
  8
0
 62
7
  6
CONTINUOUS
 10
368.5902854651
 20
30.5712868422
 11
370.0355977445
 21
30.6035511455
 12
368.7637229651
 22
30.5390223111
 13
368.7637229651
 23
30.5390223111
  0
SOLID
  8
0
 62
7
  6
CONTINUOUS
 10
370.0355977445
 20
30.6035511455
 11
369.8043479651
 21
30.5390223111
 12
368.7637229651
 22
30.5390223111
 13
368.7637229651
 23
30.5390223111
  0
SOLID
  8
0
 62
7
  6
CONTINUOUS
 10
369.1105979651
 20
30.5067599302
 11
368.7637229651
 21
30.5390223111
 12
369.8043479651
 22
30.5390223111
 13
369.8043479651
 23
30.5390223111
  0
SOLID
  8
0
 62
7
  6
CONTINUOUS
 10
369.8043479651
 20
30.5390223111
 11
369.4574729651
 21
30.5067599302
 12
369.1105979651
 22
30.5067599302
 13
369.1105979651
 23
30.5067599302
  0
SOLID
  8
0
 62
7
  6
CONTINUOUS
 10
358.7621602445
 20
31.0229779898
 11
359.1090352445
 21
31.1842964734
 12
359.0512227376
 22
31.0552422931
 13
359.0512227376
 23
31.0552422931
  0
SOLID
  8
0
 62
7
  6
CONTINUOUS
 10
359.0512227376
 20
31.0552422931
 11
359.0512227376
 21
30.9584509954
 12
358.7621602445
 22
31.0229779898
 13
358.7621602445
 23
31.0229779898
  0
SOLID
  8
0
 62
7
  6
CONTINUOUS
 10
358.8199727462
 20
30.8293967193
 11
358.7621602445
 21
31.0229779898
 12
359.0512227376
 22
30.9584509954
 13
359.0512227376
 23
30.9584509954
  0
SOLID
  8
0
 62
7
  6
CONTINUOUS
 10
359.0512227376
 20
30.9584509954
 11
359.1668477307
 21
30.797132416
 12
358.8199727462
 22
30.8293967193
 13
358.8199727462
 23
30.8293967193
  0
SOLID
  8
0
 62
7
  6
CONTINUOUS
 10
358.9355977445
 20
30.7003413087
 11
358.8199727462
 21
30.8293967193
 12
359.1668477307
 22
30.797132416
 13
359.1668477307
 23
30.797132416
  0
SOLID
  8
0
 62
7
  6
CONTINUOUS
 10
359.1668477307
 20
30.797132416
 11
359.3402852307
 21
30.7003413087
 12
358.9355977445
 22
30.7003413087
 13
358.9355977445
 23
30.7003413087
  0
SOLID
  8
0
 62
7
  6
CONTINUOUS
 10
359.0512227376
 20
30.6358140759
 11
358.9355977445
 21
30.7003413087
 12
359.3402852307
 22
30.7003413087
 13
359.3402852307
 23
30.7003413087
  0
SOLID
  8
0
 62
7
  6
CONTINUOUS
 10
359.3402852307
 20
30.7003413087
 11
359.6871602721
 21
30.6358140759
 12
359.0512227376
 22
30.6358140759
 13
359.0512227376
 23
30.6358140759
  0
SOLID
  8
0
 62
7
  6
CONTINUOUS
 10
359.2246602583
 20
30.5712868422
 11
359.0512227376
 21
30.6358140759
 12
359.6871602721
 22
30.6358140759
 13
359.6871602721
 23
30.6358140759
  0
SOLID
  8
0
 62
7
  6
CONTINUOUS
 10
363.2715352445
 20
31.0229779808
 11
363.3871601343
 21
31.0875057863
 12
363.9652852445
 22
31.0552422931
 13
363.9652852445
 23
31.0552422931
  0
SOLID
  8
0
 62
7
  6
CONTINUOUS
 10
363.9652852445
 20
31.0552422931
 11
363.7340351343
 21
31.0229779808
 12
363.2715352445
 22
31.0229779808
 13
363.2715352445
 23
31.0229779808
  0
SOLID
  8
0
 62
7
  6
CONTINUOUS
 10
363.1559103548
 20
30.8939238094
 11
363.2715352445
 21
31.0229779808
 12
363.7340351343
 22
31.0229779808
 13
363.7340351343
 23
31.0229779808
  0
SOLID
  8
0
 62
7
  6
CONTINUOUS
 10
363.5027853548
 20
30.926187309
 11
363.1559103548
 21
30.8939238094
 12
363.6184102445
 22
30.9907152029
 13
363.6184102445
 23
30.9907152029
  0
SOLID
  8
0
 62
7
  6
CONTINUOUS
 10
363.1559103548
 20
30.8939238094
 11
363.7340351343
 21
31.0229779898
 12
363.6184102445
 22
30.9907152029
 13
363.6184102445
 23
30.9907152029
  0
SOLID
  8
0
 62
7
  6
CONTINUOUS
 10
363.5027853548
 20
30.926187309
 11
363.4449727445
 21
30.8293967193
 12
363.1559103548
 22
30.8939238094
 13
363.1559103548
 23
30.8939238094
  0
SOLID
  8
0
 62
7
  6
CONTINUOUS
 10
363.1559103548
 20
30.797132416
 11
363.1559103548
 21
30.8939238094
 12
363.4449727445
 22
30.8293967193
 13
363.4449727445
 23
30.8293967193
  0
SOLID
  8
0
 62
7
  6
CONTINUOUS
 10
363.4449727445
 20
30.8293967193
 11
363.4449727445
 21
30.7648681127
 12
363.1559103548
 22
30.797132416
 13
363.1559103548
 23
30.797132416
  0
SOLID
  8
0
 62
7
  6
CONTINUOUS
 10
363.2137226343
 20
30.6680782357
 11
363.1559103548
 21
30.797132416
 12
363.4449727445
 22
30.7648681127
 13
363.4449727445
 23
30.7648681127
  0
SOLID
  8
0
 62
7
  6
CONTINUOUS
 10
364.6012229651
 20
30.8616599362
 11
364.890285024
 21
30.7648681127
 12
364.543410024
 22
30.797132416
 13
364.543410024
 23
30.797132416
  0
SOLID
  8
0
 62
7
  6
CONTINUOUS
 10
364.369972524
 20
30.7003410226
 11
364.543410024
 21
30.797132416
 12
364.890285024
 22
30.7648681127
 13
364.890285024
 23
30.7648681127
  0
SOLID
  8
0
 62
7
  6
CONTINUOUS
 10
364.369972524
 20
30.7003410226
 11
364.890285024
 21
30.7648681127
 12
364.6012229651
 22
30.6680782357
 13
364.6012229651
 23
30.6680782357
  0
SOLID
  8
0
 62
7
  6
CONTINUOUS
 10
364.890285024
 20
30.7648681127
 11
364.9480979651
 21
30.6035511455
 12
364.6012229651
 22
30.6680782357
 13
364.6012229651
 23
30.6680782357
  0
SOLID
  8
0
 62
7
  6
CONTINUOUS
 10
364.6590352445
 20
30.5712868422
 11
364.6012229651
 21
30.6680782357
 12
364.9480979651
 22
30.6035511455
 13
364.9480979651
 23
30.6035511455
  0
SOLID
  8
0
 62
7
  6
CONTINUOUS
 10
364.6590352445
 20
30.5712868422
 11
364.9480979651
 21
30.6035511455
 12
364.716847524
 22
30.5067598731
 13
364.716847524
 23
30.5067598731
  0
SOLID
  8
0
 62
7
  6
CONTINUOUS
 10
364.9480979651
 20
30.6035511455
 11
365.0059102445
 21
30.5067598731
 12
364.716847524
 22
30.5067598731
 13
364.716847524
 23
30.5067598731
  0
SOLID
  8
0
 62
7
  6
CONTINUOUS
 10
360.2652852997
 20
30.7326051679
 11
360.3230977445
 21
30.8293966612
 12
360.6121602997
 22
30.8293966612
 13
360.6121602997
 23
30.8293966612
  0
SOLID
  8
0
 62
7
  6
CONTINUOUS
 10
360.6121602997
 20
30.8293966612
 11
360.5543476894
 21
30.7003410226
 12
360.2652852997
 22
30.7326051679
 13
360.2652852997
 23
30.7326051679
  0
SOLID
  8
0
 62
7
  6
CONTINUOUS
 10
360.091847717
 20
30.6680782357
 11
360.2652852997
 21
30.7326051679
 12
360.5543476894
 22
30.7003410226
 13
360.5543476894
 23
30.7003410226
  0
SOLID
  8
0
 62
7
  6
CONTINUOUS
 10
360.091847717
 20
30.6680782357
 11
360.5543476894
 21
30.7003410226
 12
359.6871602721
 22
30.6358139324
 13
359.6871602721
 23
30.6358139324
  0
SOLID
  8
0
 62
7
  6
CONTINUOUS
 10
360.5543476894
 20
30.7003410226
 11
360.3809101894
 21
30.6035511455
 12
359.6871602721
 22
30.6358139324
 13
359.6871602721
 23
30.6358139324
  0
SOLID
  8
0
 62
7
  6
CONTINUOUS
 10
359.2246602583
 20
30.5712868422
 11
359.6871602721
 21
30.6358139324
 12
360.3809101894
 22
30.6035511455
 13
360.3809101894
 23
30.6035511455
  0
SOLID
  8
0
 62
7
  6
CONTINUOUS
 10
359.2246602583
 20
30.5712868422
 11
360.3809101894
 21
30.6035511455
 12
359.3980977583
 22
30.5390224228
 13
359.3980977583
 23
30.5390224228
  0
SOLID
  8
0
 62
7
  6
CONTINUOUS
 10
360.3809101894
 20
30.6035511455
 11
360.1496602445
 21
30.5390224228
 12
359.3980977583
 22
30.5390224228
 13
359.3980977583
 23
30.5390224228
  0
SOLID
  8
0
 62
7
  6
CONTINUOUS
 10
359.744972717
 20
30.5067597521
 11
359.3980977583
 21
30.5390224228
 12
360.1496602445
 22
30.5390224228
 13
360.1496602445
 23
30.5390224228
  0
SOLID
  8
0
 62
7
  6
CONTINUOUS
 10
363.2137226343
 20
30.6680782357
 11
363.4449727445
 21
30.7648681127
 12
363.5027853548
 22
30.7003410226
 13
363.5027853548
 23
30.7003410226
  0
SOLID
  8
0
 62
7
  6
CONTINUOUS
 10
363.5027853548
 20
30.7003410226
 11
363.7340351343
 21
30.6358139324
 12
363.2137226343
 22
30.6680782357
 13
363.2137226343
 23
30.6680782357
  0
SOLID
  8
0
 62
7
  6
CONTINUOUS
 10
363.3871601343
 20
30.5712868422
 11
363.2137226343
 21
30.6680782357
 12
363.7340351343
 22
30.6358139324
 13
363.7340351343
 23
30.6358139324
  0
SOLID
  8
0
 62
7
  6
CONTINUOUS
 10
364.0809101343
 20
30.6358139363
 11
364.369972524
 21
30.7003410226
 12
364.6012229651
 22
30.6680782357
 13
364.6012229651
 23
30.6680782357
  0
SOLID
  8
0
 62
7
  6
CONTINUOUS
 10
364.6012229651
 20
30.6680782357
 11
364.543410024
 21
30.6035511455
 12
364.0809101343
 22
30.6358139363
 13
364.0809101343
 23
30.6358139363
  0
SOLID
  8
0
 62
7
  6
CONTINUOUS
 10
364.543410024
 20
30.6035511455
 11
363.3871601343
 21
30.5712868422
 12
364.0809101343
 22
30.6358139363
 13
364.0809101343
 23
30.6358139363
  0
SOLID
  8
0
 62
7
  6
CONTINUOUS
 10
363.3871601343
 20
30.5712868422
 11
363.7340351343
 21
30.6358139363
 12
364.0809101343
 22
30.6358139363
 13
364.0809101343
 23
30.6358139363
  0
SOLID
  8
0
 62
7
  6
CONTINUOUS
 10
363.3871601343
 20
30.5712868422
 11
364.543410024
 21
30.6035511455
 12
363.5027853548
 22
30.5390225267
 13
363.5027853548
 23
30.5390225267
  0
SOLID
  8
0
 62
7
  6
CONTINUOUS
 10
364.543410024
 20
30.6035511455
 11
364.369972524
 21
30.5390225267
 12
363.5027853548
 22
30.5390225267
 13
363.5027853548
 23
30.5390225267
  0
SOLID
  8
0
 62
7
  6
CONTINUOUS
 10
363.7340351343
 20
30.5067596914
 11
363.5027853548
 21
30.5390225267
 12
364.369972524
 22
30.5390225267
 13
364.369972524
 23
30.5390225267
  0
SOLID
  8
0
 62
7
  6
CONTINUOUS
 10
364.369972524
 20
30.5390225267
 11
364.0809101343
 21
30.5067596914
 12
363.7340351343
 22
30.5067596914
 13
363.7340351343
 23
30.5067596914
  0
SOLID
  8
0
 62
7
  6
CONTINUOUS
 10
368.7637229651
 20
30.6680782357
 11
368.4168479651
 21
30.6358138717
 12
368.6480977445
 22
30.7003410226
 13
368.6480977445
 23
30.7003410226
  0
SOLID
  8
0
 62
7
  6
CONTINUOUS
 10
368.6480977445
 20
30.7003410226
 11
368.4168479651
 21
30.6358138717
 12
368.5902854651
 22
30.7648680521
 13
368.5902854651
 23
30.7648680521
  0
SOLID
  8
0
 62
7
  6
CONTINUOUS
 10
368.4168479651
 20
30.6358138717
 11
368.3012227445
 21
30.7648680521
 12
368.5902854651
 22
30.7648680521
 13
368.5902854651
 23
30.7648680521
  0
SOLID
  8
0
 62
7
  6
CONTINUOUS
 10
368.7637229651
 20
30.6680782357
 11
369.1105979651
 21
30.6358138717
 12
368.4168479651
 22
30.6358138717
 13
368.4168479651
 23
30.6358138717
  0
SOLID
  8
0
 62
7
  6
CONTINUOUS
 10
365.4684104651
 20
30.5067597521
 11
365.4684104651
 21
31.5391977439
 12
365.757472524
 22
30.5067597521
 13
365.757472524
 23
31.5391977439
  0
ENDBLK
  8
0
  6
BYBLOCK
 62
0
  0
BLOCK
  8
0
 62
2
  6
CONTINUOUS
  2
SYMBOL_0_BL0
 70
64
 10
240.8592468615
 20
19.762288695
  0
TEXT
  8
0
 62
7
  6
CONTINUOUS
 10
227.1239507038
 20
19.1357028027
  7
TEXTSTYLE_3
 40
2.7338706658
  1
Ammeraal Beltech
 41
1.0
 51
15.0
 72
0
  0
TEXT
  8
0
 62
7
  6
CONTINUOUS
 10
237.9247515296
 20
16.8621661299
  7
TEXTSTYLE_4
 40
1.0935482663
  1
Innovation & Service in Belting
 41
1.0
 72
0
  0
LINE
  8
0
 62
7
  6
CONTINUOUS
 10
221.0994100525
 20
19.9022961113
 11
221.8775620458
 21
23.5632134089
  0
LINE
  8
0
 62
7
  6
CONTINUOUS
 10
231.9727303357
 20
27.2266073205
 11
222.3653797889
 21
24.1049898993
  0
LINE
  8
0
 62
7
  6
CONTINUOUS
 10
221.3246933848
 20
19.2089453082
 11
228.8317686459
 21
12.4495443822
  0
LINE
  8
0
 62
7
  6
CONTINUOUS
 10
221.5872277955
 20
20.4440726016
 11
232.3954971607
 21
23.9558922005
  0
LINE
  8
0
 62
7
  6
CONTINUOUS
 10
232.3912920235
 20
13.6061036368
 11
223.9458323548
 21
21.2104296785
  0
LINE
  8
0
 62
7
  6
CONTINUOUS
 10
232.9111147433
 20
26.3816822048
 11
231.9345552061
 21
21.7873308023
  0
LINE
  8
0
 62
7
  6
CONTINUOUS
 10
231.2347532584
 20
18.4950214885
 11
230.5483050469
 21
15.2655365641
  0
LINE
  8
0
 62
7
  6
CONTINUOUS
 10
233.5922108419
 20
13.9963058145
 11
234.5484423775
 21
18.4950214885
  0
LINE
  8
0
 62
7
  6
CONTINUOUS
 10
235.2482443252
 20
21.7873308023
 11
235.6924861276
 21
23.8773241617
  0
LINE
  8
0
 62
7
  6
CONTINUOUS
 10
229.5448697213
 20
12.2979700695
 11
233.1043930989
 21
13.4545293241
  0
LINE
  8
0
 62
7
  6
CONTINUOUS
 10
232.685831411
 20
27.0750330078
 11
235.4672027953
 21
24.5706749648
  0
ARC
  8
0
 62
7
  6
CONTINUOUS
 10
222.5906631212
 20
23.4116390962
 40
0.7290321776
 50
108.0
 51
168.0
  0
ARC
  8
0
 62
7
  6
CONTINUOUS
 10
232.198013668
 20
26.5332565175
 40
0.7290321776
 50
348.0
 51
108.0
  0
ARC
  8
0
 62
7
  6
CONTINUOUS
 10
234.9793850522
 20
24.0288984744
 40
0.7290321776
 50
348.0
 51
48.0
  0
ARC
  8
0
 62
7
  6
CONTINUOUS
 10
229.319586389
 20
12.9913208726
 40
0.7290321776
 50
228.0
 51
288.0
  0
ARC
  8
0
 62
7
  6
CONTINUOUS
 10
221.8125111278
 20
19.7507217986
 40
0.7290321776
 50
108.0
 51
228.0
  0
ARC
  8
0
 62
7
  6
CONTINUOUS
 10
232.8791097665
 20
14.1478801272
 40
0.7290321776
 50
228.0
 51
348.0
  0
ENDBLK
  8
0
  6
BYBLOCK
 62
0
  0
ENDSEC
  0
SECTION
  2
ENTITIES
  0
TEXT
  8
0
 62
5
  6
CONTINUOUS
 10
304.937007874
 20
25.636
  7
TEXTSTYLE_2
 40
2.8
  1
Scale :
 41
0.6
 51
0.000019
 72
0
  0
TEXT
  8
0
 62
5
  6
CONTINUOUS
 10
324.937007874
 20
25.636
  7
TEXTSTYLE_2
 40
2.8
  1
Belt type:
 41
0.6
 51
0.000019
 72
0
  0
INSERT
  8
0
 62
2
  6
CONTINUOUS
  2
SYMBOL_0_BL0
 10
240.8592468615
 20
19.762288695
  0
INSERT
  8
0
 62
2
  6
CONTINUOUS
  2
SYMBOL_5_BL1
 10
382.7840918555
 20
35.5067593403
  0
LINE
  8
0
 62
2
  6
CONTINUOUS
 10
218.937007874
 20
30.0
 11
408.937007874
 21
30.0
  0
LINE
  8
0
 62
2
  6
CONTINUOUS
 10
218.937007874
 20
30.0
 11
218.937007874
 21
10.0
  0
LINE
  8
0
 62
2
  6
CONTINUOUS
 10
218.937007874
 20
10.0
 11
408.937007874
 21
10.0
  0
LINE
  8
0
 62
2
  6
CONTINUOUS
 10
303.937007874
 20
30.0
 11
303.937007874
 21
10.0
  0
LINE
  8
0
 62
2
  6
CONTINUOUS
 10
323.937007874
 20
30.0
 11
323.937007874
 21
10.0
  0
LINE
  8
0
 62
2
  6
CONTINUOUS
 10
408.937007874
 20
30.0
 11
408.937007874
 21
10.0
  0
TEXT
  8
0
 62
5
  6
CONTINUOUS
 10
221.937007874
 20
23.303
  7
TEXTSTYLE_5
 40
1.52
  1
                                                                     Ammeraal Beltech Modular A/S
 41
1.0
 72
0
  0
TEXT
  8
0
 62
5
  6
CONTINUOUS
 10
221.937007874
 20
20.595
  7
TEXTSTYLE_5
 40
1.5
  1
                                                                      Hjulmagervej 21, 7100 Vejle,  DK
 41
1.0
 72
0
  0
TEXT
  8
0
 62
5
  6
CONTINUOUS
 10
221.937007874
 20
17.881
  7
TEXTSTYLE_5
 40
1.495
  1
                                                                      tel: 
 41
1.0
 72
0
  0
TEXT
  8
0
 62
5
  6
CONTINUOUS
 10
266.9239544389
 20
17.881
  7
TEXTSTYLE_5
 40
1.51
  1
+45 75723100     fax: +45 75723348
 41
1.0
 72
0
  0
TEXT
  8
0
 62
5
  6
CONTINUOUS
 10
221.937007874
 20
15.177
  7
TEXTSTYLE_5
 40
1.5
  1
                                                                      admin@unichains.dk  www.unichains.com
 41
1.0
 72
0
  0
TEXT
  8
0
 62
5
  6
CONTINUOUS
 10
308.687007874
 20
13.75
  7
TEXTSTYLE_6
 40
5.0
  1
1:1
 41
0.7
 72
1
 11
313.937007874
 21
13.75
  0
TEXT
  8
0
 62
5
  6
CONTINUOUS
 10
326.937007874
 20
13.75
  7
TEXTSTYLE_7
 40
7.5
  1
uni XLB M2-00-K800
 41
0.590625
 72
0
  0
LINE
  8
0
 62
7
  6
CONTINUOUS
 10
0.0
 20
0.0
 11
0.0
 21
297.0
  0
LINE
  8
0
 62
7
  6
CONTINUOUS
 10
8.937007874
 20
10.0
 11
8.937007874
 21
287.0
  0
LINE
  8
0
 62
7
  6
CONTINUOUS
 10
0.0
 20
0.0
 11
420.0
 21
0.0
  0
LINE
  8
0
 62
7
  6
CONTINUOUS
 10
408.937007874
 20
10.0
 11
8.937007874
 21
10.0
  0
LINE
  8
0
 62
7
  6
CONTINUOUS
 10
218.937007874
 20
30.0
 11
408.937007874
 21
30.0
  0
LINE
  8
0
 62
7
  6
CONTINUOUS
 10
210.0
 20
297.0
 11
210.0
 21
292.0
  0
LINE
  8
0
 62
7
  6
CONTINUOUS
 10
210.0
 20
0.0
 11
210.0
 21
5.0
  0
LINE
  8
0
 62
7
  6
CONTINUOUS
 10
8.937007874
 20
287.0
 11
408.937007874
 21
287.0
  0
LINE
  8
0
 62
7
  6
CONTINUOUS
 10
0.0
 20
297.0
 11
420.0
 21
297.0
  0
LINE
  8
0
 62
7
  6
CONTINUOUS
 10
408.937007874
 20
287.0
 11
408.937007874
 21
10.0
  0
LINE
  8
0
 62
7
  6
CONTINUOUS
 10
420.0
 20
0.0
 11
420.0
 21
297.0
  0
LINE
  8
0
 62
7
  6
CONTINUOUS
 10
49.315052356
 20
90.4287345186
 11
49.315052356
 21
154.6132577587
  0
POLYLINE
  8
0
 62
7
  6
CONTINUOUS
 66
1
 70
0
  0
VERTEX
  8
0
 62
7
  6
CONTINUOUS
 10
49.315052356
 20
154.6132559826
  0
VERTEX
  8
0
 62
7
  6
CONTINUOUS
 10
49.3196811782
 20
154.7422611525
  0
VERTEX
  8
0
 62
7
  6
CONTINUOUS
 10
49.3329638416
 20
154.8665552655
  0
VERTEX
  8
0
 62
7
  6
CONTINUOUS
 10
49.35515643
 20
154.9911003017
  0
VERTEX
  8
0
 62
7
  6
CONTINUOUS
 10
49.3850300957
 20
155.1102700454
  0
VERTEX
  8
0
 62
7
  6
CONTINUOUS
 10
49.4240862737
 20
155.2302111741
  0
VERTEX
  8
0
 62
7
  6
CONTINUOUS
 10
49.4708578557
 20
155.3458025308
  0
VERTEX
  8
0
 62
7
  6
CONTINUOUS
 10
49.5265256869
 20
155.4597682516
  0
VERTEX
  8
0
 62
7
  6
CONTINUOUS
 10
49.5893290221
 20
155.5683310101
  0
VERTEX
  8
0
 62
7
  6
CONTINUOUS
 10
49.6618781584
 20
155.6754634724
  0
VERTEX
  8
0
 62
7
  6
CONTINUOUS
 10
49.7399785144
 20
155.7747945872
  0
VERTEX
  8
0
 62
7
  6
CONTINUOUS
 10
49.8279740826
 20
155.8715999412
  0
VERTEX
  8
0
 62
7
  6
CONTINUOUS
 10
49.9217874463
 20
155.9608905233
  0
VERTEX
  8
0
 62
7
  6
CONTINUOUS
 10
50.0233014533
 20
156.044367427
  0
VERTEX
  8
0
 62
7
  6
CONTINUOUS
 10
50.1321411161
 20
156.1211967952
  0
VERTEX
  8
0
 62
7
  6
CONTINUOUS
 10
50.2470432351
 20
156.1901390366
  0
VERTEX
  8
0
 62
7
  6
CONTINUOUS
 10
50.3669838758
 20
156.2504467317
  0
VERTEX
  8
0
 62
7
  6
CONTINUOUS
 10
50.4948081875
 20
156.3030184427
  0
VERTEX
  8
0
 62
7
  6
CONTINUOUS
 10
50.6236289824
 20
156.3448746092
  0
VERTEX
  8
0
 62
7
  6
CONTINUOUS
 10
50.7610741545
 20
156.3781070904
  0
VERTEX
  8
0
 62
7
  6
CONTINUOUS
 10
50.896415808
 20
156.3999283252
  0
VERTEX
  8
0
 62
7
  6
CONTINUOUS
 10
51.0395946395
 20
156.4116736574
  0
VERTEX
  8
0
 62
7
  6
CONTINUOUS
 10
51.115052356
 20
156.4132559819
  0
SEQEND
  0
LINE
  8
0
 62
7
  6
CONTINUOUS
 10
65.6488520508
 20
102.5148313225
 11
65.6492627759
 21
110.1347686578
  0
LINE
  8
0
 62
7
  6
CONTINUOUS
 10
66.1312389607
 20
168.2416926907
 11
66.1308292591
 21
160.6227459072
  0
LINE
  8
0
 62
7
  6
CONTINUOUS
 10
65.6477137826
 20
101.4708793782
 11
65.6488520508
 21
102.5148313225
  0
LINE
  8
0
 62
7
  6
CONTINUOUS
 10
66.1323759642
 20
169.2858591476
 11
66.1312389607
 21
168.2416926907
  0
LINE
  8
0
 62
7
  6
CONTINUOUS
 10
65.6449664673
 20
100.0565727984
 11
65.6477137826
 21
101.4708793782
  0
LINE
  8
0
 62
7
  6
CONTINUOUS
 10
66.1351210191
 20
170.700437287
 11
66.1323759642
 21
169.2858591476
  0
LINE
  8
0
 62
7
  6
CONTINUOUS
 10
65.641318834
 20
98.8105714071
 11
65.6449664673
 21
100.0565727984
  0
LINE
  8
0
 62
7
  6
CONTINUOUS
 10
66.1387662993
 20
171.9467314092
 11
66.1351210191
 21
170.700437287
  0
LINE
  8
0
 62
7
  6
CONTINUOUS
 10
65.6354966506
 20
97.3693614462
 11
65.641318834
 21
98.8105714071
  0
LINE
  8
0
 62
7
  6
CONTINUOUS
 10
66.1445854534
 20
173.3883306601
 11
66.1387662993
 21
171.9467314092
  0
LINE
  8
0
 62
7
  6
CONTINUOUS
 10
65.6289632683
 20
96.1428415131
 11
65.6354966506
 21
97.3693614462
  0
LINE
  8
0
 62
7
  6
CONTINUOUS
 10
66.1511153667
 20
174.6150923782
 11
66.1445854534
 21
173.3883306601
  0
LINE
  8
0
 62
7
  6
CONTINUOUS
 10
66.1595519678
 20
175.8567415101
 11
66.1511153667
 21
174.6150923782
  0
LINE
  8
0
 62
7
  6
CONTINUOUS
 10
65.6205211277
 20
94.9012459312
 11
65.6289632683
 21
96.1428415131
  0
LINE
  8
0
 62
7
  6
CONTINUOUS
 10
66.1696170479
 20
177.0160308531
 11
66.1595519678
 21
175.8567415101
  0
LINE
  8
0
 62
7
  6
CONTINUOUS
 10
65.6104494032
 20
93.74198275
 11
65.6205211277
 21
94.9012459312
  0
POLYLINE
  8
0
 62
7
  6
CONTINUOUS
 66
1
 70
0
  0
VERTEX
  8
0
 62
7
  6
CONTINUOUS
 10
66.130829369
 20
160.6227459072
  0
VERTEX
  8
0
 62
7
  6
CONTINUOUS
 10
66.1268666744
 20
160.2866835026
  0
VERTEX
  8
0
 62
7
  6
CONTINUOUS
 10
66.1142789766
 20
159.9526354021
  0
VERTEX
  8
0
 62
7
  6
CONTINUOUS
 10
66.0930836666
 20
159.6344805475
  0
VERTEX
  8
0
 62
7
  6
CONTINUOUS
 10
66.0633661721
 20
159.3316142957
  0
VERTEX
  8
0
 62
7
  6
CONTINUOUS
 10
66.0252180473
 20
159.0433082792
  0
VERTEX
  8
0
 62
7
  6
CONTINUOUS
 10
65.9787373654
 20
158.7689786475
  0
VERTEX
  8
0
 62
7
  6
CONTINUOUS
 10
65.9240316918
 20
158.50822477
  0
VERTEX
  8
0
 62
7
  6
CONTINUOUS
 10
65.8611722657
 20
158.2606387779
  0
VERTEX
  8
0
 62
7
  6
CONTINUOUS
 10
65.7902295499
 20
158.0260186882
  0
VERTEX
  8
0
 62
7
  6
CONTINUOUS
 10
65.7113413334
 20
157.8045068342
  0
VERTEX
  8
0
 62
7
  6
CONTINUOUS
 10
65.6244916049
 20
157.5959551442
  0
VERTEX
  8
0
 62
7
  6
CONTINUOUS
 10
65.5294682968
 20
157.4001223782
  0
VERTEX
  8
0
 62
7
  6
CONTINUOUS
 10
65.4323228389
 20
157.227528639
  0
SEQEND
  0
LINE
  8
0
 62
7
  6
CONTINUOUS
 10
66.1796690411
 20
177.9299750862
 11
66.1696170479
 21
177.0160308531
  0
LINE
  8
0
 62
7
  6
CONTINUOUS
 10
65.6003913518
 20
92.8280842128
 11
65.6104494032
 21
93.74198275
  0
POLYLINE
  8
0
 62
7
  6
CONTINUOUS
 66
1
 70
0
  0
VERTEX
  8
0
 62
7
  6
CONTINUOUS
 10
65.6492626925
 20
110.1347686578
  0
VERTEX
  8
0
 62
7
  6
CONTINUOUS
 10
65.6553011869
 20
110.5472735555
  0
VERTEX
  8
0
 62
7
  6
CONTINUOUS
 10
65.674754442
 20
110.9570696332
  0
VERTEX
  8
0
 62
7
  6
CONTINUOUS
 10
65.7081286621
 20
111.3480479715
  0
VERTEX
  8
0
 62
7
  6
CONTINUOUS
 10
65.7556546939
 20
111.7193682117
  0
VERTEX
  8
0
 62
7
  6
CONTINUOUS
 10
65.8173949602
 20
112.0705750427
  0
VERTEX
  8
0
 62
7
  6
CONTINUOUS
 10
65.890016327
 20
112.3885706781
  0
SEQEND
  0
LINE
  8
0
 62
7
  6
CONTINUOUS
 10
66.1912447206
 20
178.7552133912
 11
66.1796690411
 21
177.9299750862
  0
LINE
  8
0
 62
7
  6
CONTINUOUS
 10
65.5888087058
 20
92.0028470699
 11
65.6003913518
 21
92.8280842128
  0
LINE
  8
0
 62
7
  6
CONTINUOUS
 10
66.2023945504
 20
179.3644363388
 11
66.1912447206
 21
178.7552133912
  0
LINE
  8
0
 62
7
  6
CONTINUOUS
 10
65.5776519574
 20
91.3935706534
 11
65.5888087058
 21
92.0028470699
  0
LINE
  8
0
 62
7
  6
CONTINUOUS
 10
66.2099214326
 20
179.687287599
 11
66.2023945504
 21
179.3644363388
  0
LINE
  8
0
 62
7
  6
CONTINUOUS
 10
65.5701193115
 20
91.0706218476
 11
65.5776519574
 21
91.3935706534
  0
LINE
  8
0
 62
7
  6
CONTINUOUS
 10
66.2154095092
 20
179.8821002068
 11
66.2099214326
 21
179.687287599
  0
LINE
  8
0
 62
7
  6
CONTINUOUS
 10
65.5646254569
 20
90.8756889653
 11
65.5701193115
 21
91.0706218476
  0
LINE
  8
0
 62
7
  6
CONTINUOUS
 10
66.2204303275
 20
180.0324247923
 11
66.2154095092
 21
179.8821002068
  0
LINE
  8
0
 62
7
  6
CONTINUOUS
 10
65.5595999736
 20
90.7252881155
 11
65.5646254569
 21
90.8756889653
  0
LINE
  8
0
 62
7
  6
CONTINUOUS
 10
66.2240409588
 20
180.1250395025
 11
66.2204303275
 21
180.0324247923
  0
LINE
  8
0
 62
7
  6
CONTINUOUS
 10
65.5559866221
 20
90.6326391721
 11
65.5595999736
 21
90.7252881155
  0
LINE
  8
0
 62
7
  6
CONTINUOUS
 10
66.2276563156
 20
180.2056257817
 11
66.2240409588
 21
180.1250395025
  0
LINE
  8
0
 62
7
  6
CONTINUOUS
 10
65.552368639
 20
90.552020879
 11
65.5559866221
 21
90.6326391721
  0
LINE
  8
0
 62
7
  6
CONTINUOUS
 10
66.2301232815
 20
180.2540973105
 11
66.2276563156
 21
180.2056257817
  0
LINE
  8
0
 62
7
  6
CONTINUOUS
 10
65.5498999627
 20
90.5035291008
 11
65.552368639
 21
90.552020879
  0
LINE
  8
0
 62
7
  6
CONTINUOUS
 10
66.2326936429
 20
180.2994061094
 11
66.2301232815
 21
180.2540973105
  0
LINE
  8
0
 62
7
  6
CONTINUOUS
 10
65.5473279803
 20
90.4582019271
 11
65.5498999627
 21
90.5035291008
  0
POLYLINE
  8
0
 62
7
  6
CONTINUOUS
 66
1
 70
0
  0
VERTEX
  8
0
 62
7
  6
CONTINUOUS
 10
65.4323228899
 20
157.2275286081
  0
VERTEX
  8
0
 62
7
  6
CONTINUOUS
 10
65.3847855956
 20
157.1508497501
  0
VERTEX
  8
0
 62
7
  6
CONTINUOUS
 10
65.3266070634
 20
157.062122383
  0
VERTEX
  8
0
 62
7
  6
CONTINUOUS
 10
65.26849947
 20
156.979232148
  0
VERTEX
  8
0
 62
7
  6
CONTINUOUS
 10
65.2101268921
 20
156.9017820988
  0
VERTEX
  8
0
 62
7
  6
CONTINUOUS
 10
65.1511857841
 20
156.8295063098
  0
VERTEX
  8
0
 62
7
  6
CONTINUOUS
 10
65.091451188
 20
156.7623179749
  0
VERTEX
  8
0
 62
7
  6
CONTINUOUS
 10
65.0307558403
 20
156.7002608611
  0
VERTEX
  8
0
 62
7
  6
CONTINUOUS
 10
64.9691021131
 20
156.6435916028
  0
VERTEX
  8
0
 62
7
  6
CONTINUOUS
 10
64.9068956185
 20
156.5928775015
  0
VERTEX
  8
0
 62
7
  6
CONTINUOUS
 10
64.8446187796
 20
156.5485753623
  0
VERTEX
  8
0
 62
7
  6
CONTINUOUS
 10
64.7829295654
 20
156.5110445124
  0
VERTEX
  8
0
 62
7
  6
CONTINUOUS
 10
64.7224560572
 20
156.4803559982
  0
VERTEX
  8
0
 62
7
  6
CONTINUOUS
 10
64.6633272205
 20
156.4561315923
  0
VERTEX
  8
0
 62
7
  6
CONTINUOUS
 10
64.6043718244
 20
156.4375619102
  0
VERTEX
  8
0
 62
7
  6
CONTINUOUS
 10
64.5435462031
 20
156.4240644493
  0
VERTEX
  8
0
 62
7
  6
CONTINUOUS
 10
64.4787459857
 20
156.4157255307
  0
VERTEX
  8
0
 62
7
  6
CONTINUOUS
 10
64.4181815205
 20
156.4132560472
  0
SEQEND
  0
POLYLINE
  8
0
 62
7
  6
CONTINUOUS
 66
1
 70
0
  0
VERTEX
  8
0
 62
7
  6
CONTINUOUS
 10
65.8900162514
 20
112.3885706975
  0
VERTEX
  8
0
 62
7
  6
CONTINUOUS
 10
65.9353381053
 20
112.5640078119
  0
VERTEX
  8
0
 62
7
  6
CONTINUOUS
 10
65.9629904242
 20
112.6689954243
  0
VERTEX
  8
0
 62
7
  6
CONTINUOUS
 10
65.9918926575
 20
112.7761831464
  0
VERTEX
  8
0
 62
7
  6
CONTINUOUS
 10
66.0220509994
 20
112.8845757337
  0
VERTEX
  8
0
 62
7
  6
CONTINUOUS
 10
66.0534653156
 20
112.9931267843
  0
VERTEX
  8
0
 62
7
  6
CONTINUOUS
 10
66.0861092984
 20
113.1007257812
  0
VERTEX
  8
0
 62
7
  6
CONTINUOUS
 10
66.1198952492
 20
113.2061869182
  0
VERTEX
  8
0
 62
7
  6
CONTINUOUS
 10
66.1546541429
 20
113.3082686987
  0
VERTEX
  8
0
 62
7
  6
CONTINUOUS
 10
66.1901011337
 20
113.4056929972
  0
VERTEX
  8
0
 62
7
  6
CONTINUOUS
 10
66.2258296196
 20
113.4972201018
  0
VERTEX
  8
0
 62
7
  6
CONTINUOUS
 10
66.2614393395
 20
113.582025701
  0
VERTEX
  8
0
 62
7
  6
CONTINUOUS
 10
66.2966716458
 20
113.6599120443
  0
VERTEX
  8
0
 62
7
  6
CONTINUOUS
 10
66.3318851803
 20
113.732080067
  0
VERTEX
  8
0
 62
7
  6
CONTINUOUS
 10
66.3675864457
 20
113.7997627967
  0
VERTEX
  8
0
 62
7
  6
CONTINUOUS
 10
66.4042270101
 20
113.8638049875
  0
VERTEX
  8
0
 62
7
  6
CONTINUOUS
 10
66.4419981338
 20
113.9243954843
  0
VERTEX
  8
0
 62
7
  6
CONTINUOUS
 10
66.4809931359
 20
113.9814947552
  0
VERTEX
  8
0
 62
7
  6
CONTINUOUS
 10
66.5212513495
 20
114.0349521679
  0
VERTEX
  8
0
 62
7
  6
CONTINUOUS
 10
66.5627822296
 20
114.0845680989
  0
VERTEX
  8
0
 62
7
  6
CONTINUOUS
 10
66.6053380312
 20
114.1298858698
  0
VERTEX
  8
0
 62
7
  6
CONTINUOUS
 10
66.6486156123
 20
114.1705322159
  0
VERTEX
  8
0
 62
7
  6
CONTINUOUS
 10
66.6923582028
 20
114.2063286178
  0
VERTEX
  8
0
 62
7
  6
CONTINUOUS
 10
66.7366682103
 20
114.2374715857
  0
VERTEX
  8
0
 62
7
  6
CONTINUOUS
 10
66.7822244889
 20
114.2644657386
  0
VERTEX
  8
0
 62
7
  6
CONTINUOUS
 10
66.8302750076
 20
114.2878488517
  0
VERTEX
  8
0
 62
7
  6
CONTINUOUS
 10
66.8816620287
 20
114.3076258125
  0
VERTEX
  8
0
 62
7
  6
CONTINUOUS
 10
66.9369395668
 20
114.3235388421
  0
VERTEX
  8
0
 62
7
  6
CONTINUOUS
 10
66.9962002481
 20
114.3351772491
  0
VERTEX
  8
0
 62
7
  6
CONTINUOUS
 10
67.0597135283
 20
114.3421897894
  0
VERTEX
  8
0
 62
7
  6
CONTINUOUS
 10
67.1188194921
 20
114.3442106684
  0
SEQEND
  0
POLYLINE
  8
0
 62
7
  6
CONTINUOUS
 66
1
 70
0
  0
VERTEX
  8
0
 62
7
  6
CONTINUOUS
 10
82.9433592271
 20
90.4471379077
  0
VERTEX
  8
0
 62
7
  6
CONTINUOUS
 10
82.9450099798
 20
90.4213952072
  0
VERTEX
  8
0
 62
7
  6
CONTINUOUS
 10
82.9467184705
 20
90.3966548305
  0
VERTEX
  8
0
 62
7
  6
CONTINUOUS
 10
82.9485061147
 20
90.3726683836
  0
VERTEX
  8
0
 62
7
  6
CONTINUOUS
 10
82.9504057449
 20
90.3491042267
  0
VERTEX
  8
0
 62
7
  6
CONTINUOUS
 10
82.9524611932
 20
90.3255936516
  0
VERTEX
  8
0
 62
7
  6
CONTINUOUS
 10
82.954729448
 20
90.301741134
  0
VERTEX
  8
0
 62
7
  6
CONTINUOUS
 10
82.9572781098
 20
90.2771812082
  0
VERTEX
  8
0
 62
7
  6
CONTINUOUS
 10
82.9601934871
 20
90.2515240973
  0
VERTEX
  8
0
 62
7
  6
CONTINUOUS
 10
82.9635882261
 20
90.2243346018
  0
VERTEX
  8
0
 62
7
  6
CONTINUOUS
 10
82.9676067268
 20
90.1951466056
  0
VERTEX
  8
0
 62
7
  6
CONTINUOUS
 10
82.9724334803
 20
90.1634640156
  0
VERTEX
  8
0
 62
7
  6
CONTINUOUS
 10
82.9782923485
 20
90.1288244863
  0
VERTEX
  8
0
 62
7
  6
CONTINUOUS
 10
82.9853563029
 20
90.0912887351
  0
VERTEX
  8
0
 62
7
  6
CONTINUOUS
 10
82.9937056515
 20
90.0514123591
  0
VERTEX
  8
0
 62
7
  6
CONTINUOUS
 10
83.0033650971
 20
90.0098473815
  0
VERTEX
  8
0
 62
7
  6
CONTINUOUS
 10
83.0147329632
 20
89.9656741655
  0
VERTEX
  8
0
 62
7
  6
CONTINUOUS
 10
83.0286195675
 20
89.916980209
  0
VERTEX
  8
0
 62
7
  6
CONTINUOUS
 10
83.0461427474
 20
89.8617590469
  0
VERTEX
  8
0
 62
7
  6
CONTINUOUS
 10
83.0680741413
 20
89.799956699
  0
VERTEX
  8
0
 62
7
  6
CONTINUOUS
 10
83.0948410814
 20
89.7327139115
  0
VERTEX
  8
0
 62
7
  6
CONTINUOUS
 10
83.1267740507
 20
89.661262198
  0
VERTEX
  8
0
 62
7
  6
CONTINUOUS
 10
83.1645249755
 20
89.5860319361
  0
VERTEX
  8
0
 62
7
  6
CONTINUOUS
 10
83.208838732
 20
89.5074163895
  0
VERTEX
  8
0
 62
7
  6
CONTINUOUS
 10
83.2604581886
 20
89.4259762228
  0
VERTEX
  8
0
 62
7
  6
CONTINUOUS
 10
83.3201001916
 20
89.3424421965
  0
VERTEX
  8
0
 62
7
  6
CONTINUOUS
 10
83.3885338744
 20
89.2575911125
  0
VERTEX
  8
0
 62
7
  6
CONTINUOUS
 10
83.4668461489
 20
89.1720119887
  0
VERTEX
  8
0
 62
7
  6
CONTINUOUS
 10
83.5561082177
 20
89.0866157914
  0
VERTEX
  8
0
 62
7
  6
CONTINUOUS
 10
83.6559618833
 20
89.0037013408
  0
VERTEX
  8
0
 62
7
  6
CONTINUOUS
 10
83.7648369496
 20
88.9260009005
  0
VERTEX
  8
0
 62
7
  6
CONTINUOUS
 10
83.8806246552
 20
88.8557854167
  0
VERTEX
  8
0
 62
7
  6
CONTINUOUS
 10
84.0012604261
 20
88.7945112457
  0
VERTEX
  8
0
 62
7
  6
CONTINUOUS
 10
84.1258962904
 20
88.7425615499
  0
VERTEX
  8
0
 62
7
  6
CONTINUOUS
 10
84.2539270554
 20
88.7001371474
  0
VERTEX
  8
0
 62
7
  6
CONTINUOUS
 10
84.3847476309
 20
88.6674179044
  0
VERTEX
  8
0
 62
7
  6
CONTINUOUS
 10
84.5177530979
 20
88.6445644893
  0
VERTEX
  8
0
 62
7
  6
CONTINUOUS
 10
84.6523331682
 20
88.6317208934
  0
VERTEX
  8
0
 62
7
  6
CONTINUOUS
 10
84.7560239603
 20
88.6287334813
  0
SEQEND
  0
LINE
  8
0
 62
7
  6
CONTINUOUS
 10
82.9401714426
 20
90.5024729514
 11
82.9433592271
 21
90.4471379077
  0
LINE
  8
0
 62
7
  6
CONTINUOUS
 10
82.9370599934
 20
90.5643316414
 11
82.9401714426
 21
90.5024729514
  0
LINE
  8
0
 62
7
  6
CONTINUOUS
 10
82.9339536053
 20
90.6345214197
 11
82.9370599934
 21
90.5643316414
  0
LINE
  8
0
 62
7
  6
CONTINUOUS
 10
82.9307997197
 20
90.7149872887
 11
82.9339536053
 21
90.6345214197
  0
LINE
  8
0
 62
7
  6
CONTINUOUS
 10
82.9258263597
 20
90.8618955582
 11
82.9307997197
 21
90.7149872887
  0
LINE
  8
0
 62
7
  6
CONTINUOUS
 10
82.4242783575
 20
179.8955709381
 11
82.4193049958
 21
180.0424792828
  0
LINE
  8
0
 62
7
  6
CONTINUOUS
 10
82.9204862256
 20
91.0486004091
 11
82.9258263597
 21
90.8618955582
  0
LINE
  8
0
 62
7
  6
CONTINUOUS
 10
82.4296184936
 20
179.7088659827
 11
82.4242783575
 21
179.8955709381
  0
LINE
  8
0
 62
7
  6
CONTINUOUS
 10
82.9129897225
 20
91.3650389477
 11
82.9204862256
 21
91.0486004091
  0
LINE
  8
0
 62
7
  6
CONTINUOUS
 10
82.4371149992
 20
179.3924272638
 11
82.4296184936
 21
179.7088659827
  0
LINE
  8
0
 62
7
  6
CONTINUOUS
 10
82.9052098264
 20
91.7664620261
 11
82.9129897225
 21
91.3650389477
  0
LINE
  8
0
 62
7
  6
CONTINUOUS
 10
82.4448948976
 20
178.9910039557
 11
82.4371149992
 21
179.3924272638
  0
LINE
  8
0
 62
7
  6
CONTINUOUS
 10
82.8972780842
 20
92.260979537
 11
82.9052098264
 21
91.7664620261
  0
LINE
  8
0
 62
7
  6
CONTINUOUS
 10
82.4528266421
 20
178.4964861485
 11
82.4448948976
 21
178.9910039557
  0
LINE
  8
0
 62
7
  6
CONTINUOUS
 10
82.8892444374
 20
92.862047772
 11
82.8972780842
 21
92.260979537
  0
LINE
  8
0
 62
7
  6
CONTINUOUS
 10
82.4608602915
 20
177.8954175163
 11
82.4528266421
 21
178.4964861485
  0
LINE
  8
0
 62
7
  6
CONTINUOUS
 10
82.881171609
 20
93.5860511826
 11
82.8892444374
 21
92.862047772
  0
LINE
  8
0
 62
7
  6
CONTINUOUS
 10
82.4689331225
 20
177.171413566
 11
82.4608602915
 21
177.8954175163
  0
LINE
  8
0
 62
7
  6
CONTINUOUS
 10
82.8731413683
 20
94.4538572459
 11
82.881171609
 21
93.5860511826
  0
LINE
  8
0
 62
7
  6
CONTINUOUS
 10
82.4769633657
 20
176.3036068128
 11
82.4689331225
 21
177.171413566
  0
LINE
  8
0
 62
7
  6
CONTINUOUS
 10
82.8672059944
 20
95.216421082
 11
82.8731413683
 21
94.4538572459
  0
LINE
  8
0
 62
7
  6
CONTINUOUS
 10
82.4828987411
 20
175.5410423149
 11
82.4769633657
 21
176.3036068128
  0
LINE
  8
0
 62
7
  6
CONTINUOUS
 10
82.8613497094
 20
96.1034444762
 11
82.8672059944
 21
95.216421082
  0
LINE
  8
0
 62
7
  6
CONTINUOUS
 10
82.4887550279
 20
174.6540179939
 11
82.4828987411
 21
175.5410423149
  0
LINE
  8
0
 62
7
  6
CONTINUOUS
 10
82.855552202
 20
97.167340396
 11
82.8613497094
 21
96.1034444762
  0
LINE
  8
0
 62
7
  6
CONTINUOUS
 10
82.4945525377
 20
173.5901206111
 11
82.4887550279
 21
174.6540179939
  0
LINE
  8
0
 62
7
  6
CONTINUOUS
 10
82.4983336624
 20
172.7474412933
 11
82.4945525377
 21
173.5901206111
  0
LINE
  8
0
 62
7
  6
CONTINUOUS
 10
82.8517710787
 20
98.0100182665
 11
82.855552202
 21
97.167340396
  0
LINE
  8
0
 62
7
  6
CONTINUOUS
 10
82.5018671609
 20
171.7889978751
 11
82.4983336624
 21
172.7474412933
  0
LINE
  8
0
 62
7
  6
CONTINUOUS
 10
82.848237581
 20
98.9684597105
 11
82.8517710787
 21
98.0100182665
  0
LINE
  8
0
 62
7
  6
CONTINUOUS
 10
82.5049909208
 20
170.6974853245
 11
82.5018671609
 21
171.7889978751
  0
LINE
  8
0
 62
7
  6
CONTINUOUS
 10
82.8451138135
 20
100.0599722191
 11
82.848237581
 21
98.9684597105
  0
LINE
  8
0
 62
7
  6
CONTINUOUS
 10
82.5073852075
 20
169.5116312758
 11
82.5049909208
 21
170.6974853245
  0
LINE
  8
0
 62
7
  6
CONTINUOUS
 10
82.8427195147
 20
101.2458290208
 11
82.8451138135
 21
100.0599722191
  0
LINE
  8
0
 62
7
  6
CONTINUOUS
 10
82.5088075882
 20
168.3179218547
 11
82.5073852075
 21
169.5116312758
  0
LINE
  8
0
 62
7
  6
CONTINUOUS
 10
82.8412971267
 20
102.4395411885
 11
82.8427195147
 21
101.2458290208
  0
LINE
  8
0
 62
7
  6
CONTINUOUS
 10
82.5092754528
 20
167.1287333312
 11
82.5088075882
 21
168.3179218547
  0
LINE
  8
0
 62
7
  6
CONTINUOUS
 10
82.8408292592
 20
103.6287333312
 11
82.8412971267
 21
102.4395411885
  0
LINE
  8
0
 62
7
  6
CONTINUOUS
 10
82.5092754529
 20
160.6227459683
 11
82.5092754529
 21
167.1287333312
  0
LINE
  8
0
 62
7
  6
CONTINUOUS
 10
82.8408292591
 20
110.1347207133
 11
82.8408292591
 21
103.6287333312
  0
POLYLINE
  8
0
 62
7
  6
CONTINUOUS
 66
1
 70
0
  0
VERTEX
  8
0
 62
7
  6
CONTINUOUS
 10
82.1423228903
 20
113.5299379723
  0
VERTEX
  8
0
 62
7
  6
CONTINUOUS
 10
82.2394684177
 20
113.3573440451
  0
VERTEX
  8
0
 62
7
  6
CONTINUOUS
 10
82.3344917468
 20
113.1615112009
  0
VERTEX
  8
0
 62
7
  6
CONTINUOUS
 10
82.4213413938
 20
112.9529596705
  0
VERTEX
  8
0
 62
7
  6
CONTINUOUS
 10
82.5002295602
 20
112.7314479177
  0
VERTEX
  8
0
 62
7
  6
CONTINUOUS
 10
82.5711722912
 20
112.4968278015
  0
VERTEX
  8
0
 62
7
  6
CONTINUOUS
 10
82.634031697
 20
112.2492419022
  0
VERTEX
  8
0
 62
7
  6
CONTINUOUS
 10
82.688737366
 20
111.9884880039
  0
VERTEX
  8
0
 62
7
  6
CONTINUOUS
 10
82.735218038
 20
111.7141584271
  0
VERTEX
  8
0
 62
7
  6
CONTINUOUS
 10
82.7733661683
 20
111.4258524356
  0
VERTEX
  8
0
 62
7
  6
CONTINUOUS
 10
82.8030836704
 20
111.1229860998
  0
VERTEX
  8
0
 62
7
  6
CONTINUOUS
 10
82.8242789677
 20
110.8048312486
  0
VERTEX
  8
0
 62
7
  6
CONTINUOUS
 10
82.8368666793
 20
110.4707831709
  0
VERTEX
  8
0
 62
7
  6
CONTINUOUS
 10
82.8408293594
 20
110.1347207133
  0
SEQEND
  0
POLYLINE
  8
0
 62
7
  6
CONTINUOUS
 66
1
 70
0
  0
VERTEX
  8
0
 62
7
  6
CONTINUOUS
 10
82.4067454842
 20
180.3103287663
  0
VERTEX
  8
0
 62
7
  6
CONTINUOUS
 10
82.4050947308
 20
180.3360714764
  0
VERTEX
  8
0
 62
7
  6
CONTINUOUS
 10
82.4033862398
 20
180.3608118552
  0
VERTEX
  8
0
 62
7
  6
CONTINUOUS
 10
82.401598596
 20
180.3847982948
  0
VERTEX
  8
0
 62
7
  6
CONTINUOUS
 10
82.3996989643
 20
180.4083624702
  0
VERTEX
  8
0
 62
7
  6
CONTINUOUS
 10
82.397643514
 20
180.431873065
  0
VERTEX
  8
0
 62
7
  6
CONTINUOUS
 10
82.3953752574
 20
180.4557255948
  0
VERTEX
  8
0
 62
7
  6
CONTINUOUS
 10
82.3928265947
 20
180.4802855235
  0
VERTEX
  8
0
 62
7
  6
CONTINUOUS
 10
82.3899112178
 20
180.5059426249
  0
VERTEX
  8
0
 62
7
  6
CONTINUOUS
 10
82.3865164816
 20
180.5331320938
  0
VERTEX
  8
0
 62
7
  6
CONTINUOUS
 10
82.3824979745
 20
180.5623201319
  0
VERTEX
  8
0
 62
7
  6
CONTINUOUS
 10
82.3776712131
 20
180.5940027638
  0
VERTEX
  8
0
 62
7
  6
CONTINUOUS
 10
82.3718123361
 20
180.6286423307
  0
VERTEX
  8
0
 62
7
  6
CONTINUOUS
 10
82.3647483728
 20
180.6661781105
  0
VERTEX
  8
0
 62
7
  6
CONTINUOUS
 10
82.3563990164
 20
180.7060545029
  0
VERTEX
  8
0
 62
7
  6
CONTINUOUS
 10
82.3467395639
 20
180.7476194888
  0
VERTEX
  8
0
 62
7
  6
CONTINUOUS
 10
82.3353716894
 20
180.7917927156
  0
VERTEX
  8
0
 62
7
  6
CONTINUOUS
 10
82.3214850732
 20
180.8404866904
  0
VERTEX
  8
0
 62
7
  6
CONTINUOUS
 10
82.3039618765
 20
180.8957078781
  0
VERTEX
  8
0
 62
7
  6
CONTINUOUS
 10
82.2820304637
 20
180.9575102482
  0
VERTEX
  8
0
 62
7
  6
CONTINUOUS
 10
82.2552634915
 20
181.0247530813
  0
VERTEX
  8
0
 62
7
  6
CONTINUOUS
 10
82.2233304771
 20
181.0962048543
  0
VERTEX
  8
0
 62
7
  6
CONTINUOUS
 10
82.1855795005
 20
181.1714351714
  0
VERTEX
  8
0
 62
7
  6
CONTINUOUS
 10
82.1412656838
 20
181.2500507699
  0
VERTEX
  8
0
 62
7
  6
CONTINUOUS
 10
82.0896461586
 20
181.3314909834
  0
VERTEX
  8
0
 62
7
  6
CONTINUOUS
 10
82.0300040803
 20
181.4150250476
  0
VERTEX
  8
0
 62
7
  6
CONTINUOUS
 10
81.9615703132
 20
181.4998761621
  0
VERTEX
  8
0
 62
7
  6
CONTINUOUS
 10
81.8832579344
 20
181.5854553187
  0
VERTEX
  8
0
 62
7
  6
CONTINUOUS
 10
81.7939957326
 20
181.670851552
  0
VERTEX
  8
0
 62
7
  6
CONTINUOUS
 10
81.6941419306
 20
181.7537660149
  0
VERTEX
  8
0
 62
7
  6
CONTINUOUS
 10
81.5852667592
 20
181.8314664235
  0
VERTEX
  8
0
 62
7
  6
CONTINUOUS
 10
81.4694790201
 20
181.9016818227
  0
VERTEX
  8
0
 62
7
  6
CONTINUOUS
 10
81.3488433065
 20
181.9629558691
  0
VERTEX
  8
0
 62
7
  6
CONTINUOUS
 10
81.2242075727
 20
182.0149054298
  0
VERTEX
  8
0
 62
7
  6
CONTINUOUS
 10
81.096176989
 20
182.057329709
  0
VERTEX
  8
0
 62
7
  6
CONTINUOUS
 10
80.9653566187
 20
182.0900488555
  0
VERTEX
  8
0
 62
7
  6
CONTINUOUS
 10
80.8323513519
 20
182.1129022081
  0
VERTEX
  8
0
 62
7
  6
CONTINUOUS
 10
80.6977714461
 20
182.1257457746
  0
VERTEX
  8
0
 62
7
  6
CONTINUOUS
 10
80.5940807535
 20
182.128733181
  0
SEQEND
  0
LINE
  8
0
 62
7
  6
CONTINUOUS
 10
82.4099332701
 20
180.2549936972
 11
82.4067454842
 21
180.3103287663
  0
LINE
  8
0
 62
7
  6
CONTINUOUS
 10
82.41304472
 20
180.1931349927
 11
82.4099332701
 21
180.2549936972
  0
LINE
  8
0
 62
7
  6
CONTINUOUS
 10
82.4161511092
 20
180.1229451832
 11
82.41304472
 21
180.1931349927
  0
LINE
  8
0
 62
7
  6
CONTINUOUS
 10
82.4193049958
 20
180.0424792828
 11
82.4161511092
 21
180.1229451832
  0
LINE
  8
0
 62
7
  6
CONTINUOUS
 10
99.6223749752
 20
179.3635082924
 11
99.612851475
 21
178.8534296767
  0
LINE
  8
0
 62
7
  6
CONTINUOUS
 10
99.6299013592
 20
179.6865140718
 11
99.6223749752
 21
179.3635082924
  0
LINE
  8
0
 62
7
  6
CONTINUOUS
 10
99.6353908058
 20
179.8814914986
 11
99.6299013592
 21
179.6865140718
  0
LINE
  8
0
 62
7
  6
CONTINUOUS
 10
99.6404116673
 20
180.0319133069
 11
99.6353908058
 21
179.8814914986
  0
LINE
  8
0
 62
7
  6
CONTINUOUS
 10
99.6440213859
 20
180.1245708665
 11
99.6404116673
 21
180.0319133069
  0
LINE
  8
0
 62
7
  6
CONTINUOUS
 10
99.6476356092
 20
180.2051972185
 11
99.6440213859
 21
180.1245708665
  0
LINE
  8
0
 62
7
  6
CONTINUOUS
 10
99.6501015589
 20
180.2536923827
 11
99.6476356092
 21
180.2051972185
  0
LINE
  8
0
 62
7
  6
CONTINUOUS
 10
99.6526704547
 20
180.2990197662
 11
99.6501015589
 21
180.2536923827
  0
POLYLINE
  8
0
 62
7
  6
CONTINUOUS
 66
1
 70
0
  0
VERTEX
  8
0
 62
7
  6
CONTINUOUS
 10
98.8523227677
 20
157.2275283956
  0
VERTEX
  8
0
 62
7
  6
CONTINUOUS
 10
98.804721393
 20
157.1507486974
  0
VERTEX
  8
0
 62
7
  6
CONTINUOUS
 10
98.7465524395
 20
157.0620417376
  0
VERTEX
  8
0
 62
7
  6
CONTINUOUS
 10
98.6892016257
 20
156.9801993709
  0
VERTEX
  8
0
 62
7
  6
CONTINUOUS
 10
98.6320752343
 20
156.9042728529
  0
VERTEX
  8
0
 62
7
  6
CONTINUOUS
 10
98.5745561749
 20
156.8334788625
  0
VERTEX
  8
0
 62
7
  6
CONTINUOUS
 10
98.5161366379
 20
156.7673684427
  0
VERTEX
  8
0
 62
7
  6
CONTINUOUS
 10
98.4566112271
 20
156.7059758376
  0
VERTEX
  8
0
 62
7
  6
CONTINUOUS
 10
98.395908818
 20
156.6495341018
  0
VERTEX
  8
0
 62
7
  6
CONTINUOUS
 10
98.3340706509
 20
156.5983968675
  0
VERTEX
  8
0
 62
7
  6
CONTINUOUS
 10
98.2711214982
 20
156.5528994
  0
VERTEX
  8
0
 62
7
  6
CONTINUOUS
 10
98.2071027434
 20
156.5133846094
  0
VERTEX
  8
0
 62
7
  6
CONTINUOUS
 10
98.1427601566
 20
156.4804952747
  0
VERTEX
  8
0
 62
7
  6
CONTINUOUS
 10
98.0783696427
 20
156.4543572705
  0
VERTEX
  8
0
 62
7
  6
CONTINUOUS
 10
98.0140530299
 20
156.434873245
  0
VERTEX
  8
0
 62
7
  6
CONTINUOUS
 10
97.9506662342
 20
156.4219211436
  0
VERTEX
  8
0
 62
7
  6
CONTINUOUS
 10
97.8886612321
 20
156.4149658816
  0
VERTEX
  8
0
 62
7
  6
CONTINUOUS
 10
97.8381814923
 20
156.4132560312
  0
SEQEND
  0
LINE
  8
0
 62
7
  6
CONTINUOUS
 10
99.2188651455
 20
102.5149529261
 11
99.2192754529
 21
110.1347207196
  0
LINE
  8
0
 62
7
  6
CONTINUOUS
 10
99.5512395672
 20
168.2425146851
 11
99.5508292591
 21
160.6227459076
  0
LINE
  8
0
 62
7
  6
CONTINUOUS
 10
99.2177280313
 20
101.4711112887
 11
99.2188651455
 21
102.5149529261
  0
LINE
  8
0
 62
7
  6
CONTINUOUS
 10
99.552376683
 20
169.2863569493
 11
99.5512395672
 21
168.2425146851
  0
LINE
  8
0
 62
7
  6
CONTINUOUS
 10
99.2149834619
 20
100.0569350338
 11
99.2177280313
 21
101.4711112887
  0
LINE
  8
0
 62
7
  6
CONTINUOUS
 10
99.5551212561
 20
170.7005340546
 11
99.552376683
 21
169.2863569493
  0
LINE
  8
0
 62
7
  6
CONTINUOUS
 10
99.2113393467
 20
98.8110086514
 11
99.2149834619
 21
100.0569350338
  0
LINE
  8
0
 62
7
  6
CONTINUOUS
 10
99.558765376
 20
171.9464611525
 11
99.5551212561
 21
170.7005340546
  0
LINE
  8
0
 62
7
  6
CONTINUOUS
 10
99.2055225984
 20
97.3698478098
 11
99.2113393467
 21
98.8110086514
  0
LINE
  8
0
 62
7
  6
CONTINUOUS
 10
99.564582132
 20
173.3876227719
 11
99.558765376
 21
171.9464611525
  0
LINE
  8
0
 62
7
  6
CONTINUOUS
 10
99.5711095492
 20
174.6141221434
 11
99.564582132
 21
173.3876227719
  0
LINE
  8
0
 62
7
  6
CONTINUOUS
 10
99.1989951887
 20
96.1433488242
 11
99.2055225984
 21
97.3698478098
  0
LINE
  8
0
 62
7
  6
CONTINUOUS
 10
99.5795440076
 20
175.8557035836
 11
99.5711095492
 21
174.6141221434
  0
LINE
  8
0
 62
7
  6
CONTINUOUS
 10
99.1905607371
 20
94.9017673308
 11
99.1989951887
 21
96.1433488242
  0
LINE
  8
0
 62
7
  6
CONTINUOUS
 10
99.5896065689
 20
177.0149642991
 11
99.5795440076
 21
175.8557035836
  0
LINE
  8
0
 62
7
  6
CONTINUOUS
 10
99.1804981833
 20
93.7425064465
 11
99.1905607371
 21
94.9017673308
  0
POLYLINE
  8
0
 62
7
  6
CONTINUOUS
 66
1
 70
0
  0
VERTEX
  8
0
 62
7
  6
CONTINUOUS
 10
99.5508293588
 20
160.6227459077
  0
VERTEX
  8
0
 62
7
  6
CONTINUOUS
 10
99.5468974886
 20
160.2879603815
  0
VERTEX
  8
0
 62
7
  6
CONTINUOUS
 10
99.5343433291
 20
159.9538782396
  0
VERTEX
  8
0
 62
7
  6
CONTINUOUS
 10
99.5131828807
 20
159.6356904029
  0
VERTEX
  8
0
 62
7
  6
CONTINUOUS
 10
99.4835014035
 20
159.3327918356
  0
VERTEX
  8
0
 62
7
  6
CONTINUOUS
 10
99.445390367
 20
159.0444537104
  0
VERTEX
  8
0
 62
7
  6
CONTINUOUS
 10
99.3989478425
 20
158.7700916108
  0
VERTEX
  8
0
 62
7
  6
CONTINUOUS
 10
99.3442813482
 20
158.5093042866
  0
VERTEX
  8
0
 62
7
  6
CONTINUOUS
 10
99.2814621202
 20
158.2616834689
  0
VERTEX
  8
0
 62
7
  6
CONTINUOUS
 10
99.2105606414
 20
158.0270267786
  0
VERTEX
  8
0
 62
7
  6
CONTINUOUS
 10
99.131714514
 20
157.8054755371
  0
VERTEX
  8
0
 62
7
  6
CONTINUOUS
 10
99.0449078119
 20
157.5968812455
  0
VERTEX
  8
0
 62
7
  6
CONTINUOUS
 10
98.9499291948
 20
157.4010029891
  0
VERTEX
  8
0
 62
7
  6
CONTINUOUS
 10
98.8523227055
 20
157.2275284332
  0
SEQEND
  0
POLYLINE
  8
0
 62
7
  6
CONTINUOUS
 66
1
 70
0
  0
VERTEX
  8
0
 62
7
  6
CONTINUOUS
 10
99.2192753532
 20
110.1347207195
  0
VERTEX
  8
0
 62
7
  6
CONTINUOUS
 10
99.2232072237
 20
110.4695062575
  0
VERTEX
  8
0
 62
7
  6
CONTINUOUS
 10
99.2357613824
 20
110.8035883998
  0
VERTEX
  8
0
 62
7
  6
CONTINUOUS
 10
99.2569218273
 20
111.1217762333
  0
VERTEX
  8
0
 62
7
  6
CONTINUOUS
 10
99.2866033096
 20
111.4246748598
  0
VERTEX
  8
0
 62
7
  6
CONTINUOUS
 10
99.324714348
 20
111.71301297
  0
VERTEX
  8
0
 62
7
  6
CONTINUOUS
 10
99.3711568652
 20
111.9873750262
  0
VERTEX
  8
0
 62
7
  6
CONTINUOUS
 10
99.4258233564
 20
112.2481623692
  0
VERTEX
  8
0
 62
7
  6
CONTINUOUS
 10
99.4886425704
 20
112.495783128
  0
VERTEX
  8
0
 62
7
  6
CONTINUOUS
 10
99.5595440629
 20
112.7304398473
  0
VERTEX
  8
0
 62
7
  6
CONTINUOUS
 10
99.6383901743
 20
112.9519910648
  0
VERTEX
  8
0
 62
7
  6
CONTINUOUS
 10
99.725196854
 20
113.1605853137
  0
VERTEX
  8
0
 62
7
  6
CONTINUOUS
 10
99.8201754792
 20
113.3564635969
  0
VERTEX
  8
0
 62
7
  6
CONTINUOUS
 10
99.9177819837
 20
113.5299382083
  0
SEQEND
  0
LINE
  8
0
 62
7
  6
CONTINUOUS
 10
99.599655511
 20
177.9288790154
 11
99.5896065689
 21
177.0149642991
  0
LINE
  8
0
 62
7
  6
CONTINUOUS
 10
99.1704492493
 20
92.8285915584
 11
99.1804981833
 21
93.7425064465
  0
LINE
  8
0
 62
7
  6
CONTINUOUS
 10
99.1588768542
 20
92.0033037325
 11
99.1704492493
 21
92.8285915584
  0
POLYLINE
  8
0
 62
7
  6
CONTINUOUS
 66
1
 70
0
  0
VERTEX
  8
0
 62
7
  6
CONTINUOUS
 10
99.612851475
 20
178.8534296767
  0
VERTEX
  8
0
 62
7
  6
CONTINUOUS
 10
99.6112279146
 20
178.7541664668
  0
VERTEX
  8
0
 62
7
  6
CONTINUOUS
 10
99.599655511
 20
177.9288790154
  0
SEQEND
  0
LINE
  8
0
 62
7
  6
CONTINUOUS
 10
99.1477298006
 20
91.3939613924
 11
99.1588768542
 21
92.0033037325
  0
LINE
  8
0
 62
7
  6
CONTINUOUS
 10
99.1402034183
 20
91.0709551153
 11
99.1477298006
 21
91.3939613924
  0
LINE
  8
0
 62
7
  6
CONTINUOUS
 10
99.1347139697
 20
90.8759772314
 11
99.1402034183
 21
91.0709551153
  0
LINE
  8
0
 62
7
  6
CONTINUOUS
 10
99.1296931074
 20
90.7255550744
 11
99.1347139697
 21
90.8759772314
  0
LINE
  8
0
 62
7
  6
CONTINUOUS
 10
99.1260833907
 20
90.6328973411
 11
99.1296931074
 21
90.7255550744
  0
LINE
  8
0
 62
7
  6
CONTINUOUS
 10
99.1224691715
 20
90.5522708663
 11
99.1260833907
 21
90.6328973411
  0
LINE
  8
0
 62
7
  6
CONTINUOUS
 10
99.1200032257
 20
90.5037756319
 11
99.1224691715
 21
90.5522708663
  0
LINE
  8
0
 62
7
  6
CONTINUOUS
 10
99.1174343362
 20
90.4584482122
 11
99.1200032257
 21
90.5037756319
  0
POLYLINE
  8
SURFACE
 62
7
  6
CONTINUOUS
 66
1
 70
0
  0
VERTEX
  8
SURFACE
 62
7
  6
CONTINUOUS
 10
230.984080749
 20
88.6287334814
  0
VERTEX
  8
SURFACE
 62
7
  6
CONTINUOUS
 10
231.0875125714
 20
88.6317059774
  0
VERTEX
  8
SURFACE
 62
7
  6
CONTINUOUS
 10
231.2222192967
 20
88.644546834
  0
VERTEX
  8
SURFACE
 62
7
  6
CONTINUOUS
 10
231.3558671965
 20
88.6675254489
  0
VERTEX
  8
SURFACE
 62
7
  6
CONTINUOUS
 10
231.4866721246
 20
88.7002807633
  0
VERTEX
  8
SURFACE
 62
7
  6
CONTINUOUS
 10
231.6129510796
 20
88.7420925112
  0
VERTEX
  8
SURFACE
 62
7
  6
CONTINUOUS
 10
231.7331772588
 20
88.7919076079
  0
VERTEX
  8
SURFACE
 62
7
  6
CONTINUOUS
 10
231.8460312132
 20
88.8483810491
  0
VERTEX
  8
SURFACE
 62
7
  6
CONTINUOUS
 10
231.9505250788
 20
88.9099829102
  0
VERTEX
  8
SURFACE
 62
7
  6
CONTINUOUS
 10
232.0466415542
 20
88.9755489986
  0
VERTEX
  8
SURFACE
 62
7
  6
CONTINUOUS
 10
232.1348269964
 20
89.0442682465
  0
VERTEX
  8
SURFACE
 62
7
  6
CONTINUOUS
 10
232.215557962
 20
89.1154841137
  0
VERTEX
  8
SURFACE
 62
7
  6
CONTINUOUS
 10
232.2893092044
 20
89.1886695495
  0
VERTEX
  8
SURFACE
 62
7
  6
CONTINUOUS
 10
232.3564059133
 20
89.2632522868
  0
VERTEX
  8
SURFACE
 62
7
  6
CONTINUOUS
 10
232.4170620027
 20
89.3385701768
  0
VERTEX
  8
SURFACE
 62
7
  6
CONTINUOUS
 10
232.4715347631
 20
89.4140072143
  0
VERTEX
  8
SURFACE
 62
7
  6
CONTINUOUS
 10
232.5201315611
 20
89.4890166544
  0
VERTEX
  8
SURFACE
 62
7
  6
CONTINUOUS
 10
232.5631465116
 20
89.5630309624
  0
VERTEX
  8
SURFACE
 62
7
  6
CONTINUOUS
 10
232.6008551506
 20
89.635421087
  0
VERTEX
  8
SURFACE
 62
7
  6
CONTINUOUS
 10
232.6335939754
 20
89.7056312638
  0
VERTEX
  8
SURFACE
 62
7
  6
CONTINUOUS
 10
232.6617176619
 20
89.7731173469
  0
VERTEX
  8
SURFACE
 62
7
  6
CONTINUOUS
 10
232.6854527645
 20
89.836935559
  0
VERTEX
  8
SURFACE
 62
7
  6
CONTINUOUS
 10
232.7050041548
 20
89.895843662
  0
VERTEX
  8
SURFACE
 62
7
  6
CONTINUOUS
 10
232.7207650739
 20
89.9489514454
  0
VERTEX
  8
SURFACE
 62
7
  6
CONTINUOUS
 10
232.7333450696
 20
89.996179506
  0
VERTEX
  8
SURFACE
 62
7
  6
CONTINUOUS
 10
232.7435574129
 20
90.0387335469
  0
VERTEX
  8
SURFACE
 62
7
  6
CONTINUOUS
 10
232.7520273115
 20
90.0778210661
  0
VERTEX
  8
SURFACE
 62
7
  6
CONTINUOUS
 10
232.7591791739
 20
90.1143562138
  0
VERTEX
  8
SURFACE
 62
7
  6
CONTINUOUS
 10
232.7652202116
 20
90.1485230902
  0
VERTEX
  8
SURFACE
 62
7
  6
CONTINUOUS
 10
232.7702864637
 20
90.1802246526
  0
VERTEX
  8
SURFACE
 62
7
  6
CONTINUOUS
 10
232.7745285481
 20
90.2095329067
  0
VERTEX
  8
SURFACE
 62
7
  6
CONTINUOUS
 10
232.7780990595
 20
90.2366865881
  0
VERTEX
  8
SURFACE
 62
7
  6
CONTINUOUS
 10
232.7811359146
 20
90.2620151979
  0
VERTEX
  8
SURFACE
 62
7
  6
CONTINUOUS
 10
232.7837516044
 20
90.2858445964
  0
VERTEX
  8
SURFACE
 62
7
  6
CONTINUOUS
 10
232.786038613
 20
90.3085079157
  0
VERTEX
  8
SURFACE
 62
7
  6
CONTINUOUS
 10
232.788073455
 20
90.3303531895
  0
VERTEX
  8
SURFACE
 62
7
  6
CONTINUOUS
 10
232.789914178
 20
90.3516809728
  0
VERTEX
  8
SURFACE
 62
7
  6
CONTINUOUS
 10
232.7916044537
 20
90.3727439892
  0
VERTEX
  8
SURFACE
 62
7
  6
CONTINUOUS
 10
232.7931771152
 20
90.3937518539
  0
VERTEX
  8
SURFACE
 62
7
  6
CONTINUOUS
 10
232.7946571273
 20
90.4148800629
  0
VERTEX
  8
SURFACE
 62
7
  6
CONTINUOUS
 10
232.7974110691
 20
90.4580605529
  0
SEQEND
  0
POLYLINE
  8
SURFACE
 62
7
  6
CONTINUOUS
 66
1
 70
0
  0
VERTEX
  8
SURFACE
 62
7
  6
CONTINUOUS
 10
197.5640807531
 20
88.6287334813
  0
VERTEX
  8
SURFACE
 62
7
  6
CONTINUOUS
 10
197.6661394708
 20
88.6316275158
  0
VERTEX
  8
SURFACE
 62
7
  6
CONTINUOUS
 10
197.8009024006
 20
88.6443716593
  0
VERTEX
  8
SURFACE
 62
7
  6
CONTINUOUS
 10
197.9346803966
 20
88.6672754814
  0
VERTEX
  8
SURFACE
 62
7
  6
CONTINUOUS
 10
198.0656658987
 20
88.6999886714
  0
VERTEX
  8
SURFACE
 62
7
  6
CONTINUOUS
 10
198.1921520015
 20
88.7417949761
  0
VERTEX
  8
SURFACE
 62
7
  6
CONTINUOUS
 10
198.3125888503
 20
88.7916386306
  0
VERTEX
  8
SURFACE
 62
7
  6
CONTINUOUS
 10
198.4256360184
 20
88.8481657232
  0
VERTEX
  8
SURFACE
 62
7
  6
CONTINUOUS
 10
198.530291279
 20
88.9098342756
  0
VERTEX
  8
SURFACE
 62
7
  6
CONTINUOUS
 10
198.6265409859
 20
88.9754755315
  0
VERTEX
  8
SURFACE
 62
7
  6
CONTINUOUS
 10
198.7148370711
 20
89.0442766103
  0
VERTEX
  8
SURFACE
 62
7
  6
CONTINUOUS
 10
198.7956610772
 20
89.1155807072
  0
VERTEX
  8
SURFACE
 62
7
  6
CONTINUOUS
 10
198.8694915208
 20
89.188861231
  0
VERTEX
  8
SURFACE
 62
7
  6
CONTINUOUS
 10
198.936652209
 20
89.2635419307
  0
VERTEX
  8
SURFACE
 62
7
  6
CONTINUOUS
 10
198.9973564027
 20
89.3389565975
  0
VERTEX
  8
SURFACE
 62
7
  6
CONTINUOUS
 10
199.0518615536
 20
89.4144854274
  0
VERTEX
  8
SURFACE
 62
7
  6
CONTINUOUS
 10
199.1004763615
 20
89.4895790882
  0
VERTEX
  8
SURFACE
 62
7
  6
CONTINUOUS
 10
199.1434963147
 20
89.5636673537
  0
VERTEX
  8
SURFACE
 62
7
  6
CONTINUOUS
 10
199.1812013439
 20
89.6361242869
  0
VERTEX
  8
SURFACE
 62
7
  6
CONTINUOUS
 10
199.2139312705
 20
89.7063973603
  0
VERTEX
  8
SURFACE
 62
7
  6
CONTINUOUS
 10
199.2420416073
 20
89.7739415275
  0
VERTEX
  8
SURFACE
 62
7
  6
CONTINUOUS
 10
199.2657510102
 20
89.8377863576
  0
VERTEX
  8
SURFACE
 62
7
  6
CONTINUOUS
 10
199.2852628205
 20
89.8966701938
  0
VERTEX
  8
SURFACE
 62
7
  6
CONTINUOUS
 10
199.300973439
 20
89.9496948335
  0
VERTEX
  8
SURFACE
 62
7
  6
CONTINUOUS
 10
199.3135071582
 20
89.996822281
  0
VERTEX
  8
SURFACE
 62
7
  6
CONTINUOUS
 10
199.3236858995
 20
90.0392981533
  0
VERTEX
  8
SURFACE
 62
7
  6
CONTINUOUS
 10
199.3321344242
 20
90.0783420018
  0
VERTEX
  8
SURFACE
 62
7
  6
CONTINUOUS
 10
199.3392737538
 20
90.1148654801
  0
VERTEX
  8
SURFACE
 62
7
  6
CONTINUOUS
 10
199.3453037895
 20
90.1490213193
  0
VERTEX
  8
SURFACE
 62
7
  6
CONTINUOUS
 10
199.3503595922
 20
90.1807065773
  0
VERTEX
  8
SURFACE
 62
7
  6
CONTINUOUS
 10
199.3545917247
 20
90.2099919263
  0
VERTEX
  8
SURFACE
 62
7
  6
CONTINUOUS
 10
199.3581534077
 20
90.237120428
  0
VERTEX
  8
SURFACE
 62
7
  6
CONTINUOUS
 10
199.3611828517
 20
90.262425244
  0
VERTEX
  8
SURFACE
 62
7
  6
CONTINUOUS
 10
199.3637925675
 20
90.2862346052
  0
VERTEX
  8
SURFACE
 62
7
  6
CONTINUOUS
 10
199.3660750412
 20
90.3088843399
  0
VERTEX
  8
SURFACE
 62
7
  6
CONTINUOUS
 10
199.368106467
 20
90.3307219787
  0
VERTEX
  8
SURFACE
 62
7
  6
CONTINUOUS
 10
199.3699445806
 20
90.3520468316
  0
VERTEX
  8
SURFACE
 62
7
  6
CONTINUOUS
 10
199.371632822
 20
90.3731104896
  0
VERTEX
  8
SURFACE
 62
7
  6
CONTINUOUS
 10
199.3732038483
 20
90.394121476
  0
VERTEX
  8
SURFACE
 62
7
  6
CONTINUOUS
 10
199.3760877062
 20
90.4366544122
  0
SEQEND
  0
POLYLINE
  8
SURFACE
 62
7
  6
CONTINUOUS
 66
1
 70
0
  0
VERTEX
  8
SURFACE
 62
7
  6
CONTINUOUS
 10
164.1440807531
 20
88.6287334813
  0
VERTEX
  8
SURFACE
 62
7
  6
CONTINUOUS
 10
164.2461394708
 20
88.6316275158
  0
VERTEX
  8
SURFACE
 62
7
  6
CONTINUOUS
 10
164.3809024006
 20
88.6443716593
  0
VERTEX
  8
SURFACE
 62
7
  6
CONTINUOUS
 10
164.5146803966
 20
88.6672754814
  0
VERTEX
  8
SURFACE
 62
7
  6
CONTINUOUS
 10
164.6456658987
 20
88.6999886714
  0
VERTEX
  8
SURFACE
 62
7
  6
CONTINUOUS
 10
164.7721520015
 20
88.7417949761
  0
VERTEX
  8
SURFACE
 62
7
  6
CONTINUOUS
 10
164.8925888503
 20
88.7916386306
  0
VERTEX
  8
SURFACE
 62
7
  6
CONTINUOUS
 10
165.0056360184
 20
88.8481657232
  0
VERTEX
  8
SURFACE
 62
7
  6
CONTINUOUS
 10
165.110291279
 20
88.9098342756
  0
VERTEX
  8
SURFACE
 62
7
  6
CONTINUOUS
 10
165.2065409859
 20
88.9754755315
  0
VERTEX
  8
SURFACE
 62
7
  6
CONTINUOUS
 10
165.2948370711
 20
89.0442766103
  0
VERTEX
  8
SURFACE
 62
7
  6
CONTINUOUS
 10
165.3756610772
 20
89.1155807072
  0
VERTEX
  8
SURFACE
 62
7
  6
CONTINUOUS
 10
165.4494915208
 20
89.188861231
  0
VERTEX
  8
SURFACE
 62
7
  6
CONTINUOUS
 10
165.516652209
 20
89.2635419307
  0
VERTEX
  8
SURFACE
 62
7
  6
CONTINUOUS
 10
165.5773564027
 20
89.3389565975
  0
VERTEX
  8
SURFACE
 62
7
  6
CONTINUOUS
 10
165.6318615536
 20
89.4144854274
  0
VERTEX
  8
SURFACE
 62
7
  6
CONTINUOUS
 10
165.6804763615
 20
89.4895790882
  0
VERTEX
  8
SURFACE
 62
7
  6
CONTINUOUS
 10
165.7234963147
 20
89.5636673537
  0
VERTEX
  8
SURFACE
 62
7
  6
CONTINUOUS
 10
165.7612013439
 20
89.6361242869
  0
VERTEX
  8
SURFACE
 62
7
  6
CONTINUOUS
 10
165.7939312704
 20
89.7063973603
  0
VERTEX
  8
SURFACE
 62
7
  6
CONTINUOUS
 10
165.8220416073
 20
89.7739415275
  0
VERTEX
  8
SURFACE
 62
7
  6
CONTINUOUS
 10
165.8457510102
 20
89.8377863576
  0
VERTEX
  8
SURFACE
 62
7
  6
CONTINUOUS
 10
165.8652628205
 20
89.8966701937
  0
VERTEX
  8
SURFACE
 62
7
  6
CONTINUOUS
 10
165.880973439
 20
89.9496948335
  0
VERTEX
  8
SURFACE
 62
7
  6
CONTINUOUS
 10
165.8935071582
 20
89.996822281
  0
VERTEX
  8
SURFACE
 62
7
  6
CONTINUOUS
 10
165.9036858995
 20
90.0392981533
  0
VERTEX
  8
SURFACE
 62
7
  6
CONTINUOUS
 10
165.9121344242
 20
90.0783420018
  0
VERTEX
  8
SURFACE
 62
7
  6
CONTINUOUS
 10
165.9192737538
 20
90.1148654801
  0
VERTEX
  8
SURFACE
 62
7
  6
CONTINUOUS
 10
165.9253037895
 20
90.1490213193
  0
VERTEX
  8
SURFACE
 62
7
  6
CONTINUOUS
 10
165.9303595922
 20
90.1807065773
  0
VERTEX
  8
SURFACE
 62
7
  6
CONTINUOUS
 10
165.9345917247
 20
90.2099919263
  0
VERTEX
  8
SURFACE
 62
7
  6
CONTINUOUS
 10
165.9381534077
 20
90.237120428
  0
VERTEX
  8
SURFACE
 62
7
  6
CONTINUOUS
 10
165.9411828517
 20
90.262425244
  0
VERTEX
  8
SURFACE
 62
7
  6
CONTINUOUS
 10
165.9437925675
 20
90.2862346052
  0
VERTEX
  8
SURFACE
 62
7
  6
CONTINUOUS
 10
165.9460750412
 20
90.3088843399
  0
VERTEX
  8
SURFACE
 62
7
  6
CONTINUOUS
 10
165.948106467
 20
90.3307219787
  0
VERTEX
  8
SURFACE
 62
7
  6
CONTINUOUS
 10
165.9499445806
 20
90.3520468316
  0
VERTEX
  8
SURFACE
 62
7
  6
CONTINUOUS
 10
165.951632822
 20
90.3731104896
  0
VERTEX
  8
SURFACE
 62
7
  6
CONTINUOUS
 10
165.9532038483
 20
90.394121476
  0
VERTEX
  8
SURFACE
 62
7
  6
CONTINUOUS
 10
165.9546825051
 20
90.4152544676
  0
VERTEX
  8
SURFACE
 62
7
  6
CONTINUOUS
 10
165.9574342573
 20
90.4584468961
  0
SEQEND
  0
POLYLINE
  8
0
 62
7
  6
CONTINUOUS
 66
1
 70
0
  0
VERTEX
  8
0
 62
7
  6
CONTINUOUS
 10
130.7240807513
 20
88.6287334813
  0
VERTEX
  8
0
 62
7
  6
CONTINUOUS
 10
130.8261393273
 20
88.6316275077
  0
VERTEX
  8
0
 62
7
  6
CONTINUOUS
 10
130.9609023382
 20
88.6443716512
  0
VERTEX
  8
0
 62
7
  6
CONTINUOUS
 10
131.0946805839
 20
88.667275521
  0
VERTEX
  8
0
 62
7
  6
CONTINUOUS
 10
131.2256664463
 20
88.6999888305
  0
VERTEX
  8
0
 62
7
  6
CONTINUOUS
 10
131.3521529605
 20
88.7417953333
  0
VERTEX
  8
0
 62
7
  6
CONTINUOUS
 10
131.4725902157
 20
88.7916392549
  0
VERTEX
  8
0
 62
7
  6
CONTINUOUS
 10
131.5856377345
 20
88.8481666585
  0
VERTEX
  8
0
 62
7
  6
CONTINUOUS
 10
131.6902932577
 20
88.9098355338
  0
VERTEX
  8
0
 62
7
  6
CONTINUOUS
 10
131.7865431526
 20
88.9754771148
  0
VERTEX
  8
0
 62
7
  6
CONTINUOUS
 10
131.8748393672
 20
89.0442785176
  0
VERTEX
  8
0
 62
7
  6
CONTINUOUS
 10
131.9556634581
 20
89.1155829385
  0
VERTEX
  8
0
 62
7
  6
CONTINUOUS
 10
132.0294939523
 20
89.1888637886
  0
VERTEX
  8
0
 62
7
  6
CONTINUOUS
 10
132.0966546533
 20
89.2635448067
  0
VERTEX
  8
0
 62
7
  6
CONTINUOUS
 10
132.1573588209
 20
89.3389597734
  0
VERTEX
  8
0
 62
7
  6
CONTINUOUS
 10
132.2118639079
 20
89.4144888748
  0
VERTEX
  8
0
 62
7
  6
CONTINUOUS
 10
132.2604786186
 20
89.4895827724
  0
VERTEX
  8
0
 62
7
  6
CONTINUOUS
 10
132.3034984443
 20
89.5636712306
  0
VERTEX
  8
0
 62
7
  6
CONTINUOUS
 10
132.3412033262
 20
89.6361283164
  0
VERTEX
  8
0
 62
7
  6
CONTINUOUS
 10
132.3739330946
 20
89.7064015064
  0
VERTEX
  8
0
 62
7
  6
CONTINUOUS
 10
132.4020432654
 20
89.7739457492
  0
VERTEX
  8
0
 62
7
  6
CONTINUOUS
 10
132.4257524949
 20
89.8377905958
  0
VERTEX
  8
0
 62
7
  6
CONTINUOUS
 10
132.4452641021
 20
89.8966742919
  0
VERTEX
  8
0
 62
7
  6
CONTINUOUS
 10
132.4609745008
 20
89.9496986238
  0
VERTEX
  8
0
 62
7
  6
CONTINUOUS
 10
132.4735080202
 20
89.9968257011
  0
VERTEX
  8
0
 62
7
  6
CONTINUOUS
 10
132.4836865999
 20
90.0393012326
  0
VERTEX
  8
0
 62
7
  6
CONTINUOUS
 10
132.4921349991
 20
90.0783447997
  0
VERTEX
  8
0
 62
7
  6
CONTINUOUS
 10
132.4992742315
 20
90.1148680542
  0
VERTEX
  8
0
 62
7
  6
CONTINUOUS
 10
132.5053041839
 20
90.1490236731
  0
VERTEX
  8
0
 62
7
  6
CONTINUOUS
 10
132.510359916
 20
90.1807087135
  0
VERTEX
  8
0
 62
7
  6
CONTINUOUS
 10
132.5145919894
 20
90.2099938514
  0
VERTEX
  8
0
 62
7
  6
CONTINUOUS
 10
132.5181536291
 20
90.2371221965
  0
VERTEX
  8
0
 62
7
  6
CONTINUOUS
 10
132.5211830414
 20
90.2624269014
  0
VERTEX
  8
0
 62
7
  6
CONTINUOUS
 10
132.5237927309
 20
90.2862361614
  0
VERTEX
  8
0
 62
7
  6
CONTINUOUS
 10
132.5260751835
 20
90.3088858112
  0
VERTEX
  8
0
 62
7
  6
CONTINUOUS
 10
132.5281065924
 20
90.3307233809
  0
VERTEX
  8
0
 62
7
  6
CONTINUOUS
 10
132.5299446923
 20
90.3520481781
  0
VERTEX
  8
0
 62
7
  6
CONTINUOUS
 10
132.5316329234
 20
90.3731117995
  0
VERTEX
  8
0
 62
7
  6
CONTINUOUS
 10
132.5332039429
 20
90.3941227836
  0
VERTEX
  8
0
 62
7
  6
CONTINUOUS
 10
132.5346825937
 20
90.4152557757
  0
VERTEX
  8
0
 62
7
  6
CONTINUOUS
 10
132.5374343362
 20
90.4584482122
  0
SEQEND
  0
POLYLINE
  8
0
 62
7
  6
CONTINUOUS
 66
1
 70
0
  0
VERTEX
  8
0
 62
7
  6
CONTINUOUS
 10
97.3040807513
 20
88.6287334813
  0
VERTEX
  8
0
 62
7
  6
CONTINUOUS
 10
97.4061393273
 20
88.6316275077
  0
VERTEX
  8
0
 62
7
  6
CONTINUOUS
 10
97.5409023382
 20
88.6443716512
  0
VERTEX
  8
0
 62
7
  6
CONTINUOUS
 10
97.6746805839
 20
88.667275521
  0
VERTEX
  8
0
 62
7
  6
CONTINUOUS
 10
97.8056664463
 20
88.6999888305
  0
VERTEX
  8
0
 62
7
  6
CONTINUOUS
 10
97.9321529605
 20
88.7417953333
  0
VERTEX
  8
0
 62
7
  6
CONTINUOUS
 10
98.0525902157
 20
88.7916392549
  0
VERTEX
  8
0
 62
7
  6
CONTINUOUS
 10
98.1656377345
 20
88.8481666585
  0
VERTEX
  8
0
 62
7
  6
CONTINUOUS
 10
98.2702932577
 20
88.9098355338
  0
VERTEX
  8
0
 62
7
  6
CONTINUOUS
 10
98.3665431526
 20
88.9754771148
  0
VERTEX
  8
0
 62
7
  6
CONTINUOUS
 10
98.4548393672
 20
89.0442785177
  0
VERTEX
  8
0
 62
7
  6
CONTINUOUS
 10
98.5356634581
 20
89.1155829385
  0
VERTEX
  8
0
 62
7
  6
CONTINUOUS
 10
98.6094939523
 20
89.1888637886
  0
VERTEX
  8
0
 62
7
  6
CONTINUOUS
 10
98.6766546533
 20
89.2635448067
  0
VERTEX
  8
0
 62
7
  6
CONTINUOUS
 10
98.7373588209
 20
89.3389597734
  0
VERTEX
  8
0
 62
7
  6
CONTINUOUS
 10
98.7918639079
 20
89.4144888748
  0
VERTEX
  8
0
 62
7
  6
CONTINUOUS
 10
98.8404786186
 20
89.4895827724
  0
VERTEX
  8
0
 62
7
  6
CONTINUOUS
 10
98.8834984443
 20
89.5636712306
  0
VERTEX
  8
0
 62
7
  6
CONTINUOUS
 10
98.9212033262
 20
89.6361283164
  0
VERTEX
  8
0
 62
7
  6
CONTINUOUS
 10
98.9539330946
 20
89.7064015064
  0
VERTEX
  8
0
 62
7
  6
CONTINUOUS
 10
98.9820432654
 20
89.7739457492
  0
VERTEX
  8
0
 62
7
  6
CONTINUOUS
 10
99.0057524949
 20
89.8377905958
  0
VERTEX
  8
0
 62
7
  6
CONTINUOUS
 10
99.0252641021
 20
89.8966742919
  0
VERTEX
  8
0
 62
7
  6
CONTINUOUS
 10
99.0409745008
 20
89.9496986238
  0
VERTEX
  8
0
 62
7
  6
CONTINUOUS
 10
99.0535080202
 20
89.9968257012
  0
VERTEX
  8
0
 62
7
  6
CONTINUOUS
 10
99.0636865999
 20
90.0393012326
  0
VERTEX
  8
0
 62
7
  6
CONTINUOUS
 10
99.0721349991
 20
90.0783447997
  0
VERTEX
  8
0
 62
7
  6
CONTINUOUS
 10
99.0792742315
 20
90.1148680542
  0
VERTEX
  8
0
 62
7
  6
CONTINUOUS
 10
99.0853041839
 20
90.1490236731
  0
VERTEX
  8
0
 62
7
  6
CONTINUOUS
 10
99.090359916
 20
90.1807087135
  0
VERTEX
  8
0
 62
7
  6
CONTINUOUS
 10
99.0945919894
 20
90.2099938514
  0
VERTEX
  8
0
 62
7
  6
CONTINUOUS
 10
99.0981536291
 20
90.2371221965
  0
VERTEX
  8
0
 62
7
  6
CONTINUOUS
 10
99.1011830414
 20
90.2624269015
  0
VERTEX
  8
0
 62
7
  6
CONTINUOUS
 10
99.1037927309
 20
90.2862361614
  0
VERTEX
  8
0
 62
7
  6
CONTINUOUS
 10
99.1060751835
 20
90.3088858112
  0
VERTEX
  8
0
 62
7
  6
CONTINUOUS
 10
99.1081065924
 20
90.3307233809
  0
VERTEX
  8
0
 62
7
  6
CONTINUOUS
 10
99.1099446923
 20
90.3520481781
  0
VERTEX
  8
0
 62
7
  6
CONTINUOUS
 10
99.1116329234
 20
90.3731117995
  0
VERTEX
  8
0
 62
7
  6
CONTINUOUS
 10
99.1132039429
 20
90.3941227836
  0
VERTEX
  8
0
 62
7
  6
CONTINUOUS
 10
99.1146825937
 20
90.4152557757
  0
VERTEX
  8
0
 62
7
  6
CONTINUOUS
 10
99.1174343362
 20
90.4584482122
  0
SEQEND
  0
POLYLINE
  8
0
 62
7
  6
CONTINUOUS
 66
1
 70
0
  0
VERTEX
  8
0
 62
7
  6
CONTINUOUS
 10
63.7339759156
 20
88.6287334813
  0
VERTEX
  8
0
 62
7
  6
CONTINUOUS
 10
63.835974018
 20
88.6316240737
  0
VERTEX
  8
0
 62
7
  6
CONTINUOUS
 10
63.9706855832
 20
88.6443567951
  0
VERTEX
  8
0
 62
7
  6
CONTINUOUS
 10
64.1044117764
 20
88.6672410151
  0
VERTEX
  8
0
 62
7
  6
CONTINUOUS
 10
64.2353479026
 20
88.6999268088
  0
VERTEX
  8
0
 62
7
  6
CONTINUOUS
 10
64.3617897116
 20
88.741699095
  0
VERTEX
  8
0
 62
7
  6
CONTINUOUS
 10
64.4821896351
 20
88.7915039914
  0
VERTEX
  8
0
 62
7
  6
CONTINUOUS
 10
64.5952090484
 20
88.8479900635
  0
VERTEX
  8
0
 62
7
  6
CONTINUOUS
 10
64.6998457258
 20
88.9096174387
  0
VERTEX
  8
0
 62
7
  6
CONTINUOUS
 10
64.7960830325
 20
88.9752172353
  0
VERTEX
  8
0
 62
7
  6
CONTINUOUS
 10
64.8843718655
 20
89.0439768905
  0
VERTEX
  8
0
 62
7
  6
CONTINUOUS
 10
64.9651929229
 20
89.1152397231
  0
VERTEX
  8
0
 62
7
  6
CONTINUOUS
 10
65.0390242026
 20
89.1884792925
  0
VERTEX
  8
0
 62
7
  6
CONTINUOUS
 10
65.1061902603
 20
89.2631208924
  0
VERTEX
  8
0
 62
7
  6
CONTINUOUS
 10
65.1669041702
 20
89.3384992517
  0
VERTEX
  8
0
 62
7
  6
CONTINUOUS
 10
65.2214229742
 20
89.413995321
  0
VERTEX
  8
0
 62
7
  6
CONTINUOUS
 10
65.2700546621
 20
89.4890600685
  0
VERTEX
  8
0
 62
7
  6
CONTINUOUS
 10
65.3130944174
 20
89.5631242156
  0
VERTEX
  8
0
 62
7
  6
CONTINUOUS
 10
65.3508208181
 20
89.6355609182
  0
VERTEX
  8
0
 62
7
  6
CONTINUOUS
 10
65.3835726615
 20
89.7058167329
  0
VERTEX
  8
0
 62
7
  6
CONTINUOUS
 10
65.4117052951
 20
89.7733472869
  0
VERTEX
  8
0
 62
7
  6
CONTINUOUS
 10
65.4354399431
 20
89.8371913672
  0
VERTEX
  8
0
 62
7
  6
CONTINUOUS
 10
65.4549799242
 20
89.896092879
  0
VERTEX
  8
0
 62
7
  6
CONTINUOUS
 10
65.4707202021
 20
89.9491550369
  0
VERTEX
  8
0
 62
7
  6
CONTINUOUS
 10
65.4832801174
 20
89.9963249521
  0
VERTEX
  8
0
 62
7
  6
CONTINUOUS
 10
65.4934794385
 20
90.0388360148
  0
VERTEX
  8
0
 62
7
  6
CONTINUOUS
 10
65.5019436448
 20
90.0779049753
  0
VERTEX
  8
0
 62
7
  6
CONTINUOUS
 10
65.5090952186
 20
90.1144453094
  0
VERTEX
  8
0
 62
7
  6
CONTINUOUS
 10
65.5151363903
 20
90.148619772
  0
VERTEX
  8
0
 62
7
  6
CONTINUOUS
 10
65.5202022956
 20
90.1803259331
  0
VERTEX
  8
0
 62
7
  6
CONTINUOUS
 10
65.5244434388
 20
90.2096338142
  0
VERTEX
  8
0
 62
7
  6
CONTINUOUS
 10
65.5280128753
 20
90.2367843133
  0
VERTEX
  8
0
 62
7
  6
CONTINUOUS
 10
65.5310488701
 20
90.2621093911
  0
VERTEX
  8
0
 62
7
  6
CONTINUOUS
 10
65.5336640669
 20
90.2859366117
  0
VERTEX
  8
0
 62
7
  6
CONTINUOUS
 10
65.535951046
 20
90.3086008055
  0
VERTEX
  8
0
 62
7
  6
CONTINUOUS
 10
65.5379862036
 20
90.33044971
  0
VERTEX
  8
0
 62
7
  6
CONTINUOUS
 10
65.5398274613
 20
90.3517831622
  0
VERTEX
  8
0
 62
7
  6
CONTINUOUS
 10
65.5415184011
 20
90.3728532437
  0
VERTEX
  8
0
 62
7
  6
CONTINUOUS
 10
65.5430917887
 20
90.3938689396
  0
VERTEX
  8
0
 62
7
  6
CONTINUOUS
 10
65.5445725525
 20
90.4150053419
  0
VERTEX
  8
0
 62
7
  6
CONTINUOUS
 10
65.5473279803
 20
90.4582019271
  0
SEQEND
  0
LINE
  8
SURFACE
 62
7
  6
CONTINUOUS
 10
230.9840807981
 20
88.6287333312
 11
218.436023914
 21
88.6287333312
  0
LINE
  8
SURFACE
 62
7
  6
CONTINUOUS
 10
197.5640807981
 20
88.6287333312
 11
185.016023914
 21
88.6287333312
  0
LINE
  8
SURFACE
 62
7
  6
CONTINUOUS
 10
164.1440807981
 20
88.6287333312
 11
151.596023914
 21
88.6287333312
  0
LINE
  8
0
 62
7
  6
CONTINUOUS
 10
63.7339759606
 20
88.6287333312
 11
51.115052356
 21
88.6287333312
  0
LINE
  8
0
 62
7
  6
CONTINUOUS
 10
84.756023914
 20
88.6287333312
 11
97.3040807981
 21
88.6287333312
  0
LINE
  8
0
 62
7
  6
CONTINUOUS
 10
118.176023914
 20
88.6287333312
 11
130.7240807981
 21
88.6287333312
  0
POLYLINE
  8
0
 62
7
  6
CONTINUOUS
 66
1
 70
0
  0
VERTEX
  8
0
 62
7
  6
CONTINUOUS
 10
83.2077818187
 20
157.227528688
  0
VERTEX
  8
0
 62
7
  6
CONTINUOUS
 10
83.1106362809
 20
157.4001226444
  0
VERTEX
  8
0
 62
7
  6
CONTINUOUS
 10
83.0156129489
 20
157.5959554973
  0
VERTEX
  8
0
 62
7
  6
CONTINUOUS
 10
82.928763312
 20
157.8045070075
  0
VERTEX
  8
0
 62
7
  6
CONTINUOUS
 10
82.8498751514
 20
158.0260187519
  0
VERTEX
  8
0
 62
7
  6
CONTINUOUS
 10
82.7789324139
 20
158.2606388794
  0
VERTEX
  8
0
 62
7
  6
CONTINUOUS
 10
82.7160730143
 20
158.5082247537
  0
VERTEX
  8
0
 62
7
  6
CONTINUOUS
 10
82.661367345
 20
158.7689786635
  0
VERTEX
  8
0
 62
7
  6
CONTINUOUS
 10
82.6148866766
 20
159.0433082205
  0
VERTEX
  8
0
 62
7
  6
CONTINUOUS
 10
82.5767385454
 20
159.3316142052
  0
VERTEX
  8
0
 62
7
  6
CONTINUOUS
 10
82.5470210398
 20
159.6344805719
  0
VERTEX
  8
0
 62
7
  6
CONTINUOUS
 10
82.5258257438
 20
159.9526354232
  0
VERTEX
  8
0
 62
7
  6
CONTINUOUS
 10
82.5132380328
 20
160.2866835026
  0
VERTEX
  8
0
 62
7
  6
CONTINUOUS
 10
82.5092753526
 20
160.6227459683
  0
SEQEND
  0
POLYLINE
  8
0
 62
7
  6
CONTINUOUS
 66
1
 70
0
  0
VERTEX
  8
0
 62
7
  6
CONTINUOUS
 10
116.3633592271
 20
90.4471379077
  0
VERTEX
  8
0
 62
7
  6
CONTINUOUS
 10
116.3650099798
 20
90.4213952072
  0
VERTEX
  8
0
 62
7
  6
CONTINUOUS
 10
116.3667184705
 20
90.3966548305
  0
VERTEX
  8
0
 62
7
  6
CONTINUOUS
 10
116.3685061147
 20
90.3726683836
  0
VERTEX
  8
0
 62
7
  6
CONTINUOUS
 10
116.3704057449
 20
90.3491042267
  0
VERTEX
  8
0
 62
7
  6
CONTINUOUS
 10
116.3724611932
 20
90.3255936516
  0
VERTEX
  8
0
 62
7
  6
CONTINUOUS
 10
116.374729448
 20
90.301741134
  0
VERTEX
  8
0
 62
7
  6
CONTINUOUS
 10
116.3772781098
 20
90.2771812082
  0
VERTEX
  8
0
 62
7
  6
CONTINUOUS
 10
116.3801934871
 20
90.2515240973
  0
VERTEX
  8
0
 62
7
  6
CONTINUOUS
 10
116.3835882261
 20
90.2243346018
  0
VERTEX
  8
0
 62
7
  6
CONTINUOUS
 10
116.3876067268
 20
90.1951466056
  0
VERTEX
  8
0
 62
7
  6
CONTINUOUS
 10
116.3924334803
 20
90.1634640156
  0
VERTEX
  8
0
 62
7
  6
CONTINUOUS
 10
116.3982923485
 20
90.1288244863
  0
VERTEX
  8
0
 62
7
  6
CONTINUOUS
 10
116.4053563029
 20
90.0912887351
  0
VERTEX
  8
0
 62
7
  6
CONTINUOUS
 10
116.4137056515
 20
90.0514123591
  0
VERTEX
  8
0
 62
7
  6
CONTINUOUS
 10
116.4233650971
 20
90.0098473815
  0
VERTEX
  8
0
 62
7
  6
CONTINUOUS
 10
116.4347329632
 20
89.9656741655
  0
VERTEX
  8
0
 62
7
  6
CONTINUOUS
 10
116.4486195675
 20
89.916980209
  0
VERTEX
  8
0
 62
7
  6
CONTINUOUS
 10
116.4661427474
 20
89.8617590469
  0
VERTEX
  8
0
 62
7
  6
CONTINUOUS
 10
116.4880741413
 20
89.799956699
  0
VERTEX
  8
0
 62
7
  6
CONTINUOUS
 10
116.5148410814
 20
89.7327139115
  0
VERTEX
  8
0
 62
7
  6
CONTINUOUS
 10
116.5467740507
 20
89.661262198
  0
VERTEX
  8
0
 62
7
  6
CONTINUOUS
 10
116.5845249755
 20
89.5860319361
  0
VERTEX
  8
0
 62
7
  6
CONTINUOUS
 10
116.628838732
 20
89.5074163895
  0
VERTEX
  8
0
 62
7
  6
CONTINUOUS
 10
116.6804581886
 20
89.4259762228
  0
VERTEX
  8
0
 62
7
  6
CONTINUOUS
 10
116.7401001916
 20
89.3424421965
  0
VERTEX
  8
0
 62
7
  6
CONTINUOUS
 10
116.8085338744
 20
89.2575911125
  0
VERTEX
  8
0
 62
7
  6
CONTINUOUS
 10
116.8868461489
 20
89.1720119887
  0
VERTEX
  8
0
 62
7
  6
CONTINUOUS
 10
116.9761082177
 20
89.0866157914
  0
VERTEX
  8
0
 62
7
  6
CONTINUOUS
 10
117.0759618833
 20
89.0037013408
  0
VERTEX
  8
0
 62
7
  6
CONTINUOUS
 10
117.1848369496
 20
88.9260009005
  0
VERTEX
  8
0
 62
7
  6
CONTINUOUS
 10
117.3006246553
 20
88.8557854167
  0
VERTEX
  8
0
 62
7
  6
CONTINUOUS
 10
117.4212604261
 20
88.7945112457
  0
VERTEX
  8
0
 62
7
  6
CONTINUOUS
 10
117.5458962904
 20
88.7425615499
  0
VERTEX
  8
0
 62
7
  6
CONTINUOUS
 10
117.6739270554
 20
88.7001371474
  0
VERTEX
  8
0
 62
7
  6
CONTINUOUS
 10
117.8047476309
 20
88.6674179044
  0
VERTEX
  8
0
 62
7
  6
CONTINUOUS
 10
117.9377530979
 20
88.6445644893
  0
VERTEX
  8
0
 62
7
  6
CONTINUOUS
 10
118.0723331682
 20
88.6317208934
  0
VERTEX
  8
0
 62
7
  6
CONTINUOUS
 10
118.1760239603
 20
88.6287334813
  0
SEQEND
  0
POLYLINE
  8
0
 62
7
  6
CONTINUOUS
 66
1
 70
0
  0
VERTEX
  8
0
 62
7
  6
CONTINUOUS
 10
115.5623228903
 20
113.5299379723
  0
VERTEX
  8
0
 62
7
  6
CONTINUOUS
 10
115.6594684177
 20
113.3573440451
  0
VERTEX
  8
0
 62
7
  6
CONTINUOUS
 10
115.7544917469
 20
113.1615112009
  0
VERTEX
  8
0
 62
7
  6
CONTINUOUS
 10
115.8413413938
 20
112.9529596705
  0
VERTEX
  8
0
 62
7
  6
CONTINUOUS
 10
115.9202295601
 20
112.7314479177
  0
VERTEX
  8
0
 62
7
  6
CONTINUOUS
 10
115.9911722912
 20
112.4968278015
  0
VERTEX
  8
0
 62
7
  6
CONTINUOUS
 10
116.054031697
 20
112.2492419022
  0
VERTEX
  8
0
 62
7
  6
CONTINUOUS
 10
116.108737366
 20
111.9884880039
  0
VERTEX
  8
0
 62
7
  6
CONTINUOUS
 10
116.1552180379
 20
111.7141584271
  0
VERTEX
  8
0
 62
7
  6
CONTINUOUS
 10
116.1933661683
 20
111.4258524356
  0
VERTEX
  8
0
 62
7
  6
CONTINUOUS
 10
116.2230836704
 20
111.1229860998
  0
VERTEX
  8
0
 62
7
  6
CONTINUOUS
 10
116.2442789677
 20
110.8048312486
  0
VERTEX
  8
0
 62
7
  6
CONTINUOUS
 10
116.2568666793
 20
110.4707831709
  0
VERTEX
  8
0
 62
7
  6
CONTINUOUS
 10
116.2608293594
 20
110.1347207133
  0
SEQEND
  0
POLYLINE
  8
0
 62
7
  6
CONTINUOUS
 66
1
 70
0
  0
VERTEX
  8
0
 62
7
  6
CONTINUOUS
 10
115.8267454842
 20
180.3103287663
  0
VERTEX
  8
0
 62
7
  6
CONTINUOUS
 10
115.8250947308
 20
180.3360714764
  0
VERTEX
  8
0
 62
7
  6
CONTINUOUS
 10
115.8233862398
 20
180.3608118552
  0
VERTEX
  8
0
 62
7
  6
CONTINUOUS
 10
115.821598596
 20
180.3847982948
  0
VERTEX
  8
0
 62
7
  6
CONTINUOUS
 10
115.8196989643
 20
180.4083624702
  0
VERTEX
  8
0
 62
7
  6
CONTINUOUS
 10
115.817643514
 20
180.431873065
  0
VERTEX
  8
0
 62
7
  6
CONTINUOUS
 10
115.8153752574
 20
180.4557255948
  0
VERTEX
  8
0
 62
7
  6
CONTINUOUS
 10
115.8128265947
 20
180.4802855235
  0
VERTEX
  8
0
 62
7
  6
CONTINUOUS
 10
115.8099112178
 20
180.5059426249
  0
VERTEX
  8
0
 62
7
  6
CONTINUOUS
 10
115.8065164816
 20
180.5331320938
  0
VERTEX
  8
0
 62
7
  6
CONTINUOUS
 10
115.8024979745
 20
180.5623201319
  0
VERTEX
  8
0
 62
7
  6
CONTINUOUS
 10
115.7976712131
 20
180.5940027638
  0
VERTEX
  8
0
 62
7
  6
CONTINUOUS
 10
115.7918123361
 20
180.6286423307
  0
VERTEX
  8
0
 62
7
  6
CONTINUOUS
 10
115.7847483728
 20
180.6661781105
  0
VERTEX
  8
0
 62
7
  6
CONTINUOUS
 10
115.7763990164
 20
180.7060545029
  0
VERTEX
  8
0
 62
7
  6
CONTINUOUS
 10
115.7667395639
 20
180.7476194888
  0
VERTEX
  8
0
 62
7
  6
CONTINUOUS
 10
115.7553716894
 20
180.7917927156
  0
VERTEX
  8
0
 62
7
  6
CONTINUOUS
 10
115.7414850732
 20
180.8404866904
  0
VERTEX
  8
0
 62
7
  6
CONTINUOUS
 10
115.7239618765
 20
180.8957078781
  0
VERTEX
  8
0
 62
7
  6
CONTINUOUS
 10
115.7020304637
 20
180.9575102482
  0
VERTEX
  8
0
 62
7
  6
CONTINUOUS
 10
115.6752634915
 20
181.0247530813
  0
VERTEX
  8
0
 62
7
  6
CONTINUOUS
 10
115.6433304771
 20
181.0962048543
  0
VERTEX
  8
0
 62
7
  6
CONTINUOUS
 10
115.6055795005
 20
181.1714351714
  0
VERTEX
  8
0
 62
7
  6
CONTINUOUS
 10
115.5612656838
 20
181.2500507699
  0
VERTEX
  8
0
 62
7
  6
CONTINUOUS
 10
115.5096461586
 20
181.3314909834
  0
VERTEX
  8
0
 62
7
  6
CONTINUOUS
 10
115.4500040803
 20
181.4150250476
  0
VERTEX
  8
0
 62
7
  6
CONTINUOUS
 10
115.3815703132
 20
181.4998761621
  0
VERTEX
  8
0
 62
7
  6
CONTINUOUS
 10
115.3032579344
 20
181.5854553187
  0
VERTEX
  8
0
 62
7
  6
CONTINUOUS
 10
115.2139957326
 20
181.670851552
  0
VERTEX
  8
0
 62
7
  6
CONTINUOUS
 10
115.1141419306
 20
181.7537660149
  0
VERTEX
  8
0
 62
7
  6
CONTINUOUS
 10
115.0052667592
 20
181.8314664235
  0
VERTEX
  8
0
 62
7
  6
CONTINUOUS
 10
114.88947902
 20
181.9016818227
  0
VERTEX
  8
0
 62
7
  6
CONTINUOUS
 10
114.7688433065
 20
181.9629558691
  0
VERTEX
  8
0
 62
7
  6
CONTINUOUS
 10
114.6442075727
 20
182.0149054298
  0
VERTEX
  8
0
 62
7
  6
CONTINUOUS
 10
114.5161769889
 20
182.057329709
  0
VERTEX
  8
0
 62
7
  6
CONTINUOUS
 10
114.3853566187
 20
182.0900488555
  0
VERTEX
  8
0
 62
7
  6
CONTINUOUS
 10
114.2523513519
 20
182.1129022081
  0
VERTEX
  8
0
 62
7
  6
CONTINUOUS
 10
114.1177714461
 20
182.1257457746
  0
VERTEX
  8
0
 62
7
  6
CONTINUOUS
 10
114.0140807535
 20
182.128733181
  0
SEQEND
  0
LINE
  8
0
 62
7
  6
CONTINUOUS
 10
116.3601714426
 20
90.5024729514
 11
116.3633592271
 21
90.4471379077
  0
LINE
  8
0
 62
7
  6
CONTINUOUS
 10
115.8299332701
 20
180.2549936972
 11
115.8267454842
 21
180.3103287663
  0
LINE
  8
0
 62
7
  6
CONTINUOUS
 10
116.3570599934
 20
90.5643316414
 11
116.3601714426
 21
90.5024729514
  0
LINE
  8
0
 62
7
  6
CONTINUOUS
 10
115.83304472
 20
180.1931349927
 11
115.8299332701
 21
180.2549936972
  0
LINE
  8
0
 62
7
  6
CONTINUOUS
 10
116.3539536053
 20
90.6345214197
 11
116.3570599934
 21
90.5643316414
  0
LINE
  8
0
 62
7
  6
CONTINUOUS
 10
115.8361511092
 20
180.1229451832
 11
115.83304472
 21
180.1931349927
  0
LINE
  8
0
 62
7
  6
CONTINUOUS
 10
116.3507997197
 20
90.7149872887
 11
116.3539536053
 21
90.6345214197
  0
LINE
  8
0
 62
7
  6
CONTINUOUS
 10
115.8393049958
 20
180.0424792828
 11
115.8361511092
 21
180.1229451832
  0
LINE
  8
0
 62
7
  6
CONTINUOUS
 10
116.3458263597
 20
90.8618955582
 11
116.3507997197
 21
90.7149872887
  0
LINE
  8
0
 62
7
  6
CONTINUOUS
 10
115.8442783575
 20
179.8955709381
 11
115.8393049958
 21
180.0424792828
  0
LINE
  8
0
 62
7
  6
CONTINUOUS
 10
116.3404862256
 20
91.0486004091
 11
116.3458263597
 21
90.8618955582
  0
LINE
  8
0
 62
7
  6
CONTINUOUS
 10
115.8496184936
 20
179.7088659827
 11
115.8442783575
 21
179.8955709381
  0
LINE
  8
0
 62
7
  6
CONTINUOUS
 10
116.3329897225
 20
91.3650389477
 11
116.3404862256
 21
91.0486004091
  0
LINE
  8
0
 62
7
  6
CONTINUOUS
 10
115.8571149992
 20
179.3924272638
 11
115.8496184936
 21
179.7088659827
  0
LINE
  8
0
 62
7
  6
CONTINUOUS
 10
116.3252098264
 20
91.7664620261
 11
116.3329897225
 21
91.3650389477
  0
LINE
  8
0
 62
7
  6
CONTINUOUS
 10
115.8648948976
 20
178.9910039557
 11
115.8571149992
 21
179.3924272638
  0
LINE
  8
0
 62
7
  6
CONTINUOUS
 10
116.3172780842
 20
92.260979537
 11
116.3252098264
 21
91.7664620261
  0
LINE
  8
0
 62
7
  6
CONTINUOUS
 10
115.8728266421
 20
178.4964861485
 11
115.8648948976
 21
178.9910039557
  0
LINE
  8
0
 62
7
  6
CONTINUOUS
 10
116.3092444374
 20
92.862047772
 11
116.3172780842
 21
92.260979537
  0
LINE
  8
0
 62
7
  6
CONTINUOUS
 10
115.8808602915
 20
177.8954175163
 11
115.8728266421
 21
178.4964861485
  0
LINE
  8
0
 62
7
  6
CONTINUOUS
 10
116.301171609
 20
93.5860511826
 11
116.3092444374
 21
92.862047772
  0
LINE
  8
0
 62
7
  6
CONTINUOUS
 10
115.8889331225
 20
177.171413566
 11
115.8808602915
 21
177.8954175163
  0
LINE
  8
0
 62
7
  6
CONTINUOUS
 10
116.2931413683
 20
94.4538572459
 11
116.301171609
 21
93.5860511826
  0
LINE
  8
0
 62
7
  6
CONTINUOUS
 10
115.8969633657
 20
176.3036068128
 11
115.8889331225
 21
177.171413566
  0
LINE
  8
0
 62
7
  6
CONTINUOUS
 10
116.2872059944
 20
95.216421082
 11
116.2931413683
 21
94.4538572459
  0
LINE
  8
0
 62
7
  6
CONTINUOUS
 10
115.9028987411
 20
175.5410423149
 11
115.8969633657
 21
176.3036068128
  0
LINE
  8
0
 62
7
  6
CONTINUOUS
 10
116.2813497094
 20
96.1034444762
 11
116.2872059944
 21
95.216421082
  0
LINE
  8
0
 62
7
  6
CONTINUOUS
 10
115.9087550279
 20
174.6540179939
 11
115.9028987411
 21
175.5410423149
  0
LINE
  8
0
 62
7
  6
CONTINUOUS
 10
116.275552202
 20
97.167340396
 11
116.2813497094
 21
96.1034444762
  0
LINE
  8
0
 62
7
  6
CONTINUOUS
 10
115.9145525377
 20
173.5901206111
 11
115.9087550279
 21
174.6540179939
  0
LINE
  8
0
 62
7
  6
CONTINUOUS
 10
115.9183336624
 20
172.7474412933
 11
115.9145525377
 21
173.5901206111
  0
LINE
  8
0
 62
7
  6
CONTINUOUS
 10
116.2717710787
 20
98.0100182665
 11
116.275552202
 21
97.167340396
  0
LINE
  8
0
 62
7
  6
CONTINUOUS
 10
115.9218671609
 20
171.7889978751
 11
115.9183336624
 21
172.7474412933
  0
LINE
  8
0
 62
7
  6
CONTINUOUS
 10
116.268237581
 20
98.9684597106
 11
116.2717710787
 21
98.0100182665
  0
LINE
  8
0
 62
7
  6
CONTINUOUS
 10
115.9249909208
 20
170.6974853244
 11
115.9218671609
 21
171.7889978751
  0
LINE
  8
0
 62
7
  6
CONTINUOUS
 10
116.2651138135
 20
100.0599722191
 11
116.268237581
 21
98.9684597106
  0
LINE
  8
0
 62
7
  6
CONTINUOUS
 10
115.9273852075
 20
169.5116312758
 11
115.9249909208
 21
170.6974853244
  0
LINE
  8
0
 62
7
  6
CONTINUOUS
 10
116.2627195147
 20
101.2458290208
 11
116.2651138135
 21
100.0599722191
  0
LINE
  8
0
 62
7
  6
CONTINUOUS
 10
115.9288075882
 20
168.3179218547
 11
115.9273852075
 21
169.5116312758
  0
LINE
  8
0
 62
7
  6
CONTINUOUS
 10
116.2612971267
 20
102.4395411885
 11
116.2627195147
 21
101.2458290208
  0
LINE
  8
0
 62
7
  6
CONTINUOUS
 10
115.9292754528
 20
167.1287333312
 11
115.9288075882
 21
168.3179218547
  0
LINE
  8
0
 62
7
  6
CONTINUOUS
 10
116.2608292592
 20
103.6287333312
 11
116.2612971267
 21
102.4395411885
  0
LINE
  8
0
 62
7
  6
CONTINUOUS
 10
115.9292754529
 20
160.6227459683
 11
115.9292754529
 21
167.1287333312
  0
LINE
  8
0
 62
7
  6
CONTINUOUS
 10
116.2608292591
 20
110.1347207133
 11
116.2608292591
 21
103.6287333312
  0
POLYLINE
  8
0
 62
7
  6
CONTINUOUS
 66
1
 70
0
  0
VERTEX
  8
0
 62
7
  6
CONTINUOUS
 10
99.9177819291
 20
113.5299382414
  0
VERTEX
  8
0
 62
7
  6
CONTINUOUS
 10
99.9653833172
 20
113.6067179566
  0
VERTEX
  8
0
 62
7
  6
CONTINUOUS
 10
100.0235522747
 20
113.6954249175
  0
VERTEX
  8
0
 62
7
  6
CONTINUOUS
 10
100.0809030902
 20
113.777267295
  0
VERTEX
  8
0
 62
7
  6
CONTINUOUS
 10
100.1380294795
 20
113.8531938159
  0
VERTEX
  8
0
 62
7
  6
CONTINUOUS
 10
100.1955485363
 20
113.9239877981
  0
VERTEX
  8
0
 62
7
  6
CONTINUOUS
 10
100.2539680878
 20
113.9900982276
  0
VERTEX
  8
0
 62
7
  6
CONTINUOUS
 10
100.3134935104
 20
114.0514908481
  0
VERTEX
  8
0
 62
7
  6
CONTINUOUS
 10
100.3741959086
 20
114.1079325793
  0
VERTEX
  8
0
 62
7
  6
CONTINUOUS
 10
100.4360340579
 20
114.1590697949
  0
VERTEX
  8
0
 62
7
  6
CONTINUOUS
 10
100.4989832112
 20
114.2045672569
  0
VERTEX
  8
0
 62
7
  6
CONTINUOUS
 10
100.5630019682
 20
114.244082044
  0
VERTEX
  8
0
 62
7
  6
CONTINUOUS
 10
100.6273445563
 20
114.2769713771
  0
VERTEX
  8
0
 62
7
  6
CONTINUOUS
 10
100.6917350696
 20
114.3031093811
  0
VERTEX
  8
0
 62
7
  6
CONTINUOUS
 10
100.7560516819
 20
114.3225934071
  0
VERTEX
  8
0
 62
7
  6
CONTINUOUS
 10
100.8194384769
 20
114.3355455085
  0
VERTEX
  8
0
 62
7
  6
CONTINUOUS
 10
100.8814434805
 20
114.3425007705
  0
VERTEX
  8
0
 62
7
  6
CONTINUOUS
 10
100.9319232206
 20
114.3442106209
  0
SEQEND
  0
LINE
  8
DEFAULT_1
 62
2
  6
CENTER
 10
47.315052356
 20
103.6287333312
 11
242.1806619256
 21
103.6287333312
  0
POLYLINE
  8
0
 62
7
  6
CONTINUOUS
 66
1
 70
0
  0
VERTEX
  8
0
 62
7
  6
CONTINUOUS
 10
132.2723227677
 20
157.2275283956
  0
VERTEX
  8
0
 62
7
  6
CONTINUOUS
 10
132.224721393
 20
157.1507486974
  0
VERTEX
  8
0
 62
7
  6
CONTINUOUS
 10
132.1665524395
 20
157.0620417376
  0
VERTEX
  8
0
 62
7
  6
CONTINUOUS
 10
132.1092016257
 20
156.9801993709
  0
VERTEX
  8
0
 62
7
  6
CONTINUOUS
 10
132.0520752343
 20
156.9042728529
  0
VERTEX
  8
0
 62
7
  6
CONTINUOUS
 10
131.9945561749
 20
156.8334788625
  0
VERTEX
  8
0
 62
7
  6
CONTINUOUS
 10
131.9361366379
 20
156.7673684427
  0
VERTEX
  8
0
 62
7
  6
CONTINUOUS
 10
131.8766112271
 20
156.7059758376
  0
VERTEX
  8
0
 62
7
  6
CONTINUOUS
 10
131.815908818
 20
156.6495341018
  0
VERTEX
  8
0
 62
7
  6
CONTINUOUS
 10
131.7540706509
 20
156.5983968675
  0
VERTEX
  8
0
 62
7
  6
CONTINUOUS
 10
131.6911214982
 20
156.5528994
  0
VERTEX
  8
0
 62
7
  6
CONTINUOUS
 10
131.6271027434
 20
156.5133846094
  0
VERTEX
  8
0
 62
7
  6
CONTINUOUS
 10
131.5627601566
 20
156.4804952747
  0
VERTEX
  8
0
 62
7
  6
CONTINUOUS
 10
131.4983696427
 20
156.4543572705
  0
VERTEX
  8
0
 62
7
  6
CONTINUOUS
 10
131.4340530299
 20
156.434873245
  0
VERTEX
  8
0
 62
7
  6
CONTINUOUS
 10
131.3706662342
 20
156.4219211436
  0
VERTEX
  8
0
 62
7
  6
CONTINUOUS
 10
131.3086612321
 20
156.4149658816
  0
VERTEX
  8
0
 62
7
  6
CONTINUOUS
 10
131.2581814923
 20
156.4132560312
  0
SEQEND
  0
POLYLINE
  8
0
 62
7
  6
CONTINUOUS
 66
1
 70
0
  0
VERTEX
  8
0
 62
7
  6
CONTINUOUS
 10
81.1281815338
 20
114.3442106218
  0
VERTEX
  8
0
 62
7
  6
CONTINUOUS
 10
81.177772313
 20
114.3425609456
  0
VERTEX
  8
0
 62
7
  6
CONTINUOUS
 10
81.2397497191
 20
114.3356886903
  0
VERTEX
  8
0
 62
7
  6
CONTINUOUS
 10
81.3031106022
 20
114.3228307501
  0
VERTEX
  8
0
 62
7
  6
CONTINUOUS
 10
81.367408471
 20
114.3034488193
  0
VERTEX
  8
0
 62
7
  6
CONTINUOUS
 10
81.4317896703
 20
114.277415384
  0
VERTEX
  8
0
 62
7
  6
CONTINUOUS
 10
81.4961306031
 20
114.2446297451
  0
VERTEX
  8
0
 62
7
  6
CONTINUOUS
 10
81.5601570423
 20
114.2052130209
  0
VERTEX
  8
0
 62
7
  6
CONTINUOUS
 10
81.6231207009
 20
114.1598054739
  0
VERTEX
  8
0
 62
7
  6
CONTINUOUS
 10
81.6849760567
 20
114.1087514869
  0
VERTEX
  8
0
 62
7
  6
CONTINUOUS
 10
81.7456950615
 20
114.052388828
  0
VERTEX
  8
0
 62
7
  6
CONTINUOUS
 10
81.8052326472
 20
113.9910755447
  0
VERTEX
  8
0
 62
7
  6
CONTINUOUS
 10
81.8636563369
 20
113.9250503251
  0
VERTEX
  8
0
 62
7
  6
CONTINUOUS
 10
81.9211697849
 20
113.8543521151
  0
VERTEX
  8
0
 62
7
  6
CONTINUOUS
 10
81.9782834659
 20
113.7785318965
  0
VERTEX
  8
0
 62
7
  6
CONTINUOUS
 10
82.0356159481
 20
113.6968063064
  0
VERTEX
  8
0
 62
7
  6
CONTINUOUS
 10
82.0937635117
 20
113.6082246362
  0
VERTEX
  8
0
 62
7
  6
CONTINUOUS
 10
82.1423229196
 20
113.5299379901
  0
SEQEND
  0
POLYLINE
  8
0
 62
7
  6
CONTINUOUS
 66
1
 70
0
  0
VERTEX
  8
0
 62
7
  6
CONTINUOUS
 10
114.5481815338
 20
114.3442106218
  0
VERTEX
  8
0
 62
7
  6
CONTINUOUS
 10
114.597772313
 20
114.3425609456
  0
VERTEX
  8
0
 62
7
  6
CONTINUOUS
 10
114.6597497191
 20
114.3356886903
  0
VERTEX
  8
0
 62
7
  6
CONTINUOUS
 10
114.7231106022
 20
114.3228307501
  0
VERTEX
  8
0
 62
7
  6
CONTINUOUS
 10
114.787408471
 20
114.3034488193
  0
VERTEX
  8
0
 62
7
  6
CONTINUOUS
 10
114.8517896703
 20
114.277415384
  0
VERTEX
  8
0
 62
7
  6
CONTINUOUS
 10
114.9161306031
 20
114.2446297451
  0
VERTEX
  8
0
 62
7
  6
CONTINUOUS
 10
114.9801570423
 20
114.2052130209
  0
VERTEX
  8
0
 62
7
  6
CONTINUOUS
 10
115.0431207009
 20
114.1598054739
  0
VERTEX
  8
0
 62
7
  6
CONTINUOUS
 10
115.1049760567
 20
114.1087514869
  0
VERTEX
  8
0
 62
7
  6
CONTINUOUS
 10
115.1656950615
 20
114.052388828
  0
VERTEX
  8
0
 62
7
  6
CONTINUOUS
 10
115.2252326472
 20
113.9910755448
  0
VERTEX
  8
0
 62
7
  6
CONTINUOUS
 10
115.2836563369
 20
113.9250503251
  0
VERTEX
  8
0
 62
7
  6
CONTINUOUS
 10
115.3411697849
 20
113.8543521151
  0
VERTEX
  8
0
 62
7
  6
CONTINUOUS
 10
115.3982834659
 20
113.7785318965
  0
VERTEX
  8
0
 62
7
  6
CONTINUOUS
 10
115.4556159481
 20
113.6968063064
  0
VERTEX
  8
0
 62
7
  6
CONTINUOUS
 10
115.5137635117
 20
113.6082246362
  0
VERTEX
  8
0
 62
7
  6
CONTINUOUS
 10
115.5623229196
 20
113.5299379901
  0
SEQEND
  0
LINE
  8
0
 62
7
  6
CONTINUOUS
 10
132.6388651455
 20
102.5149529261
 11
132.6392754529
 21
110.1347207196
  0
LINE
  8
0
 62
7
  6
CONTINUOUS
 10
132.9712395672
 20
168.2425146851
 11
132.9708292591
 21
160.6227459076
  0
LINE
  8
0
 62
7
  6
CONTINUOUS
 10
132.6377280313
 20
101.4711112887
 11
132.6388651455
 21
102.5149529261
  0
LINE
  8
0
 62
7
  6
CONTINUOUS
 10
132.972376683
 20
169.2863569493
 11
132.9712395672
 21
168.2425146851
  0
LINE
  8
0
 62
7
  6
CONTINUOUS
 10
132.6349834619
 20
100.0569350338
 11
132.6377280313
 21
101.4711112887
  0
LINE
  8
0
 62
7
  6
CONTINUOUS
 10
132.9751212561
 20
170.7005340546
 11
132.972376683
 21
169.2863569493
  0
LINE
  8
0
 62
7
  6
CONTINUOUS
 10
132.6313393467
 20
98.8110086514
 11
132.6349834619
 21
100.0569350338
  0
LINE
  8
0
 62
7
  6
CONTINUOUS
 10
132.978765376
 20
171.9464611525
 11
132.9751212561
 21
170.7005340546
  0
LINE
  8
0
 62
7
  6
CONTINUOUS
 10
132.6255225984
 20
97.3698478098
 11
132.6313393467
 21
98.8110086514
  0
LINE
  8
0
 62
7
  6
CONTINUOUS
 10
132.984582132
 20
173.3876227719
 11
132.978765376
 21
171.9464611525
  0
LINE
  8
0
 62
7
  6
CONTINUOUS
 10
132.9911095492
 20
174.6141221434
 11
132.984582132
 21
173.3876227719
  0
LINE
  8
0
 62
7
  6
CONTINUOUS
 10
132.6189951887
 20
96.1433488242
 11
132.6255225984
 21
97.3698478098
  0
LINE
  8
0
 62
7
  6
CONTINUOUS
 10
132.9995440076
 20
175.8557035836
 11
132.9911095492
 21
174.6141221434
  0
LINE
  8
0
 62
7
  6
CONTINUOUS
 10
132.6105607371
 20
94.9017673308
 11
132.6189951887
 21
96.1433488242
  0
LINE
  8
0
 62
7
  6
CONTINUOUS
 10
133.0096065689
 20
177.0149642991
 11
132.9995440076
 21
175.8557035836
  0
LINE
  8
0
 62
7
  6
CONTINUOUS
 10
132.6004981833
 20
93.7425064465
 11
132.6105607371
 21
94.9017673308
  0
POLYLINE
  8
0
 62
7
  6
CONTINUOUS
 66
1
 70
0
  0
VERTEX
  8
0
 62
7
  6
CONTINUOUS
 10
132.9708293588
 20
160.6227459077
  0
VERTEX
  8
0
 62
7
  6
CONTINUOUS
 10
132.9668974886
 20
160.2879603815
  0
VERTEX
  8
0
 62
7
  6
CONTINUOUS
 10
132.9543433291
 20
159.9538782396
  0
VERTEX
  8
0
 62
7
  6
CONTINUOUS
 10
132.9331828807
 20
159.6356904029
  0
VERTEX
  8
0
 62
7
  6
CONTINUOUS
 10
132.9035014035
 20
159.3327918356
  0
VERTEX
  8
0
 62
7
  6
CONTINUOUS
 10
132.865390367
 20
159.0444537104
  0
VERTEX
  8
0
 62
7
  6
CONTINUOUS
 10
132.8189478425
 20
158.7700916108
  0
VERTEX
  8
0
 62
7
  6
CONTINUOUS
 10
132.7642813482
 20
158.5093042866
  0
VERTEX
  8
0
 62
7
  6
CONTINUOUS
 10
132.7014621202
 20
158.2616834689
  0
VERTEX
  8
0
 62
7
  6
CONTINUOUS
 10
132.6305606414
 20
158.0270267786
  0
VERTEX
  8
0
 62
7
  6
CONTINUOUS
 10
132.551714514
 20
157.8054755371
  0
VERTEX
  8
0
 62
7
  6
CONTINUOUS
 10
132.4649078119
 20
157.5968812455
  0
VERTEX
  8
0
 62
7
  6
CONTINUOUS
 10
132.3699291948
 20
157.4010029891
  0
VERTEX
  8
0
 62
7
  6
CONTINUOUS
 10
132.2723227055
 20
157.2275284332
  0
SEQEND
  0
POLYLINE
  8
0
 62
7
  6
CONTINUOUS
 66
1
 70
0
  0
VERTEX
  8
0
 62
7
  6
CONTINUOUS
 10
132.6392753532
 20
110.1347207195
  0
VERTEX
  8
0
 62
7
  6
CONTINUOUS
 10
132.6432072237
 20
110.4695062575
  0
VERTEX
  8
0
 62
7
  6
CONTINUOUS
 10
132.6557613824
 20
110.8035883997
  0
VERTEX
  8
0
 62
7
  6
CONTINUOUS
 10
132.6769218273
 20
111.1217762333
  0
VERTEX
  8
0
 62
7
  6
CONTINUOUS
 10
132.7066033096
 20
111.4246748598
  0
VERTEX
  8
0
 62
7
  6
CONTINUOUS
 10
132.744714348
 20
111.71301297
  0
VERTEX
  8
0
 62
7
  6
CONTINUOUS
 10
132.7911568652
 20
111.9873750262
  0
VERTEX
  8
0
 62
7
  6
CONTINUOUS
 10
132.8458233564
 20
112.2481623692
  0
VERTEX
  8
0
 62
7
  6
CONTINUOUS
 10
132.9086425704
 20
112.495783128
  0
VERTEX
  8
0
 62
7
  6
CONTINUOUS
 10
132.9795440629
 20
112.7304398473
  0
VERTEX
  8
0
 62
7
  6
CONTINUOUS
 10
133.0583901743
 20
112.9519910648
  0
VERTEX
  8
0
 62
7
  6
CONTINUOUS
 10
133.145196854
 20
113.1605853137
  0
VERTEX
  8
0
 62
7
  6
CONTINUOUS
 10
133.2401754792
 20
113.3564635969
  0
VERTEX
  8
0
 62
7
  6
CONTINUOUS
 10
133.3377819837
 20
113.5299382083
  0
SEQEND
  0
LINE
  8
0
 62
7
  6
CONTINUOUS
 10
133.019655511
 20
177.9288790154
 11
133.0096065689
 21
177.0149642991
  0
LINE
  8
0
 62
7
  6
CONTINUOUS
 10
132.5904492493
 20
92.8285915584
 11
132.6004981833
 21
93.7425064465
  0
LINE
  8
0
 62
7
  6
CONTINUOUS
 10
133.0312279146
 20
178.7541664668
 11
133.019655511
 21
177.9288790154
  0
LINE
  8
0
 62
7
  6
CONTINUOUS
 10
132.5788768542
 20
92.0033037325
 11
132.5904492493
 21
92.8285915584
  0
LINE
  8
0
 62
7
  6
CONTINUOUS
 10
133.0423749752
 20
179.3635082924
 11
133.0312279146
 21
178.7541664668
  0
LINE
  8
0
 62
7
  6
CONTINUOUS
 10
132.5677298006
 20
91.3939613924
 11
132.5788768542
 21
92.0033037325
  0
LINE
  8
0
 62
7
  6
CONTINUOUS
 10
133.0499013592
 20
179.6865140718
 11
133.0423749752
 21
179.3635082924
  0
LINE
  8
0
 62
7
  6
CONTINUOUS
 10
132.5602034183
 20
91.0709551153
 11
132.5677298006
 21
91.3939613924
  0
LINE
  8
0
 62
7
  6
CONTINUOUS
 10
133.0553908058
 20
179.8814914986
 11
133.0499013592
 21
179.6865140718
  0
LINE
  8
0
 62
7
  6
CONTINUOUS
 10
132.5547139697
 20
90.8759772314
 11
132.5602034183
 21
91.0709551153
  0
LINE
  8
0
 62
7
  6
CONTINUOUS
 10
133.0604116673
 20
180.0319133069
 11
133.0553908058
 21
179.8814914986
  0
LINE
  8
0
 62
7
  6
CONTINUOUS
 10
132.5496931074
 20
90.7255550744
 11
132.5547139697
 21
90.8759772314
  0
LINE
  8
0
 62
7
  6
CONTINUOUS
 10
133.0640213859
 20
180.1245708665
 11
133.0604116673
 21
180.0319133069
  0
LINE
  8
0
 62
7
  6
CONTINUOUS
 10
132.5460833907
 20
90.6328973411
 11
132.5496931074
 21
90.7255550744
  0
LINE
  8
0
 62
7
  6
CONTINUOUS
 10
133.0676356092
 20
180.2051972185
 11
133.0640213859
 21
180.1245708665
  0
LINE
  8
0
 62
7
  6
CONTINUOUS
 10
132.5424691715
 20
90.5522708663
 11
132.5460833907
 21
90.6328973411
  0
LINE
  8
0
 62
7
  6
CONTINUOUS
 10
133.0701015589
 20
180.2536923827
 11
133.0676356092
 21
180.2051972185
  0
LINE
  8
0
 62
7
  6
CONTINUOUS
 10
132.5400032257
 20
90.5037756319
 11
132.5424691715
 21
90.5522708663
  0
LINE
  8
0
 62
7
  6
CONTINUOUS
 10
133.0726704547
 20
180.2990197662
 11
133.0701015589
 21
180.2536923827
  0
LINE
  8
0
 62
7
  6
CONTINUOUS
 10
132.5374343362
 20
90.4584482122
 11
132.5400032257
 21
90.5037756319
  0
LINE
  8
SURFACE
 62
7
  6
CONTINUOUS
 10
247.915052356
 20
114.3442106797
 11
234.6119231915
 21
114.3442106797
  0
LINE
  8
0
 62
7
  6
CONTINUOUS
 10
67.1188194921
 20
114.3442106797
 11
81.1281815337
 21
114.3442106797
  0
LINE
  8
0
 62
7
  6
CONTINUOUS
 10
100.9319232206
 20
114.3442106797
 11
114.5481815337
 21
114.3442106797
  0
LINE
  8
0
 62
7
  6
CONTINUOUS
 10
134.3519232206
 20
114.3442106797
 11
147.9681815337
 21
114.3442106797
  0
LINE
  8
SURFACE
 62
7
  6
CONTINUOUS
 10
167.7719232197
 20
114.3442106797
 11
181.388181536
 21
114.3442106797
  0
LINE
  8
SURFACE
 62
7
  6
CONTINUOUS
 10
201.1919232197
 20
114.3442106797
 11
214.808181536
 21
114.3442106797
  0
POLYLINE
  8
0
 62
7
  6
CONTINUOUS
 66
1
 70
0
  0
VERTEX
  8
0
 62
7
  6
CONTINUOUS
 10
147.9681815338
 20
114.3442106218
  0
VERTEX
  8
0
 62
7
  6
CONTINUOUS
 10
148.0177722762
 20
114.342560948
  0
VERTEX
  8
0
 62
7
  6
CONTINUOUS
 10
148.0797496395
 20
114.3356887027
  0
VERTEX
  8
0
 62
7
  6
CONTINUOUS
 10
148.1431104883
 20
114.3228307787
  0
VERTEX
  8
0
 62
7
  6
CONTINUOUS
 10
148.2074083266
 20
114.3034488702
  0
VERTEX
  8
0
 62
7
  6
CONTINUOUS
 10
148.2717894947
 20
114.2774154641
  0
VERTEX
  8
0
 62
7
  6
CONTINUOUS
 10
148.3361303899
 20
114.2446298651
  0
VERTEX
  8
0
 62
7
  6
CONTINUOUS
 10
148.4001567832
 20
114.2052131941
  0
VERTEX
  8
0
 62
7
  6
CONTINUOUS
 10
148.4631203866
 20
114.159805717
  0
VERTEX
  8
0
 62
7
  6
CONTINUOUS
 10
148.5249756822
 20
114.1087518155
  0
VERTEX
  8
0
 62
7
  6
CONTINUOUS
 10
148.5856946387
 20
114.0523892422
  0
VERTEX
  8
0
 62
7
  6
CONTINUOUS
 10
148.6452322006
 20
113.9910760272
  0
VERTEX
  8
0
 62
7
  6
CONTINUOUS
 10
148.7036559012
 20
113.9250508392
  0
VERTEX
  8
0
 62
7
  6
CONTINUOUS
 10
148.7611693981
 20
113.8543526096
  0
VERTEX
  8
0
 62
7
  6
CONTINUOUS
 10
148.8182831549
 20
113.7785323246
  0
VERTEX
  8
0
 62
7
  6
CONTINUOUS
 10
148.8756157306
 20
113.696806627
  0
VERTEX
  8
0
 62
7
  6
CONTINUOUS
 10
148.9337633945
 20
113.6082248204
  0
VERTEX
  8
0
 62
7
  6
CONTINUOUS
 10
148.9823229196
 20
113.5299379901
  0
SEQEND
  0
POLYLINE
  8
SURFACE
 62
7
  6
CONTINUOUS
 66
1
 70
0
  0
VERTEX
  8
SURFACE
 62
7
  6
CONTINUOUS
 10
181.388181536
 20
114.344210632
  0
VERTEX
  8
SURFACE
 62
7
  6
CONTINUOUS
 10
181.4377723156
 20
114.3425609556
  0
VERTEX
  8
SURFACE
 62
7
  6
CONTINUOUS
 10
181.4997497211
 20
114.3356887
  0
VERTEX
  8
SURFACE
 62
7
  6
CONTINUOUS
 10
181.5631106056
 20
114.3228307594
  0
VERTEX
  8
SURFACE
 62
7
  6
CONTINUOUS
 10
181.6274084758
 20
114.3034488284
  0
VERTEX
  8
SURFACE
 62
7
  6
CONTINUOUS
 10
181.6917896764
 20
114.2774153919
  0
VERTEX
  8
SURFACE
 62
7
  6
CONTINUOUS
 10
181.7561306087
 20
114.2446297507
  0
VERTEX
  8
SURFACE
 62
7
  6
CONTINUOUS
 10
181.8201570462
 20
114.205213022
  0
VERTEX
  8
SURFACE
 62
7
  6
CONTINUOUS
 10
181.8831207048
 20
114.1598054683
  0
VERTEX
  8
SURFACE
 62
7
  6
CONTINUOUS
 10
181.944976079
 20
114.1087514613
  0
VERTEX
  8
SURFACE
 62
7
  6
CONTINUOUS
 10
182.0056950953
 20
114.0523887965
  0
VERTEX
  8
SURFACE
 62
7
  6
CONTINUOUS
 10
182.0652326696
 20
113.9910755274
  0
VERTEX
  8
SURFACE
 62
7
  6
CONTINUOUS
 10
182.123656345
 20
113.9250503162
  0
VERTEX
  8
SURFACE
 62
7
  6
CONTINUOUS
 10
182.1811697966
 20
113.8543520961
  0
VERTEX
  8
SURFACE
 62
7
  6
CONTINUOUS
 10
182.2382834803
 20
113.778531878
  0
VERTEX
  8
SURFACE
 62
7
  6
CONTINUOUS
 10
182.2956159609
 20
113.6968062976
  0
VERTEX
  8
SURFACE
 62
7
  6
CONTINUOUS
 10
182.3537635214
 20
113.6082246267
  0
VERTEX
  8
SURFACE
 62
7
  6
CONTINUOUS
 10
182.4023229196
 20
113.5299379903
  0
SEQEND
  0
POLYLINE
  8
SURFACE
 62
7
  6
CONTINUOUS
 66
1
 70
0
  0
VERTEX
  8
SURFACE
 62
7
  6
CONTINUOUS
 10
214.808181536
 20
114.344210632
  0
VERTEX
  8
SURFACE
 62
7
  6
CONTINUOUS
 10
214.8577723156
 20
114.3425609556
  0
VERTEX
  8
SURFACE
 62
7
  6
CONTINUOUS
 10
214.9197497211
 20
114.3356887
  0
VERTEX
  8
SURFACE
 62
7
  6
CONTINUOUS
 10
214.9831106056
 20
114.3228307594
  0
VERTEX
  8
SURFACE
 62
7
  6
CONTINUOUS
 10
215.0474084758
 20
114.3034488284
  0
VERTEX
  8
SURFACE
 62
7
  6
CONTINUOUS
 10
215.1117896764
 20
114.2774153919
  0
VERTEX
  8
SURFACE
 62
7
  6
CONTINUOUS
 10
215.1761306087
 20
114.2446297507
  0
VERTEX
  8
SURFACE
 62
7
  6
CONTINUOUS
 10
215.2401570462
 20
114.205213022
  0
VERTEX
  8
SURFACE
 62
7
  6
CONTINUOUS
 10
215.3031207048
 20
114.1598054683
  0
VERTEX
  8
SURFACE
 62
7
  6
CONTINUOUS
 10
215.364976079
 20
114.1087514613
  0
VERTEX
  8
SURFACE
 62
7
  6
CONTINUOUS
 10
215.4256950953
 20
114.0523887965
  0
VERTEX
  8
SURFACE
 62
7
  6
CONTINUOUS
 10
215.4852326696
 20
113.9910755274
  0
VERTEX
  8
SURFACE
 62
7
  6
CONTINUOUS
 10
215.543656345
 20
113.9250503162
  0
VERTEX
  8
SURFACE
 62
7
  6
CONTINUOUS
 10
215.6011697966
 20
113.8543520961
  0
VERTEX
  8
SURFACE
 62
7
  6
CONTINUOUS
 10
215.6582834803
 20
113.778531878
  0
VERTEX
  8
SURFACE
 62
7
  6
CONTINUOUS
 10
215.7156159609
 20
113.6968062976
  0
VERTEX
  8
SURFACE
 62
7
  6
CONTINUOUS
 10
215.7737635214
 20
113.6082246267
  0
VERTEX
  8
SURFACE
 62
7
  6
CONTINUOUS
 10
215.8223229196
 20
113.5299379902
  0
SEQEND
  0
POLYLINE
  8
0
 62
7
  6
CONTINUOUS
 66
1
 70
0
  0
VERTEX
  8
0
 62
7
  6
CONTINUOUS
 10
116.6277818187
 20
157.227528688
  0
VERTEX
  8
0
 62
7
  6
CONTINUOUS
 10
116.5306362809
 20
157.4001226444
  0
VERTEX
  8
0
 62
7
  6
CONTINUOUS
 10
116.4356129489
 20
157.5959554973
  0
VERTEX
  8
0
 62
7
  6
CONTINUOUS
 10
116.348763312
 20
157.8045070075
  0
VERTEX
  8
0
 62
7
  6
CONTINUOUS
 10
116.2698751514
 20
158.0260187519
  0
VERTEX
  8
0
 62
7
  6
CONTINUOUS
 10
116.1989324139
 20
158.2606388795
  0
VERTEX
  8
0
 62
7
  6
CONTINUOUS
 10
116.1360730143
 20
158.5082247537
  0
VERTEX
  8
0
 62
7
  6
CONTINUOUS
 10
116.081367345
 20
158.7689786635
  0
VERTEX
  8
0
 62
7
  6
CONTINUOUS
 10
116.0348866766
 20
159.0433082205
  0
VERTEX
  8
0
 62
7
  6
CONTINUOUS
 10
115.9967385454
 20
159.3316142052
  0
VERTEX
  8
0
 62
7
  6
CONTINUOUS
 10
115.9670210398
 20
159.6344805719
  0
VERTEX
  8
0
 62
7
  6
CONTINUOUS
 10
115.9458257438
 20
159.9526354232
  0
VERTEX
  8
0
 62
7
  6
CONTINUOUS
 10
115.9332380328
 20
160.2866835026
  0
VERTEX
  8
0
 62
7
  6
CONTINUOUS
 10
115.9292753526
 20
160.6227459683
  0
SEQEND
  0
POLYLINE
  8
0
 62
7
  6
CONTINUOUS
 66
1
 70
0
  0
VERTEX
  8
0
 62
7
  6
CONTINUOUS
 10
148.9823228903
 20
113.5299379723
  0
VERTEX
  8
0
 62
7
  6
CONTINUOUS
 10
149.0748034582
 20
113.3662221498
  0
VERTEX
  8
0
 62
7
  6
CONTINUOUS
 10
149.1673872844
 20
113.1772201897
  0
VERTEX
  8
0
 62
7
  6
CONTINUOUS
 10
149.252725132
 20
112.9751383815
  0
VERTEX
  8
0
 62
7
  6
CONTINUOUS
 10
149.3306738093
 20
112.7602338927
  0
VERTEX
  8
0
 62
7
  6
CONTINUOUS
 10
149.400997647
 20
112.5330090171
  0
VERTEX
  8
0
 62
7
  6
CONTINUOUS
 10
149.4634663819
 20
112.2941457189
  0
VERTEX
  8
0
 62
7
  6
CONTINUOUS
 10
149.5150520723
 20
112.0588216718
  0
SEQEND
  0
POLYLINE
  8
SURFACE
 62
7
  6
CONTINUOUS
 66
1
 70
0
  0
VERTEX
  8
SURFACE
 62
7
  6
CONTINUOUS
 10
149.7833592278
 20
90.447137896
  0
VERTEX
  8
SURFACE
 62
7
  6
CONTINUOUS
 10
149.7850099813
 20
90.4213951859
  0
VERTEX
  8
SURFACE
 62
7
  6
CONTINUOUS
 10
149.7867184722
 20
90.3966548071
  0
VERTEX
  8
SURFACE
 62
7
  6
CONTINUOUS
 10
149.788506116
 20
90.3726683675
  0
VERTEX
  8
SURFACE
 62
7
  6
CONTINUOUS
 10
149.7904057477
 20
90.3491041921
  0
VERTEX
  8
SURFACE
 62
7
  6
CONTINUOUS
 10
149.792461198
 20
90.3255935973
  0
VERTEX
  8
SURFACE
 62
7
  6
CONTINUOUS
 10
149.7947294546
 20
90.3017410675
  0
VERTEX
  8
SURFACE
 62
7
  6
CONTINUOUS
 10
149.7972781174
 20
90.2771811388
  0
VERTEX
  8
SURFACE
 62
7
  6
CONTINUOUS
 10
149.8001934943
 20
90.2515240374
  0
VERTEX
  8
SURFACE
 62
7
  6
CONTINUOUS
 10
149.8035882304
 20
90.2243345685
  0
VERTEX
  8
SURFACE
 62
7
  6
CONTINUOUS
 10
149.8076067375
 20
90.1951465304
  0
VERTEX
  8
SURFACE
 62
7
  6
CONTINUOUS
 10
149.8124334989
 20
90.1634638985
  0
VERTEX
  8
SURFACE
 62
7
  6
CONTINUOUS
 10
149.818292376
 20
90.1288243316
  0
VERTEX
  8
SURFACE
 62
7
  6
CONTINUOUS
 10
149.8253563392
 20
90.0912885518
  0
VERTEX
  8
SURFACE
 62
7
  6
CONTINUOUS
 10
149.8337056957
 20
90.0514121594
  0
VERTEX
  8
SURFACE
 62
7
  6
CONTINUOUS
 10
149.8433651481
 20
90.0098471735
  0
VERTEX
  8
SURFACE
 62
7
  6
CONTINUOUS
 10
149.8547330226
 20
89.9656739467
  0
VERTEX
  8
SURFACE
 62
7
  6
CONTINUOUS
 10
149.8686196388
 20
89.9169799719
  0
VERTEX
  8
SURFACE
 62
7
  6
CONTINUOUS
 10
149.8861428356
 20
89.8617587842
  0
VERTEX
  8
SURFACE
 62
7
  6
CONTINUOUS
 10
149.9080742483
 20
89.7999564141
  0
VERTEX
  8
SURFACE
 62
7
  6
CONTINUOUS
 10
149.9348412206
 20
89.732713581
  0
VERTEX
  8
SURFACE
 62
7
  6
CONTINUOUS
 10
149.966774235
 20
89.661261808
  0
VERTEX
  8
SURFACE
 62
7
  6
CONTINUOUS
 10
150.0045252116
 20
89.5860314909
  0
VERTEX
  8
SURFACE
 62
7
  6
CONTINUOUS
 10
150.0488390283
 20
89.5074158924
  0
VERTEX
  8
SURFACE
 62
7
  6
CONTINUOUS
 10
150.1004585535
 20
89.4259756789
  0
VERTEX
  8
SURFACE
 62
7
  6
CONTINUOUS
 10
150.1601006318
 20
89.3424416147
  0
VERTEX
  8
SURFACE
 62
7
  6
CONTINUOUS
 10
150.2285343988
 20
89.2575905002
  0
VERTEX
  8
SURFACE
 62
7
  6
CONTINUOUS
 10
150.3068467777
 20
89.1720113436
  0
VERTEX
  8
SURFACE
 62
7
  6
CONTINUOUS
 10
150.3961089795
 20
89.0866151103
  0
VERTEX
  8
SURFACE
 62
7
  6
CONTINUOUS
 10
150.4959627815
 20
89.0037006474
  0
VERTEX
  8
SURFACE
 62
7
  6
CONTINUOUS
 10
150.6048379529
 20
88.9260002388
  0
VERTEX
  8
SURFACE
 62
7
  6
CONTINUOUS
 10
150.720625692
 20
88.8557848396
  0
VERTEX
  8
SURFACE
 62
7
  6
CONTINUOUS
 10
150.8412614055
 20
88.7945107932
  0
VERTEX
  8
SURFACE
 62
7
  6
CONTINUOUS
 10
150.9658971393
 20
88.7425612325
  0
VERTEX
  8
SURFACE
 62
7
  6
CONTINUOUS
 10
151.0939277231
 20
88.7001369533
  0
VERTEX
  8
SURFACE
 62
7
  6
CONTINUOUS
 10
151.2247480933
 20
88.6674178068
  0
VERTEX
  8
SURFACE
 62
7
  6
CONTINUOUS
 10
151.3577533602
 20
88.6445644542
  0
VERTEX
  8
SURFACE
 62
7
  6
CONTINUOUS
 10
151.4923332659
 20
88.6317208877
  0
VERTEX
  8
SURFACE
 62
7
  6
CONTINUOUS
 10
151.5960239586
 20
88.6287334813
  0
SEQEND
  0
LINE
  8
SURFACE
 62
7
  6
CONTINUOUS
 10
149.7801714419
 20
90.5024729651
 11
149.7833592278
 21
90.447137896
  0
LINE
  8
SURFACE
 62
7
  6
CONTINUOUS
 10
149.777059992
 20
90.5643316696
 11
149.7801714419
 21
90.5024729651
  0
LINE
  8
SURFACE
 62
7
  6
CONTINUOUS
 10
149.7739536028
 20
90.6345214791
 11
149.777059992
 21
90.5643316696
  0
LINE
  8
SURFACE
 62
7
  6
CONTINUOUS
 10
149.7707997163
 20
90.7149873795
 11
149.7739536028
 21
90.6345214791
  0
LINE
  8
SURFACE
 62
7
  6
CONTINUOUS
 10
149.7658263545
 20
90.8618957242
 11
149.7707997163
 21
90.7149873795
  0
LINE
  8
SURFACE
 62
7
  6
CONTINUOUS
 10
149.7604862185
 20
91.0486006796
 11
149.7658263545
 21
90.8618957242
  0
LINE
  8
0
 62
7
  6
CONTINUOUS
 10
149.2752084448
 20
179.4791882101
 11
149.2678052789
 21
179.775740994
  0
LINE
  8
SURFACE
 62
7
  6
CONTINUOUS
 10
149.7529897129
 20
91.3650393985
 11
149.7604862185
 21
91.0486006796
  0
LINE
  8
0
 62
7
  6
CONTINUOUS
 10
149.2829319912
 20
179.0997164031
 11
149.2752084448
 21
179.4791882101
  0
LINE
  8
SURFACE
 62
7
  6
CONTINUOUS
 10
149.7452098144
 20
91.7664627066
 11
149.7529897129
 21
91.3650393985
  0
LINE
  8
0
 62
7
  6
CONTINUOUS
 10
149.2908324284
 20
178.6295114858
 11
149.2829319912
 21
179.0997164031
  0
LINE
  8
SURFACE
 62
7
  6
CONTINUOUS
 10
149.7372780699
 20
92.2609805138
 11
149.7452098144
 21
91.7664627066
  0
LINE
  8
0
 62
7
  6
CONTINUOUS
 10
149.2988453262
 20
178.0565208331
 11
149.2908324284
 21
178.6295114858
  0
LINE
  8
SURFACE
 62
7
  6
CONTINUOUS
 10
149.7292444206
 20
92.862049146
 11
149.7372780699
 21
92.2609805138
  0
LINE
  8
0
 62
7
  6
CONTINUOUS
 10
149.3069150723
 20
177.3650069629
 11
149.2988453262
 21
178.0565208331
  0
LINE
  8
SURFACE
 62
7
  6
CONTINUOUS
 10
149.7211715895
 20
93.5860530964
 11
149.7292444206
 21
92.862049146
  0
LINE
  8
0
 62
7
  6
CONTINUOUS
 10
149.3149661682
 20
176.5353111944
 11
149.3069150723
 21
177.3650069629
  0
LINE
  8
SURFACE
 62
7
  6
CONTINUOUS
 10
149.7131413464
 20
94.4538598495
 11
149.7211715895
 21
93.5860530964
  0
LINE
  8
SURFACE
 62
7
  6
CONTINUOUS
 10
149.7072059709
 20
95.2164243474
 11
149.7131413464
 21
94.4538598495
  0
LINE
  8
0
 62
7
  6
CONTINUOUS
 10
149.3228987411
 20
175.5410423149
 11
149.3149661682
 21
176.5353111944
  0
LINE
  8
SURFACE
 62
7
  6
CONTINUOUS
 10
149.7013496841
 20
96.1034486684
 11
149.7072059709
 21
95.2164243474
  0
LINE
  8
0
 62
7
  6
CONTINUOUS
 10
149.3287550279
 20
174.6540179939
 11
149.3228987411
 21
175.5410423149
  0
LINE
  8
SURFACE
 62
7
  6
CONTINUOUS
 10
149.6955521743
 20
97.1673460512
 11
149.7013496841
 21
96.1034486684
  0
LINE
  8
0
 62
7
  6
CONTINUOUS
 10
149.3345525377
 20
173.5901206111
 11
149.3287550279
 21
174.6540179939
  0
LINE
  8
0
 62
7
  6
CONTINUOUS
 10
149.3383336624
 20
172.7474412933
 11
149.3345525377
 21
173.5901206111
  0
LINE
  8
SURFACE
 62
7
  6
CONTINUOUS
 10
149.6917710496
 20
98.010025369
 11
149.6955521743
 21
97.1673460512
  0
LINE
  8
0
 62
7
  6
CONTINUOUS
 10
149.3418671609
 20
171.788997875
 11
149.3383336624
 21
172.7474412933
  0
LINE
  8
SURFACE
 62
7
  6
CONTINUOUS
 10
149.6882375512
 20
98.9684687873
 11
149.6917710496
 21
98.010025369
  0
LINE
  8
0
 62
7
  6
CONTINUOUS
 10
149.3449909208
 20
170.6974853244
 11
149.3418671609
 21
171.788997875
  0
LINE
  8
SURFACE
 62
7
  6
CONTINUOUS
 10
149.6851137912
 20
100.0599813379
 11
149.6882375512
 21
98.9684687873
  0
LINE
  8
0
 62
7
  6
CONTINUOUS
 10
149.3473852075
 20
169.5116312758
 11
149.3449909208
 21
170.6974853244
  0
LINE
  8
SURFACE
 62
7
  6
CONTINUOUS
 10
149.6827195045
 20
101.2458353865
 11
149.6851137912
 21
100.0599813379
  0
LINE
  8
0
 62
7
  6
CONTINUOUS
 10
149.3488075882
 20
168.3179218547
 11
149.3473852075
 21
169.5116312758
  0
LINE
  8
SURFACE
 62
7
  6
CONTINUOUS
 10
149.6812971238
 20
102.4395448076
 11
149.6827195045
 21
101.2458353865
  0
LINE
  8
0
 62
7
  6
CONTINUOUS
 10
149.3492754528
 20
167.1287333312
 11
149.3488075882
 21
168.3179218547
  0
LINE
  8
SURFACE
 62
7
  6
CONTINUOUS
 10
149.6808292592
 20
103.6287333312
 11
149.6812971238
 21
102.4395448076
  0
LINE
  8
0
 62
7
  6
CONTINUOUS
 10
149.3492754529
 20
160.6227459683
 11
149.3492754529
 21
167.1287333312
  0
LINE
  8
DEFAULT_1
 62
2
  6
CENTER
 10
149.515052356
 20
140.6287333312
 11
149.515052356
 21
137.3788333312
  0
LINE
  8
0
 62
2
  6
CONTINUOUS
 10
149.515052356
 20
136.4287333312
 11
149.515052356
 21
134.3287333312
  0
LINE
  8
DEFAULT_1
 62
2
  6
CENTER
 10
149.515052356
 20
130.1287333312
 11
149.515052356
 21
133.3786333312
  0
LINE
  8
SURFACE
 62
7
  6
CONTINUOUS
 10
149.6808292591
 20
110.134720694
 11
149.6808292591
 21
103.6287333312
  0
POLYLINE
  8
0
 62
7
  6
CONTINUOUS
 66
1
 70
0
  0
VERTEX
  8
0
 62
7
  6
CONTINUOUS
 10
133.3377819291
 20
113.5299382414
  0
VERTEX
  8
0
 62
7
  6
CONTINUOUS
 10
133.3853833172
 20
113.6067179566
  0
VERTEX
  8
0
 62
7
  6
CONTINUOUS
 10
133.4435522747
 20
113.6954249175
  0
VERTEX
  8
0
 62
7
  6
CONTINUOUS
 10
133.5009030902
 20
113.777267295
  0
VERTEX
  8
0
 62
7
  6
CONTINUOUS
 10
133.5580294795
 20
113.8531938159
  0
VERTEX
  8
0
 62
7
  6
CONTINUOUS
 10
133.6155485363
 20
113.9239877981
  0
VERTEX
  8
0
 62
7
  6
CONTINUOUS
 10
133.6739680878
 20
113.9900982276
  0
VERTEX
  8
0
 62
7
  6
CONTINUOUS
 10
133.7334935104
 20
114.051490848
  0
VERTEX
  8
0
 62
7
  6
CONTINUOUS
 10
133.7941959086
 20
114.1079325793
  0
VERTEX
  8
0
 62
7
  6
CONTINUOUS
 10
133.8560340579
 20
114.1590697949
  0
VERTEX
  8
0
 62
7
  6
CONTINUOUS
 10
133.9189832112
 20
114.2045672569
  0
VERTEX
  8
0
 62
7
  6
CONTINUOUS
 10
133.9830019682
 20
114.244082044
  0
VERTEX
  8
0
 62
7
  6
CONTINUOUS
 10
134.0473445563
 20
114.2769713771
  0
VERTEX
  8
0
 62
7
  6
CONTINUOUS
 10
134.1117350696
 20
114.3031093811
  0
VERTEX
  8
0
 62
7
  6
CONTINUOUS
 10
134.1760516819
 20
114.3225934071
  0
VERTEX
  8
0
 62
7
  6
CONTINUOUS
 10
134.2394384769
 20
114.3355455085
  0
VERTEX
  8
0
 62
7
  6
CONTINUOUS
 10
134.3014434805
 20
114.3425007705
  0
VERTEX
  8
0
 62
7
  6
CONTINUOUS
 10
134.3519232206
 20
114.3442106209
  0
SEQEND
  0
LINE
  8
DEFAULT_1
 62
2
  6
CENTER
 10
154.765052356
 20
135.3787333312
 11
151.515152356
 21
135.3787333312
  0
LINE
  8
0
 62
2
  6
CONTINUOUS
 10
150.565052356
 20
135.3787333312
 11
148.465052356
 21
135.3787333312
  0
LINE
  8
DEFAULT_1
 62
2
  6
CENTER
 10
144.265052356
 20
135.3787333312
 11
147.514952356
 21
135.3787333312
  0
POLYLINE
  8
SURFACE
 62
7
  6
CONTINUOUS
 66
1
 70
0
  0
VERTEX
  8
SURFACE
 62
7
  6
CONTINUOUS
 10
149.5150520723
 20
112.0588216747
  0
VERTEX
  8
SURFACE
 62
7
  6
CONTINUOUS
 10
149.5287373719
 20
111.9884879733
  0
VERTEX
  8
SURFACE
 62
7
  6
CONTINUOUS
 10
149.5752180388
 20
111.7141584198
  0
VERTEX
  8
SURFACE
 62
7
  6
CONTINUOUS
 10
149.6133661687
 20
111.425852439
  0
VERTEX
  8
SURFACE
 62
7
  6
CONTINUOUS
 10
149.6430836734
 20
111.1229860762
  0
VERTEX
  8
SURFACE
 62
7
  6
CONTINUOUS
 10
149.6642789687
 20
110.8048312293
  0
VERTEX
  8
SURFACE
 62
7
  6
CONTINUOUS
 10
149.6768666794
 20
110.4707831543
  0
VERTEX
  8
SURFACE
 62
7
  6
CONTINUOUS
 10
149.6808293594
 20
110.134720694
  0
SEQEND
  0
POLYLINE
  8
0
 62
7
  6
CONTINUOUS
 66
1
 70
0
  0
VERTEX
  8
0
 62
7
  6
CONTINUOUS
 10
149.2467454842
 20
180.3103287663
  0
VERTEX
  8
0
 62
7
  6
CONTINUOUS
 10
149.2450947308
 20
180.3360714764
  0
VERTEX
  8
0
 62
7
  6
CONTINUOUS
 10
149.2433862398
 20
180.3608118552
  0
VERTEX
  8
0
 62
7
  6
CONTINUOUS
 10
149.241598596
 20
180.3847982948
  0
VERTEX
  8
0
 62
7
  6
CONTINUOUS
 10
149.2396989643
 20
180.4083624702
  0
VERTEX
  8
0
 62
7
  6
CONTINUOUS
 10
149.237643514
 20
180.431873065
  0
VERTEX
  8
0
 62
7
  6
CONTINUOUS
 10
149.2353752574
 20
180.4557255948
  0
VERTEX
  8
0
 62
7
  6
CONTINUOUS
 10
149.2328265947
 20
180.4802855235
  0
VERTEX
  8
0
 62
7
  6
CONTINUOUS
 10
149.2299112178
 20
180.5059426249
  0
VERTEX
  8
0
 62
7
  6
CONTINUOUS
 10
149.2265164816
 20
180.5331320938
  0
VERTEX
  8
0
 62
7
  6
CONTINUOUS
 10
149.2224979745
 20
180.5623201319
  0
VERTEX
  8
0
 62
7
  6
CONTINUOUS
 10
149.2176712131
 20
180.5940027638
  0
VERTEX
  8
0
 62
7
  6
CONTINUOUS
 10
149.2118123361
 20
180.6286423307
  0
VERTEX
  8
0
 62
7
  6
CONTINUOUS
 10
149.2047483728
 20
180.6661781105
  0
VERTEX
  8
0
 62
7
  6
CONTINUOUS
 10
149.1963990164
 20
180.7060545029
  0
VERTEX
  8
0
 62
7
  6
CONTINUOUS
 10
149.1867395639
 20
180.7476194888
  0
VERTEX
  8
0
 62
7
  6
CONTINUOUS
 10
149.1753716894
 20
180.7917927156
  0
VERTEX
  8
0
 62
7
  6
CONTINUOUS
 10
149.1614850732
 20
180.8404866904
  0
VERTEX
  8
0
 62
7
  6
CONTINUOUS
 10
149.1439618765
 20
180.8957078781
  0
VERTEX
  8
0
 62
7
  6
CONTINUOUS
 10
149.1220304637
 20
180.9575102482
  0
VERTEX
  8
0
 62
7
  6
CONTINUOUS
 10
149.0952634915
 20
181.0247530813
  0
VERTEX
  8
0
 62
7
  6
CONTINUOUS
 10
149.0633304771
 20
181.0962048543
  0
VERTEX
  8
0
 62
7
  6
CONTINUOUS
 10
149.0255795005
 20
181.1714351714
  0
VERTEX
  8
0
 62
7
  6
CONTINUOUS
 10
148.9812656838
 20
181.2500507699
  0
VERTEX
  8
0
 62
7
  6
CONTINUOUS
 10
148.9296461586
 20
181.3314909834
  0
VERTEX
  8
0
 62
7
  6
CONTINUOUS
 10
148.8700040803
 20
181.4150250476
  0
VERTEX
  8
0
 62
7
  6
CONTINUOUS
 10
148.8015703132
 20
181.4998761621
  0
VERTEX
  8
0
 62
7
  6
CONTINUOUS
 10
148.7232579344
 20
181.5854553187
  0
VERTEX
  8
0
 62
7
  6
CONTINUOUS
 10
148.6339957326
 20
181.670851552
  0
VERTEX
  8
0
 62
7
  6
CONTINUOUS
 10
148.5341419306
 20
181.7537660149
  0
VERTEX
  8
0
 62
7
  6
CONTINUOUS
 10
148.4252667592
 20
181.8314664235
  0
VERTEX
  8
0
 62
7
  6
CONTINUOUS
 10
148.30947902
 20
181.9016818227
  0
VERTEX
  8
0
 62
7
  6
CONTINUOUS
 10
148.1888433065
 20
181.9629558691
  0
VERTEX
  8
0
 62
7
  6
CONTINUOUS
 10
148.0642075727
 20
182.0149054298
  0
VERTEX
  8
0
 62
7
  6
CONTINUOUS
 10
147.9361769889
 20
182.057329709
  0
VERTEX
  8
0
 62
7
  6
CONTINUOUS
 10
147.8053566187
 20
182.0900488555
  0
VERTEX
  8
0
 62
7
  6
CONTINUOUS
 10
147.6723513519
 20
182.1129022081
  0
VERTEX
  8
0
 62
7
  6
CONTINUOUS
 10
147.5377714461
 20
182.1257457746
  0
VERTEX
  8
0
 62
7
  6
CONTINUOUS
 10
147.4340807535
 20
182.128733181
  0
SEQEND
  0
LINE
  8
0
 62
7
  6
CONTINUOUS
 10
149.2499332701
 20
180.2549936972
 11
149.2467454842
 21
180.3103287663
  0
LINE
  8
0
 62
7
  6
CONTINUOUS
 10
149.25304472
 20
180.1931349927
 11
149.2499332701
 21
180.2549936972
  0
LINE
  8
0
 62
7
  6
CONTINUOUS
 10
149.2561511092
 20
180.1229451832
 11
149.25304472
 21
180.1931349927
  0
LINE
  8
0
 62
7
  6
CONTINUOUS
 10
149.2593049958
 20
180.0424792828
 11
149.2561511092
 21
180.1229451832
  0
LINE
  8
0
 62
7
  6
CONTINUOUS
 10
149.2642783575
 20
179.8955709381
 11
149.2593049958
 21
180.0424792828
  0
LINE
  8
0
 62
7
  6
CONTINUOUS
 10
149.2678052789
 20
179.775740994
 11
149.2642783575
 21
179.8955709381
  0
POLYLINE
  8
SURFACE
 62
7
  6
CONTINUOUS
 66
1
 70
0
  0
VERTEX
  8
SURFACE
 62
7
  6
CONTINUOUS
 10
165.692322783
 20
157.2275284209
  0
VERTEX
  8
SURFACE
 62
7
  6
CONTINUOUS
 10
165.6447213948
 20
157.1507487057
  0
VERTEX
  8
SURFACE
 62
7
  6
CONTINUOUS
 10
165.5865524374
 20
157.0620417448
  0
VERTEX
  8
SURFACE
 62
7
  6
CONTINUOUS
 10
165.5292016219
 20
156.9801993673
  0
VERTEX
  8
SURFACE
 62
7
  6
CONTINUOUS
 10
165.4720752326
 20
156.9042728464
  0
VERTEX
  8
SURFACE
 62
7
  6
CONTINUOUS
 10
165.4145561758
 20
156.8334788642
  0
VERTEX
  8
SURFACE
 62
7
  6
CONTINUOUS
 10
165.3561366243
 20
156.7673684347
  0
VERTEX
  8
SURFACE
 62
7
  6
CONTINUOUS
 10
165.2966112016
 20
156.7059758143
  0
VERTEX
  8
SURFACE
 62
7
  6
CONTINUOUS
 10
165.2359088034
 20
156.649534083
  0
VERTEX
  8
SURFACE
 62
7
  6
CONTINUOUS
 10
165.1740706541
 20
156.5983968674
  0
VERTEX
  8
SURFACE
 62
7
  6
CONTINUOUS
 10
165.1111215009
 20
156.5528994054
  0
VERTEX
  8
SURFACE
 62
7
  6
CONTINUOUS
 10
165.0471027438
 20
156.5133846184
  0
VERTEX
  8
SURFACE
 62
7
  6
CONTINUOUS
 10
164.9827601557
 20
156.4804952852
  0
VERTEX
  8
SURFACE
 62
7
  6
CONTINUOUS
 10
164.9183696424
 20
156.4543572812
  0
VERTEX
  8
SURFACE
 62
7
  6
CONTINUOUS
 10
164.8540530302
 20
156.4348732552
  0
VERTEX
  8
SURFACE
 62
7
  6
CONTINUOUS
 10
164.7906662351
 20
156.4219211538
  0
VERTEX
  8
SURFACE
 62
7
  6
CONTINUOUS
 10
164.7286612315
 20
156.4149658918
  0
VERTEX
  8
SURFACE
 62
7
  6
CONTINUOUS
 10
164.6781814914
 20
156.4132560414
  0
SEQEND
  0
POLYLINE
  8
0
 62
7
  6
CONTINUOUS
 66
1
 70
0
  0
VERTEX
  8
0
 62
7
  6
CONTINUOUS
 10
149.5150529055
 20
158.6986436588
  0
VERTEX
  8
0
 62
7
  6
CONTINUOUS
 10
149.5013673402
 20
158.768978689
  0
VERTEX
  8
0
 62
7
  6
CONTINUOUS
 10
149.4548866733
 20
159.0433082425
  0
VERTEX
  8
0
 62
7
  6
CONTINUOUS
 10
149.4167385433
 20
159.3316142233
  0
VERTEX
  8
0
 62
7
  6
CONTINUOUS
 10
149.3870210387
 20
159.6344805861
  0
VERTEX
  8
0
 62
7
  6
CONTINUOUS
 10
149.3658257433
 20
159.952635433
  0
VERTEX
  8
0
 62
7
  6
CONTINUOUS
 10
149.3532380327
 20
160.286683508
  0
VERTEX
  8
0
 62
7
  6
CONTINUOUS
 10
149.3492753526
 20
160.6227459683
  0
SEQEND
  0
LINE
  8
SURFACE
 62
7
  6
CONTINUOUS
 10
166.4766824621
 20
179.922665503
 11
166.4713250621
 21
179.7402569037
  0
LINE
  8
SURFACE
 62
7
  6
CONTINUOUS
 10
166.4804116046
 20
180.0319115879
 11
166.4766824621
 21
179.922665503
  0
LINE
  8
SURFACE
 62
7
  6
CONTINUOUS
 10
166.4840213213
 20
180.1245693212
 11
166.4804116046
 21
180.0319115879
  0
LINE
  8
SURFACE
 62
7
  6
CONTINUOUS
 10
166.4876355405
 20
180.205195796
 11
166.4840213213
 21
180.1245693212
  0
LINE
  8
SURFACE
 62
7
  6
CONTINUOUS
 10
166.4901014863
 20
180.2536910304
 11
166.4876355405
 21
180.205195796
  0
LINE
  8
SURFACE
 62
7
  6
CONTINUOUS
 10
166.4926703758
 20
180.2990184501
 11
166.4901014863
 21
180.2536910304
  0
POLYLINE
  8
SURFACE
 62
7
  6
CONTINUOUS
 66
1
 70
0
  0
VERTEX
  8
SURFACE
 62
7
  6
CONTINUOUS
 10
150.0477818217
 20
157.22752869
  0
VERTEX
  8
SURFACE
 62
7
  6
CONTINUOUS
 10
149.9553017877
 20
157.3912435002
  0
VERTEX
  8
SURFACE
 62
7
  6
CONTINUOUS
 10
149.8627183934
 20
157.5802443498
  0
VERTEX
  8
SURFACE
 62
7
  6
CONTINUOUS
 10
149.7773808808
 20
157.7823249595
  0
VERTEX
  8
SURFACE
 62
7
  6
CONTINUOUS
 10
149.6994324467
 20
157.9972281663
  0
VERTEX
  8
SURFACE
 62
7
  6
CONTINUOUS
 10
149.629108763
 20
158.2244516854
  0
VERTEX
  8
SURFACE
 62
7
  6
CONTINUOUS
 10
149.5666400958
 20
158.4633135631
  0
VERTEX
  8
SURFACE
 62
7
  6
CONTINUOUS
 10
149.5150529056
 20
158.6986436611
  0
SEQEND
  0
LINE
  8
SURFACE
 62
7
  6
CONTINUOUS
 10
166.0588651448
 20
102.5149519772
 11
166.0592754529
 21
110.1347207547
  0
LINE
  8
SURFACE
 62
7
  6
CONTINUOUS
 10
166.3912395665
 20
168.2425137362
 11
166.3908292591
 21
160.6227459427
  0
LINE
  8
SURFACE
 62
7
  6
CONTINUOUS
 10
166.057728029
 20
101.471109713
 11
166.0588651448
 21
102.5149519772
  0
LINE
  8
SURFACE
 62
7
  6
CONTINUOUS
 10
166.3923766807
 20
169.2863553736
 11
166.3912395665
 21
168.2425137362
  0
LINE
  8
SURFACE
 62
7
  6
CONTINUOUS
 10
166.0549834559
 20
100.0569326077
 11
166.057728029
 21
101.471109713
  0
LINE
  8
SURFACE
 62
7
  6
CONTINUOUS
 10
166.3951212502
 20
170.7005316285
 11
166.3923766807
 21
169.2863553736
  0
LINE
  8
SURFACE
 62
7
  6
CONTINUOUS
 10
166.051339336
 20
98.8110055098
 11
166.0549834559
 21
100.0569326077
  0
LINE
  8
SURFACE
 62
7
  6
CONTINUOUS
 10
166.3987653653
 20
171.9464580109
 11
166.3951212502
 21
170.7005316285
  0
LINE
  8
SURFACE
 62
7
  6
CONTINUOUS
 10
166.0455225801
 20
97.3698438904
 11
166.051339336
 21
98.8110055098
  0
LINE
  8
SURFACE
 62
7
  6
CONTINUOUS
 10
166.4045821136
 20
173.3876188525
 11
166.3987653653
 21
171.9464580109
  0
LINE
  8
SURFACE
 62
7
  6
CONTINUOUS
 10
166.4111095234
 20
174.6141178381
 11
166.4045821136
 21
173.3876188525
  0
LINE
  8
SURFACE
 62
7
  6
CONTINUOUS
 10
166.0389951629
 20
96.1433445189
 11
166.0455225801
 21
97.3698438904
  0
LINE
  8
SURFACE
 62
7
  6
CONTINUOUS
 10
166.419543975
 20
175.8556993315
 11
166.4111095234
 21
174.6141178381
  0
LINE
  8
SURFACE
 62
7
  6
CONTINUOUS
 10
166.0305607045
 20
94.9017630787
 11
166.0389951629
 21
96.1433445189
  0
LINE
  8
SURFACE
 62
7
  6
CONTINUOUS
 10
166.4296065288
 20
177.0149602158
 11
166.419543975
 21
175.8556993315
  0
LINE
  8
SURFACE
 62
7
  6
CONTINUOUS
 10
166.0204981432
 20
93.7425023632
 11
166.0305607045
 21
94.9017630787
  0
POLYLINE
  8
SURFACE
 62
7
  6
CONTINUOUS
 66
1
 70
0
  0
VERTEX
  8
SURFACE
 62
7
  6
CONTINUOUS
 10
166.3908293588
 20
160.6227459428
  0
VERTEX
  8
SURFACE
 62
7
  6
CONTINUOUS
 10
166.3868974883
 20
160.2879604048
  0
VERTEX
  8
SURFACE
 62
7
  6
CONTINUOUS
 10
166.3743433297
 20
159.9538782626
  0
VERTEX
  8
SURFACE
 62
7
  6
CONTINUOUS
 10
166.3531828847
 20
159.635690429
  0
VERTEX
  8
SURFACE
 62
7
  6
CONTINUOUS
 10
166.3235014025
 20
159.3327918025
  0
VERTEX
  8
SURFACE
 62
7
  6
CONTINUOUS
 10
166.2853903641
 20
159.0444536923
  0
VERTEX
  8
SURFACE
 62
7
  6
CONTINUOUS
 10
166.2389478468
 20
158.7700916361
  0
VERTEX
  8
SURFACE
 62
7
  6
CONTINUOUS
 10
166.1842813556
 20
158.5093042931
  0
VERTEX
  8
SURFACE
 62
7
  6
CONTINUOUS
 10
166.1214621417
 20
158.2616835343
  0
VERTEX
  8
SURFACE
 62
7
  6
CONTINUOUS
 10
166.0505606492
 20
158.027026815
  0
VERTEX
  8
SURFACE
 62
7
  6
CONTINUOUS
 10
165.9717145377
 20
157.8054755975
  0
VERTEX
  8
SURFACE
 62
7
  6
CONTINUOUS
 10
165.8849078581
 20
157.5968813486
  0
VERTEX
  8
SURFACE
 62
7
  6
CONTINUOUS
 10
165.7899292329
 20
157.4010030654
  0
VERTEX
  8
SURFACE
 62
7
  6
CONTINUOUS
 10
165.6923227283
 20
157.227528454
  0
SEQEND
  0
POLYLINE
  8
SURFACE
 62
7
  6
CONTINUOUS
 66
1
 70
0
  0
VERTEX
  8
SURFACE
 62
7
  6
CONTINUOUS
 10
166.0592753532
 20
110.1347207546
  0
VERTEX
  8
SURFACE
 62
7
  6
CONTINUOUS
 10
166.0632072234
 20
110.4695062808
  0
VERTEX
  8
SURFACE
 62
7
  6
CONTINUOUS
 10
166.075761383
 20
110.8035884227
  0
VERTEX
  8
SURFACE
 62
7
  6
CONTINUOUS
 10
166.0969218313
 20
111.1217762594
  0
VERTEX
  8
SURFACE
 62
7
  6
CONTINUOUS
 10
166.1266033086
 20
111.4246748267
  0
VERTEX
  8
SURFACE
 62
7
  6
CONTINUOUS
 10
166.164714345
 20
111.7130129519
  0
VERTEX
  8
SURFACE
 62
7
  6
CONTINUOUS
 10
166.2111568696
 20
111.9873750515
  0
VERTEX
  8
SURFACE
 62
7
  6
CONTINUOUS
 10
166.2658233638
 20
112.2481623757
  0
VERTEX
  8
SURFACE
 62
7
  6
CONTINUOUS
 10
166.3286425918
 20
112.4957831934
  0
VERTEX
  8
SURFACE
 62
7
  6
CONTINUOUS
 10
166.3995440707
 20
112.7304398837
  0
VERTEX
  8
SURFACE
 62
7
  6
CONTINUOUS
 10
166.4783901981
 20
112.9519911252
  0
VERTEX
  8
SURFACE
 62
7
  6
CONTINUOUS
 10
166.5651969002
 20
113.1605854168
  0
VERTEX
  8
SURFACE
 62
7
  6
CONTINUOUS
 10
166.6601755172
 20
113.3564636732
  0
VERTEX
  8
SURFACE
 62
7
  6
CONTINUOUS
 10
166.7577820065
 20
113.5299382291
  0
SEQEND
  0
LINE
  8
SURFACE
 62
7
  6
CONTINUOUS
 10
166.4396554628
 20
177.9288751039
 11
166.4296065288
 21
177.0149602158
  0
LINE
  8
SURFACE
 62
7
  6
CONTINUOUS
 10
166.010449201
 20
92.8285876469
 11
166.0204981432
 21
93.7425023632
  0
LINE
  8
SURFACE
 62
7
  6
CONTINUOUS
 10
166.4512278578
 20
178.7541629298
 11
166.4396554628
 21
177.9288751039
  0
LINE
  8
SURFACE
 62
7
  6
CONTINUOUS
 10
165.9988767975
 20
92.0033001955
 11
166.010449201
 21
92.8285876469
  0
LINE
  8
SURFACE
 62
7
  6
CONTINUOUS
 10
166.4623749115
 20
179.3635052699
 11
166.4512278578
 21
178.7541629298
  0
LINE
  8
SURFACE
 62
7
  6
CONTINUOUS
 10
165.9877297368
 20
91.3939583699
 11
165.9988767975
 21
92.0033001955
  0
LINE
  8
SURFACE
 62
7
  6
CONTINUOUS
 10
165.9802033528
 20
91.0709525905
 11
165.9877297368
 21
91.3939583699
  0
POLYLINE
  8
SURFACE
 62
7
  6
CONTINUOUS
 66
1
 70
0
  0
VERTEX
  8
SURFACE
 62
7
  6
CONTINUOUS
 10
166.4713250621
 20
179.7402569037
  0
VERTEX
  8
SURFACE
 62
7
  6
CONTINUOUS
 10
166.4699012937
 20
179.686511547
  0
VERTEX
  8
SURFACE
 62
7
  6
CONTINUOUS
 10
166.4623749115
 20
179.3635052699
  0
SEQEND
  0
LINE
  8
SURFACE
 62
7
  6
CONTINUOUS
 10
165.9747139062
 20
90.8759751637
 11
165.9802033528
 21
91.0709525905
  0
LINE
  8
SURFACE
 62
7
  6
CONTINUOUS
 10
165.9696930448
 20
90.7255533554
 11
165.9747139062
 21
90.8759751637
  0
LINE
  8
SURFACE
 62
7
  6
CONTINUOUS
 10
165.9660833262
 20
90.6328957958
 11
165.9696930448
 21
90.7255533554
  0
LINE
  8
SURFACE
 62
7
  6
CONTINUOUS
 10
165.9624691029
 20
90.5522694438
 11
165.9660833262
 21
90.6328957958
  0
LINE
  8
SURFACE
 62
7
  6
CONTINUOUS
 10
165.9600031532
 20
90.5037742796
 11
165.9624691029
 21
90.5522694438
  0
LINE
  8
SURFACE
 62
7
  6
CONTINUOUS
 10
165.9574342573
 20
90.4584468961
 11
165.9600031532
 21
90.5037742796
  0
LINE
  8
SURFACE
 62
7
  6
CONTINUOUS
 10
231.9112852199
 20
156.4132559826
 11
217.9019231783
 21
156.4132559826
  0
LINE
  8
SURFACE
 62
7
  6
CONTINUOUS
 10
198.0981814914
 20
156.4132559826
 11
184.4819231783
 21
156.4132559826
  0
LINE
  8
SURFACE
 62
7
  6
CONTINUOUS
 10
164.6781814914
 20
156.4132559826
 11
151.0619231783
 21
156.4132559826
  0
LINE
  8
0
 62
7
  6
CONTINUOUS
 10
131.2581814923
 20
156.4132559826
 11
117.641923176
 21
156.4132559826
  0
LINE
  8
0
 62
7
  6
CONTINUOUS
 10
97.8381814923
 20
156.4132559826
 11
84.221923176
 21
156.4132559826
  0
LINE
  8
0
 62
7
  6
CONTINUOUS
 10
51.115052356
 20
156.4132559826
 11
64.4181815205
 21
156.4132559826
  0
POLYLINE
  8
0
 62
7
  6
CONTINUOUS
 66
1
 70
0
  0
VERTEX
  8
0
 62
7
  6
CONTINUOUS
 10
84.221923176
 20
156.4132560303
  0
VERTEX
  8
0
 62
7
  6
CONTINUOUS
 10
84.1723323965
 20
156.4149057067
  0
VERTEX
  8
0
 62
7
  6
CONTINUOUS
 10
84.110354991
 20
156.4217779623
  0
VERTEX
  8
0
 62
7
  6
CONTINUOUS
 10
84.0469941064
 20
156.4346359029
  0
VERTEX
  8
0
 62
7
  6
CONTINUOUS
 10
83.9826962363
 20
156.4540178339
  0
VERTEX
  8
0
 62
7
  6
CONTINUOUS
 10
83.9183150356
 20
156.4800512704
  0
VERTEX
  8
0
 62
7
  6
CONTINUOUS
 10
83.8539741033
 20
156.5128369116
  0
VERTEX
  8
0
 62
7
  6
CONTINUOUS
 10
83.7899476659
 20
156.5522536403
  0
VERTEX
  8
0
 62
7
  6
CONTINUOUS
 10
83.7269840073
 20
156.597661194
  0
VERTEX
  8
0
 62
7
  6
CONTINUOUS
 10
83.665128633
 20
156.648715201
  0
VERTEX
  8
0
 62
7
  6
CONTINUOUS
 10
83.6044096168
 20
156.7050778658
  0
VERTEX
  8
0
 62
7
  6
CONTINUOUS
 10
83.5448720425
 20
156.7663911349
  0
VERTEX
  8
0
 62
7
  6
CONTINUOUS
 10
83.486448367
 20
156.8324163461
  0
VERTEX
  8
0
 62
7
  6
CONTINUOUS
 10
83.4289349155
 20
156.9031145662
  0
VERTEX
  8
0
 62
7
  6
CONTINUOUS
 10
83.3718212317
 20
156.9789347843
  0
VERTEX
  8
0
 62
7
  6
CONTINUOUS
 10
83.3144887511
 20
157.0606603647
  0
VERTEX
  8
0
 62
7
  6
CONTINUOUS
 10
83.2563411906
 20
157.1492420356
  0
VERTEX
  8
0
 62
7
  6
CONTINUOUS
 10
83.2077817924
 20
157.2275286721
  0
SEQEND
  0
POLYLINE
  8
0
 62
7
  6
CONTINUOUS
 66
1
 70
0
  0
VERTEX
  8
0
 62
7
  6
CONTINUOUS
 10
117.641923176
 20
156.4132560303
  0
VERTEX
  8
0
 62
7
  6
CONTINUOUS
 10
117.5923323965
 20
156.4149057067
  0
VERTEX
  8
0
 62
7
  6
CONTINUOUS
 10
117.530354991
 20
156.4217779623
  0
VERTEX
  8
0
 62
7
  6
CONTINUOUS
 10
117.4669941064
 20
156.4346359029
  0
VERTEX
  8
0
 62
7
  6
CONTINUOUS
 10
117.4026962363
 20
156.4540178339
  0
VERTEX
  8
0
 62
7
  6
CONTINUOUS
 10
117.3383150356
 20
156.4800512704
  0
VERTEX
  8
0
 62
7
  6
CONTINUOUS
 10
117.2739741033
 20
156.5128369116
  0
VERTEX
  8
0
 62
7
  6
CONTINUOUS
 10
117.2099476659
 20
156.5522536403
  0
VERTEX
  8
0
 62
7
  6
CONTINUOUS
 10
117.1469840073
 20
156.597661194
  0
VERTEX
  8
0
 62
7
  6
CONTINUOUS
 10
117.085128633
 20
156.648715201
  0
VERTEX
  8
0
 62
7
  6
CONTINUOUS
 10
117.0244096168
 20
156.7050778658
  0
VERTEX
  8
0
 62
7
  6
CONTINUOUS
 10
116.9648720425
 20
156.7663911349
  0
VERTEX
  8
0
 62
7
  6
CONTINUOUS
 10
116.906448367
 20
156.8324163461
  0
VERTEX
  8
0
 62
7
  6
CONTINUOUS
 10
116.8489349155
 20
156.9031145662
  0
VERTEX
  8
0
 62
7
  6
CONTINUOUS
 10
116.7918212317
 20
156.9789347843
  0
VERTEX
  8
0
 62
7
  6
CONTINUOUS
 10
116.7344887511
 20
157.0606603647
  0
VERTEX
  8
0
 62
7
  6
CONTINUOUS
 10
116.6763411906
 20
157.1492420356
  0
VERTEX
  8
0
 62
7
  6
CONTINUOUS
 10
116.6277817924
 20
157.227528672
  0
SEQEND
  0
POLYLINE
  8
SURFACE
 62
7
  6
CONTINUOUS
 66
1
 70
0
  0
VERTEX
  8
SURFACE
 62
7
  6
CONTINUOUS
 10
151.0619231783
 20
156.4132560405
  0
VERTEX
  8
SURFACE
 62
7
  6
CONTINUOUS
 10
151.0123324358
 20
156.4149057143
  0
VERTEX
  8
SURFACE
 62
7
  6
CONTINUOUS
 10
150.9503550725
 20
156.4217779596
  0
VERTEX
  8
SURFACE
 62
7
  6
CONTINUOUS
 10
150.8869942237
 20
156.4346358836
  0
VERTEX
  8
SURFACE
 62
7
  6
CONTINUOUS
 10
150.8226963855
 20
156.4540177921
  0
VERTEX
  8
SURFACE
 62
7
  6
CONTINUOUS
 10
150.7583152173
 20
156.4800511982
  0
VERTEX
  8
SURFACE
 62
7
  6
CONTINUOUS
 10
150.6939743222
 20
156.5128367972
  0
VERTEX
  8
SURFACE
 62
7
  6
CONTINUOUS
 10
150.6299479288
 20
156.5522534682
  0
VERTEX
  8
SURFACE
 62
7
  6
CONTINUOUS
 10
150.5669843254
 20
156.5976609453
  0
VERTEX
  8
SURFACE
 62
7
  6
CONTINUOUS
 10
150.5051290299
 20
156.6487148468
  0
VERTEX
  8
SURFACE
 62
7
  6
CONTINUOUS
 10
150.4444100734
 20
156.7050774201
  0
VERTEX
  8
SURFACE
 62
7
  6
CONTINUOUS
 10
150.3848725114
 20
156.7663906351
  0
VERTEX
  8
SURFACE
 62
7
  6
CONTINUOUS
 10
150.3264488109
 20
156.8324158231
  0
VERTEX
  8
SURFACE
 62
7
  6
CONTINUOUS
 10
150.2689353139
 20
156.9031140527
  0
VERTEX
  8
SURFACE
 62
7
  6
CONTINUOUS
 10
150.2118215572
 20
156.9789343377
  0
VERTEX
  8
SURFACE
 62
7
  6
CONTINUOUS
 10
150.1544889814
 20
157.0606600353
  0
VERTEX
  8
SURFACE
 62
7
  6
CONTINUOUS
 10
150.0963413175
 20
157.1492418419
  0
VERTEX
  8
SURFACE
 62
7
  6
CONTINUOUS
 10
150.0477817924
 20
157.2275286722
  0
SEQEND
  0
POLYLINE
  8
SURFACE
 62
7
  6
CONTINUOUS
 66
1
 70
0
  0
VERTEX
  8
SURFACE
 62
7
  6
CONTINUOUS
 10
184.4819231783
 20
156.4132560405
  0
VERTEX
  8
SURFACE
 62
7
  6
CONTINUOUS
 10
184.4323323991
 20
156.4149057167
  0
VERTEX
  8
SURFACE
 62
7
  6
CONTINUOUS
 10
184.3703549929
 20
156.421777972
  0
VERTEX
  8
SURFACE
 62
7
  6
CONTINUOUS
 10
184.3069941098
 20
156.4346359122
  0
VERTEX
  8
SURFACE
 62
7
  6
CONTINUOUS
 10
184.2426962411
 20
156.454017843
  0
VERTEX
  8
SURFACE
 62
7
  6
CONTINUOUS
 10
184.1783150418
 20
156.4800512783
  0
VERTEX
  8
SURFACE
 62
7
  6
CONTINUOUS
 10
184.113974109
 20
156.5128369172
  0
VERTEX
  8
SURFACE
 62
7
  6
CONTINUOUS
 10
184.0499476698
 20
156.5522536414
  0
VERTEX
  8
SURFACE
 62
7
  6
CONTINUOUS
 10
183.9869840112
 20
156.5976611885
  0
VERTEX
  8
SURFACE
 62
7
  6
CONTINUOUS
 10
183.9251286553
 20
156.6487151754
  0
VERTEX
  8
SURFACE
 62
7
  6
CONTINUOUS
 10
183.8644096505
 20
156.7050778343
  0
VERTEX
  8
SURFACE
 62
7
  6
CONTINUOUS
 10
183.8048720648
 20
156.7663911176
  0
VERTEX
  8
SURFACE
 62
7
  6
CONTINUOUS
 10
183.7464483752
 20
156.8324163372
  0
VERTEX
  8
SURFACE
 62
7
  6
CONTINUOUS
 10
183.6889349272
 20
156.9031145472
  0
VERTEX
  8
SURFACE
 62
7
  6
CONTINUOUS
 10
183.6318212462
 20
156.9789347658
  0
VERTEX
  8
SURFACE
 62
7
  6
CONTINUOUS
 10
183.574488764
 20
157.0606603559
  0
VERTEX
  8
SURFACE
 62
7
  6
CONTINUOUS
 10
183.5163412004
 20
157.1492420261
  0
VERTEX
  8
SURFACE
 62
7
  6
CONTINUOUS
 10
183.4677817924
 20
157.2275286722
  0
SEQEND
  0
POLYLINE
  8
SURFACE
 62
7
  6
CONTINUOUS
 66
1
 70
0
  0
VERTEX
  8
SURFACE
 62
7
  6
CONTINUOUS
 10
182.4023228933
 20
113.5299379743
  0
VERTEX
  8
SURFACE
 62
7
  6
CONTINUOUS
 10
182.4994684311
 20
113.3573440179
  0
VERTEX
  8
SURFACE
 62
7
  6
CONTINUOUS
 10
182.5944917631
 20
113.161511165
  0
VERTEX
  8
SURFACE
 62
7
  6
CONTINUOUS
 10
182.6813414
 20
112.9529596548
  0
VERTEX
  8
SURFACE
 62
7
  6
CONTINUOUS
 10
182.7602295606
 20
112.7314479104
  0
VERTEX
  8
SURFACE
 62
7
  6
CONTINUOUS
 10
182.8311722981
 20
112.4968277828
  0
VERTEX
  8
SURFACE
 62
7
  6
CONTINUOUS
 10
182.8940316978
 20
112.2492419086
  0
VERTEX
  8
SURFACE
 62
7
  6
CONTINUOUS
 10
182.948737367
 20
111.9884879988
  0
VERTEX
  8
SURFACE
 62
7
  6
CONTINUOUS
 10
182.9952180355
 20
111.7141584418
  0
VERTEX
  8
SURFACE
 62
7
  6
CONTINUOUS
 10
183.0333661666
 20
111.4258524571
  0
VERTEX
  8
SURFACE
 62
7
  6
CONTINUOUS
 10
183.0630836722
 20
111.1229860904
  0
VERTEX
  8
SURFACE
 62
7
  6
CONTINUOUS
 10
183.0842789682
 20
110.8048312391
  0
VERTEX
  8
SURFACE
 62
7
  6
CONTINUOUS
 10
183.0968666792
 20
110.4707831597
  0
VERTEX
  8
SURFACE
 62
7
  6
CONTINUOUS
 10
183.1008293594
 20
110.134720694
  0
SEQEND
  0
POLYLINE
  8
SURFACE
 62
7
  6
CONTINUOUS
 66
1
 70
0
  0
VERTEX
  8
SURFACE
 62
7
  6
CONTINUOUS
 10
166.7577819443
 20
113.5299382667
  0
VERTEX
  8
SURFACE
 62
7
  6
CONTINUOUS
 10
166.805383319
 20
113.6067179649
  0
VERTEX
  8
SURFACE
 62
7
  6
CONTINUOUS
 10
166.8635522725
 20
113.6954249247
  0
VERTEX
  8
SURFACE
 62
7
  6
CONTINUOUS
 10
166.9209030863
 20
113.7772672914
  0
VERTEX
  8
SURFACE
 62
7
  6
CONTINUOUS
 10
166.9780294777
 20
113.8531938094
  0
VERTEX
  8
SURFACE
 62
7
  6
CONTINUOUS
 10
167.0355485371
 20
113.9239877998
  0
VERTEX
  8
SURFACE
 62
7
  6
CONTINUOUS
 10
167.0939680741
 20
113.9900982196
  0
VERTEX
  8
SURFACE
 62
7
  6
CONTINUOUS
 10
167.1534934849
 20
114.0514908247
  0
VERTEX
  8
SURFACE
 62
7
  6
CONTINUOUS
 10
167.214195894
 20
114.1079325605
  0
VERTEX
  8
SURFACE
 62
7
  6
CONTINUOUS
 10
167.2760340612
 20
114.1590697948
  0
VERTEX
  8
SURFACE
 62
7
  6
CONTINUOUS
 10
167.3389832139
 20
114.2045672623
  0
VERTEX
  8
SURFACE
 62
7
  6
CONTINUOUS
 10
167.4030019686
 20
114.2440820529
  0
VERTEX
  8
SURFACE
 62
7
  6
CONTINUOUS
 10
167.4673445554
 20
114.2769713876
  0
VERTEX
  8
SURFACE
 62
7
  6
CONTINUOUS
 10
167.5317350694
 20
114.3031093918
  0
VERTEX
  8
SURFACE
 62
7
  6
CONTINUOUS
 10
167.5960516822
 20
114.3225934173
  0
VERTEX
  8
SURFACE
 62
7
  6
CONTINUOUS
 10
167.6594384778
 20
114.3355455187
  0
VERTEX
  8
SURFACE
 62
7
  6
CONTINUOUS
 10
167.7214434799
 20
114.3425007807
  0
VERTEX
  8
SURFACE
 62
7
  6
CONTINUOUS
 10
167.7719232197
 20
114.3442106311
  0
SEQEND
  0
POLYLINE
  8
SURFACE
 62
7
  6
CONTINUOUS
 66
1
 70
0
  0
VERTEX
  8
SURFACE
 62
7
  6
CONTINUOUS
 10
217.9019231783
 20
156.4132560405
  0
VERTEX
  8
SURFACE
 62
7
  6
CONTINUOUS
 10
217.8523323991
 20
156.4149057167
  0
VERTEX
  8
SURFACE
 62
7
  6
CONTINUOUS
 10
217.7903549929
 20
156.421777972
  0
VERTEX
  8
SURFACE
 62
7
  6
CONTINUOUS
 10
217.7269941098
 20
156.4346359122
  0
VERTEX
  8
SURFACE
 62
7
  6
CONTINUOUS
 10
217.6626962411
 20
156.454017843
  0
VERTEX
  8
SURFACE
 62
7
  6
CONTINUOUS
 10
217.5983150418
 20
156.4800512783
  0
VERTEX
  8
SURFACE
 62
7
  6
CONTINUOUS
 10
217.533974109
 20
156.5128369172
  0
VERTEX
  8
SURFACE
 62
7
  6
CONTINUOUS
 10
217.4699476698
 20
156.5522536414
  0
VERTEX
  8
SURFACE
 62
7
  6
CONTINUOUS
 10
217.4069840112
 20
156.5976611885
  0
VERTEX
  8
SURFACE
 62
7
  6
CONTINUOUS
 10
217.3451286553
 20
156.6487151754
  0
VERTEX
  8
SURFACE
 62
7
  6
CONTINUOUS
 10
217.2844096505
 20
156.7050778343
  0
VERTEX
  8
SURFACE
 62
7
  6
CONTINUOUS
 10
217.2248720648
 20
156.7663911176
  0
VERTEX
  8
SURFACE
 62
7
  6
CONTINUOUS
 10
217.1664483752
 20
156.8324163372
  0
VERTEX
  8
SURFACE
 62
7
  6
CONTINUOUS
 10
217.1089349272
 20
156.9031145472
  0
VERTEX
  8
SURFACE
 62
7
  6
CONTINUOUS
 10
217.0518212462
 20
156.9789347658
  0
VERTEX
  8
SURFACE
 62
7
  6
CONTINUOUS
 10
216.994488764
 20
157.0606603559
  0
VERTEX
  8
SURFACE
 62
7
  6
CONTINUOUS
 10
216.9363412004
 20
157.1492420261
  0
VERTEX
  8
SURFACE
 62
7
  6
CONTINUOUS
 10
216.8877817924
 20
157.2275286722
  0
SEQEND
  0
POLYLINE
  8
SURFACE
 62
7
  6
CONTINUOUS
 66
1
 70
0
  0
VERTEX
  8
SURFACE
 62
7
  6
CONTINUOUS
 10
183.2033592278
 20
90.447137896
  0
VERTEX
  8
SURFACE
 62
7
  6
CONTINUOUS
 10
183.2050099813
 20
90.4213951859
  0
VERTEX
  8
SURFACE
 62
7
  6
CONTINUOUS
 10
183.2067184722
 20
90.3966548071
  0
VERTEX
  8
SURFACE
 62
7
  6
CONTINUOUS
 10
183.208506116
 20
90.3726683675
  0
VERTEX
  8
SURFACE
 62
7
  6
CONTINUOUS
 10
183.2104057477
 20
90.3491041921
  0
VERTEX
  8
SURFACE
 62
7
  6
CONTINUOUS
 10
183.212461198
 20
90.3255935973
  0
VERTEX
  8
SURFACE
 62
7
  6
CONTINUOUS
 10
183.2147294546
 20
90.3017410675
  0
VERTEX
  8
SURFACE
 62
7
  6
CONTINUOUS
 10
183.2172781174
 20
90.2771811388
  0
VERTEX
  8
SURFACE
 62
7
  6
CONTINUOUS
 10
183.2201934943
 20
90.2515240375
  0
VERTEX
  8
SURFACE
 62
7
  6
CONTINUOUS
 10
183.2235882304
 20
90.2243345685
  0
VERTEX
  8
SURFACE
 62
7
  6
CONTINUOUS
 10
183.2276067375
 20
90.1951465304
  0
VERTEX
  8
SURFACE
 62
7
  6
CONTINUOUS
 10
183.2324334989
 20
90.1634638985
  0
VERTEX
  8
SURFACE
 62
7
  6
CONTINUOUS
 10
183.238292376
 20
90.1288243316
  0
VERTEX
  8
SURFACE
 62
7
  6
CONTINUOUS
 10
183.2453563392
 20
90.0912885518
  0
VERTEX
  8
SURFACE
 62
7
  6
CONTINUOUS
 10
183.2537056957
 20
90.0514121594
  0
VERTEX
  8
SURFACE
 62
7
  6
CONTINUOUS
 10
183.2633651481
 20
90.0098471735
  0
VERTEX
  8
SURFACE
 62
7
  6
CONTINUOUS
 10
183.2747330226
 20
89.9656739467
  0
VERTEX
  8
SURFACE
 62
7
  6
CONTINUOUS
 10
183.2886196388
 20
89.9169799719
  0
VERTEX
  8
SURFACE
 62
7
  6
CONTINUOUS
 10
183.3061428356
 20
89.8617587842
  0
VERTEX
  8
SURFACE
 62
7
  6
CONTINUOUS
 10
183.3280742483
 20
89.7999564141
  0
VERTEX
  8
SURFACE
 62
7
  6
CONTINUOUS
 10
183.3548412206
 20
89.732713581
  0
VERTEX
  8
SURFACE
 62
7
  6
CONTINUOUS
 10
183.386774235
 20
89.661261808
  0
VERTEX
  8
SURFACE
 62
7
  6
CONTINUOUS
 10
183.4245252116
 20
89.5860314909
  0
VERTEX
  8
SURFACE
 62
7
  6
CONTINUOUS
 10
183.4688390283
 20
89.5074158924
  0
VERTEX
  8
SURFACE
 62
7
  6
CONTINUOUS
 10
183.5204585535
 20
89.4259756789
  0
VERTEX
  8
SURFACE
 62
7
  6
CONTINUOUS
 10
183.5801006318
 20
89.3424416147
  0
VERTEX
  8
SURFACE
 62
7
  6
CONTINUOUS
 10
183.6485343988
 20
89.2575905002
  0
VERTEX
  8
SURFACE
 62
7
  6
CONTINUOUS
 10
183.7268467777
 20
89.1720113436
  0
VERTEX
  8
SURFACE
 62
7
  6
CONTINUOUS
 10
183.8161089795
 20
89.0866151103
  0
VERTEX
  8
SURFACE
 62
7
  6
CONTINUOUS
 10
183.9159627815
 20
89.0037006474
  0
VERTEX
  8
SURFACE
 62
7
  6
CONTINUOUS
 10
184.0248379529
 20
88.9260002388
  0
VERTEX
  8
SURFACE
 62
7
  6
CONTINUOUS
 10
184.140625692
 20
88.8557848396
  0
VERTEX
  8
SURFACE
 62
7
  6
CONTINUOUS
 10
184.2612614055
 20
88.7945107932
  0
VERTEX
  8
SURFACE
 62
7
  6
CONTINUOUS
 10
184.3858971393
 20
88.7425612325
  0
VERTEX
  8
SURFACE
 62
7
  6
CONTINUOUS
 10
184.5139277231
 20
88.7001369533
  0
VERTEX
  8
SURFACE
 62
7
  6
CONTINUOUS
 10
184.6447480933
 20
88.6674178068
  0
VERTEX
  8
SURFACE
 62
7
  6
CONTINUOUS
 10
184.7777533602
 20
88.6445644542
  0
VERTEX
  8
SURFACE
 62
7
  6
CONTINUOUS
 10
184.9123332659
 20
88.6317208877
  0
VERTEX
  8
SURFACE
 62
7
  6
CONTINUOUS
 10
185.0160239586
 20
88.6287334813
  0
SEQEND
  0
POLYLINE
  8
SURFACE
 62
7
  6
CONTINUOUS
 66
1
 70
0
  0
VERTEX
  8
SURFACE
 62
7
  6
CONTINUOUS
 10
182.6667454849
 20
180.3103287546
  0
VERTEX
  8
SURFACE
 62
7
  6
CONTINUOUS
 10
182.6650947322
 20
180.3360714551
  0
VERTEX
  8
SURFACE
 62
7
  6
CONTINUOUS
 10
182.6633862416
 20
180.3608118318
  0
VERTEX
  8
SURFACE
 62
7
  6
CONTINUOUS
 10
182.6615985973
 20
180.3847982787
  0
VERTEX
  8
SURFACE
 62
7
  6
CONTINUOUS
 10
182.6596989671
 20
180.4083624356
  0
VERTEX
  8
SURFACE
 62
7
  6
CONTINUOUS
 10
182.6576435189
 20
180.4318730107
  0
VERTEX
  8
SURFACE
 62
7
  6
CONTINUOUS
 10
182.655375264
 20
180.4557255283
  0
VERTEX
  8
SURFACE
 62
7
  6
CONTINUOUS
 10
182.6528266023
 20
180.4802854541
  0
VERTEX
  8
SURFACE
 62
7
  6
CONTINUOUS
 10
182.649911225
 20
180.505942565
  0
VERTEX
  8
SURFACE
 62
7
  6
CONTINUOUS
 10
182.646516486
 20
180.5331320605
  0
VERTEX
  8
SURFACE
 62
7
  6
CONTINUOUS
 10
182.6424979853
 20
180.5623200567
  0
VERTEX
  8
SURFACE
 62
7
  6
CONTINUOUS
 10
182.6376712318
 20
180.5940026467
  0
VERTEX
  8
SURFACE
 62
7
  6
CONTINUOUS
 10
182.6318123636
 20
180.628642176
  0
VERTEX
  8
SURFACE
 62
7
  6
CONTINUOUS
 10
182.6247484091
 20
180.6661779272
  0
VERTEX
  8
SURFACE
 62
7
  6
CONTINUOUS
 10
182.6163990605
 20
180.7060543032
  0
VERTEX
  8
SURFACE
 62
7
  6
CONTINUOUS
 10
182.6067396149
 20
180.7476192808
  0
VERTEX
  8
SURFACE
 62
7
  6
CONTINUOUS
 10
182.5953717488
 20
180.7917924968
  0
VERTEX
  8
SURFACE
 62
7
  6
CONTINUOUS
 10
182.5814851446
 20
180.8404864533
  0
VERTEX
  8
SURFACE
 62
7
  6
CONTINUOUS
 10
182.5639619647
 20
180.8957076154
  0
VERTEX
  8
SURFACE
 62
7
  6
CONTINUOUS
 10
182.5420305707
 20
180.9575099633
  0
VERTEX
  8
SURFACE
 62
7
  6
CONTINUOUS
 10
182.5152636306
 20
181.0247527508
  0
VERTEX
  8
SURFACE
 62
7
  6
CONTINUOUS
 10
182.4833306613
 20
181.0962044643
  0
VERTEX
  8
SURFACE
 62
7
  6
CONTINUOUS
 10
182.4455797366
 20
181.1714347262
  0
VERTEX
  8
SURFACE
 62
7
  6
CONTINUOUS
 10
182.40126598
 20
181.2500502728
  0
VERTEX
  8
SURFACE
 62
7
  6
CONTINUOUS
 10
182.3496465234
 20
181.3314904395
  0
VERTEX
  8
SURFACE
 62
7
  6
CONTINUOUS
 10
182.2900045205
 20
181.4150244658
  0
VERTEX
  8
SURFACE
 62
7
  6
CONTINUOUS
 10
182.2215708376
 20
181.4998755498
  0
VERTEX
  8
SURFACE
 62
7
  6
CONTINUOUS
 10
182.1432585632
 20
181.5854546736
  0
VERTEX
  8
SURFACE
 62
7
  6
CONTINUOUS
 10
182.0539964943
 20
181.6708508709
  0
VERTEX
  8
SURFACE
 62
7
  6
CONTINUOUS
 10
181.9541428287
 20
181.7537653215
  0
VERTEX
  8
SURFACE
 62
7
  6
CONTINUOUS
 10
181.8452677624
 20
181.8314657618
  0
VERTEX
  8
SURFACE
 62
7
  6
CONTINUOUS
 10
181.7294800568
 20
181.9016812456
  0
VERTEX
  8
SURFACE
 62
7
  6
CONTINUOUS
 10
181.608844286
 20
181.9629554166
  0
VERTEX
  8
SURFACE
 62
7
  6
CONTINUOUS
 10
181.4842084217
 20
182.0149051124
  0
VERTEX
  8
SURFACE
 62
7
  6
CONTINUOUS
 10
181.3561776567
 20
182.0573295149
  0
VERTEX
  8
SURFACE
 62
7
  6
CONTINUOUS
 10
181.2253570811
 20
182.0900487579
  0
VERTEX
  8
SURFACE
 62
7
  6
CONTINUOUS
 10
181.0923516141
 20
182.112902173
  0
VERTEX
  8
SURFACE
 62
7
  6
CONTINUOUS
 10
180.9577715438
 20
182.1257457689
  0
VERTEX
  8
SURFACE
 62
7
  6
CONTINUOUS
 10
180.8540807517
 20
182.128733181
  0
SEQEND
  0
LINE
  8
SURFACE
 62
7
  6
CONTINUOUS
 10
183.2001714419
 20
90.5024729651
 11
183.2033592278
 21
90.447137896
  0
LINE
  8
SURFACE
 62
7
  6
CONTINUOUS
 10
182.6699332694
 20
180.2549937109
 11
182.6667454849
 21
180.3103287546
  0
LINE
  8
SURFACE
 62
7
  6
CONTINUOUS
 10
183.197059992
 20
90.5643316696
 11
183.2001714419
 21
90.5024729651
  0
LINE
  8
SURFACE
 62
7
  6
CONTINUOUS
 10
182.6730447186
 20
180.1931350209
 11
182.6699332694
 21
180.2549937109
  0
LINE
  8
SURFACE
 62
7
  6
CONTINUOUS
 10
183.1939536028
 20
90.6345214791
 11
183.197059992
 21
90.5643316696
  0
LINE
  8
SURFACE
 62
7
  6
CONTINUOUS
 10
182.6761511068
 20
180.1229452426
 11
182.6730447186
 21
180.1931350209
  0
LINE
  8
SURFACE
 62
7
  6
CONTINUOUS
 10
183.1907997163
 20
90.7149873795
 11
183.1939536028
 21
90.6345214791
  0
LINE
  8
SURFACE
 62
7
  6
CONTINUOUS
 10
182.6793049924
 20
180.0424793736
 11
182.6761511068
 21
180.1229452426
  0
LINE
  8
SURFACE
 62
7
  6
CONTINUOUS
 10
183.1858263545
 20
90.8618957242
 11
183.1907997163
 21
90.7149873795
  0
LINE
  8
SURFACE
 62
7
  6
CONTINUOUS
 10
182.6842783523
 20
179.8955711041
 11
182.6793049924
 21
180.0424793736
  0
LINE
  8
SURFACE
 62
7
  6
CONTINUOUS
 10
183.1804862185
 20
91.0486006796
 11
183.1858263545
 21
90.8618957242
  0
LINE
  8
SURFACE
 62
7
  6
CONTINUOUS
 10
182.6896184864
 20
179.7088662532
 11
182.6842783523
 21
179.8955711041
  0
LINE
  8
SURFACE
 62
7
  6
CONTINUOUS
 10
183.1729897129
 20
91.3650393985
 11
183.1804862185
 21
91.0486006796
  0
LINE
  8
SURFACE
 62
7
  6
CONTINUOUS
 10
182.6971149895
 20
179.3924277146
 11
182.6896184864
 21
179.7088662532
  0
LINE
  8
SURFACE
 62
7
  6
CONTINUOUS
 10
183.1652098144
 20
91.7664627066
 11
183.1729897129
 21
91.3650393985
  0
LINE
  8
SURFACE
 62
7
  6
CONTINUOUS
 10
182.7048948856
 20
178.9910046362
 11
182.6971149895
 21
179.3924277146
  0
LINE
  8
SURFACE
 62
7
  6
CONTINUOUS
 10
183.1572780699
 20
92.2609805138
 11
183.1652098144
 21
91.7664627066
  0
LINE
  8
SURFACE
 62
7
  6
CONTINUOUS
 10
182.7128266278
 20
178.4964871253
 11
182.7048948856
 21
178.9910046362
  0
LINE
  8
SURFACE
 62
7
  6
CONTINUOUS
 10
183.1492444206
 20
92.862049146
 11
183.1572780699
 21
92.2609805138
  0
LINE
  8
SURFACE
 62
7
  6
CONTINUOUS
 10
182.7208602747
 20
177.8954188903
 11
182.7128266278
 21
178.4964871253
  0
LINE
  8
SURFACE
 62
7
  6
CONTINUOUS
 10
183.1411715895
 20
93.5860530963
 11
183.1492444206
 21
92.862049146
  0
LINE
  8
SURFACE
 62
7
  6
CONTINUOUS
 10
182.7289331031
 20
177.1714154797
 11
182.7208602747
 21
177.8954188903
  0
LINE
  8
SURFACE
 62
7
  6
CONTINUOUS
 10
183.1331413464
 20
94.4538598495
 11
183.1411715895
 21
93.5860530963
  0
LINE
  8
SURFACE
 62
7
  6
CONTINUOUS
 10
182.7369633438
 20
176.3036094164
 11
182.7289331031
 21
177.1714154797
  0
LINE
  8
SURFACE
 62
7
  6
CONTINUOUS
 10
183.1272059709
 20
95.2164243474
 11
183.1331413464
 21
94.4538598495
  0
LINE
  8
SURFACE
 62
7
  6
CONTINUOUS
 10
182.7428987176
 20
175.5410455803
 11
182.7369633438
 21
176.3036094164
  0
LINE
  8
SURFACE
 62
7
  6
CONTINUOUS
 10
183.1213496841
 20
96.1034486684
 11
183.1272059709
 21
95.2164243474
  0
LINE
  8
SURFACE
 62
7
  6
CONTINUOUS
 10
182.7487550026
 20
174.6540221861
 11
182.7428987176
 21
175.5410455803
  0
LINE
  8
SURFACE
 62
7
  6
CONTINUOUS
 10
183.1155521743
 20
97.1673460512
 11
183.1213496841
 21
96.1034486684
  0
LINE
  8
SURFACE
 62
7
  6
CONTINUOUS
 10
182.7545525101
 20
173.5901262663
 11
182.7487550026
 21
174.6540221861
  0
LINE
  8
SURFACE
 62
7
  6
CONTINUOUS
 10
182.7583336333
 20
172.7474483958
 11
182.7545525101
 21
173.5901262663
  0
LINE
  8
SURFACE
 62
7
  6
CONTINUOUS
 10
183.1117710496
 20
98.010025369
 11
183.1155521743
 21
97.1673460512
  0
LINE
  8
SURFACE
 62
7
  6
CONTINUOUS
 10
182.761867131
 20
171.7890069517
 11
182.7583336333
 21
172.7474483958
  0
LINE
  8
SURFACE
 62
7
  6
CONTINUOUS
 10
183.1082375512
 20
98.9684687872
 11
183.1117710496
 21
98.010025369
  0
LINE
  8
SURFACE
 62
7
  6
CONTINUOUS
 10
182.7649908985
 20
170.6974944432
 11
182.761867131
 21
171.7890069517
  0
LINE
  8
SURFACE
 62
7
  6
CONTINUOUS
 10
183.1051137912
 20
100.0599813379
 11
183.1082375512
 21
98.9684687872
  0
LINE
  8
SURFACE
 62
7
  6
CONTINUOUS
 10
182.7673851973
 20
169.5116376415
 11
182.7649908985
 21
170.6974944432
  0
LINE
  8
SURFACE
 62
7
  6
CONTINUOUS
 10
183.1027195045
 20
101.2458353865
 11
183.1051137912
 21
100.0599813379
  0
LINE
  8
SURFACE
 62
7
  6
CONTINUOUS
 10
182.7688075854
 20
168.3179254738
 11
182.7673851973
 21
169.5116376415
  0
LINE
  8
SURFACE
 62
7
  6
CONTINUOUS
 10
183.1012971238
 20
102.4395448076
 11
183.1027195045
 21
101.2458353865
  0
LINE
  8
SURFACE
 62
7
  6
CONTINUOUS
 10
182.7692754528
 20
167.1287333312
 11
182.7688075854
 21
168.3179254738
  0
LINE
  8
SURFACE
 62
7
  6
CONTINUOUS
 10
183.1008292592
 20
103.6287333312
 11
183.1012971238
 21
102.4395448076
  0
LINE
  8
SURFACE
 62
7
  6
CONTINUOUS
 10
182.7692754529
 20
160.622745949
 11
182.7692754529
 21
167.1287333312
  0
LINE
  8
SURFACE
 62
7
  6
CONTINUOUS
 10
183.1008292591
 20
110.134720694
 11
183.1008292591
 21
103.6287333312
  0
POLYLINE
  8
SURFACE
 62
7
  6
CONTINUOUS
 66
1
 70
0
  0
VERTEX
  8
SURFACE
 62
7
  6
CONTINUOUS
 10
199.112322783
 20
157.2275284209
  0
VERTEX
  8
SURFACE
 62
7
  6
CONTINUOUS
 10
199.0647213948
 20
157.1507487057
  0
VERTEX
  8
SURFACE
 62
7
  6
CONTINUOUS
 10
199.0065524374
 20
157.0620417448
  0
VERTEX
  8
SURFACE
 62
7
  6
CONTINUOUS
 10
198.9492016219
 20
156.9801993673
  0
VERTEX
  8
SURFACE
 62
7
  6
CONTINUOUS
 10
198.8920752326
 20
156.9042728464
  0
VERTEX
  8
SURFACE
 62
7
  6
CONTINUOUS
 10
198.8345561758
 20
156.8334788642
  0
VERTEX
  8
SURFACE
 62
7
  6
CONTINUOUS
 10
198.7761366243
 20
156.7673684347
  0
VERTEX
  8
SURFACE
 62
7
  6
CONTINUOUS
 10
198.7166112016
 20
156.7059758143
  0
VERTEX
  8
SURFACE
 62
7
  6
CONTINUOUS
 10
198.6559088034
 20
156.649534083
  0
VERTEX
  8
SURFACE
 62
7
  6
CONTINUOUS
 10
198.5940706541
 20
156.5983968674
  0
VERTEX
  8
SURFACE
 62
7
  6
CONTINUOUS
 10
198.5311215009
 20
156.5528994054
  0
VERTEX
  8
SURFACE
 62
7
  6
CONTINUOUS
 10
198.4671027438
 20
156.5133846184
  0
VERTEX
  8
SURFACE
 62
7
  6
CONTINUOUS
 10
198.4027601557
 20
156.4804952852
  0
VERTEX
  8
SURFACE
 62
7
  6
CONTINUOUS
 10
198.3383696424
 20
156.4543572812
  0
VERTEX
  8
SURFACE
 62
7
  6
CONTINUOUS
 10
198.2740530302
 20
156.4348732552
  0
VERTEX
  8
SURFACE
 62
7
  6
CONTINUOUS
 10
198.2106662351
 20
156.4219211538
  0
VERTEX
  8
SURFACE
 62
7
  6
CONTINUOUS
 10
198.1486612315
 20
156.4149658918
  0
VERTEX
  8
SURFACE
 62
7
  6
CONTINUOUS
 10
198.0981814914
 20
156.4132560414
  0
SEQEND
  0
LINE
  8
DEFAULT_1
 62
2
  6
CENTER
 10
251.8736323851
 20
167.1287333312
 11
64.2001337269
 21
167.1287333312
  0
POLYLINE
  8
SURFACE
 62
7
  6
CONTINUOUS
 66
1
 70
0
  0
VERTEX
  8
SURFACE
 62
7
  6
CONTINUOUS
 10
235.2961287964
 20
182.128733181
  0
VERTEX
  8
SURFACE
 62
7
  6
CONTINUOUS
 10
235.1941306941
 20
182.1258425886
  0
VERTEX
  8
SURFACE
 62
7
  6
CONTINUOUS
 10
235.0594191289
 20
182.1131098672
  0
VERTEX
  8
SURFACE
 62
7
  6
CONTINUOUS
 10
234.9256929356
 20
182.0902256472
  0
VERTEX
  8
SURFACE
 62
7
  6
CONTINUOUS
 10
234.7947568095
 20
182.0575398535
  0
VERTEX
  8
SURFACE
 62
7
  6
CONTINUOUS
 10
234.6683150004
 20
182.0157675673
  0
VERTEX
  8
SURFACE
 62
7
  6
CONTINUOUS
 10
234.5479150769
 20
181.9659626709
  0
VERTEX
  8
SURFACE
 62
7
  6
CONTINUOUS
 10
234.4348956636
 20
181.9094765988
  0
VERTEX
  8
SURFACE
 62
7
  6
CONTINUOUS
 10
234.3302589863
 20
181.8478492236
  0
VERTEX
  8
SURFACE
 62
7
  6
CONTINUOUS
 10
234.2340216796
 20
181.782249427
  0
VERTEX
  8
SURFACE
 62
7
  6
CONTINUOUS
 10
234.1457328465
 20
181.7134897718
  0
VERTEX
  8
SURFACE
 62
7
  6
CONTINUOUS
 10
234.0649117892
 20
181.6422269392
  0
VERTEX
  8
SURFACE
 62
7
  6
CONTINUOUS
 10
233.9910805094
 20
181.5689873698
  0
VERTEX
  8
SURFACE
 62
7
  6
CONTINUOUS
 10
233.9239144517
 20
181.4943457699
  0
VERTEX
  8
SURFACE
 62
7
  6
CONTINUOUS
 10
233.8632005419
 20
181.4189674106
  0
VERTEX
  8
SURFACE
 62
7
  6
CONTINUOUS
 10
233.8086817378
 20
181.3434713413
  0
VERTEX
  8
SURFACE
 62
7
  6
CONTINUOUS
 10
233.7600500499
 20
181.2684065938
  0
VERTEX
  8
SURFACE
 62
7
  6
CONTINUOUS
 10
233.7170102947
 20
181.1943424467
  0
VERTEX
  8
SURFACE
 62
7
  6
CONTINUOUS
 10
233.6792838939
 20
181.1219057441
  0
VERTEX
  8
SURFACE
 62
7
  6
CONTINUOUS
 10
233.6465320505
 20
181.0516499294
  0
VERTEX
  8
SURFACE
 62
7
  6
CONTINUOUS
 10
233.6183994169
 20
180.9841193754
  0
VERTEX
  8
SURFACE
 62
7
  6
CONTINUOUS
 10
233.594664769
 20
180.9202752951
  0
VERTEX
  8
SURFACE
 62
7
  6
CONTINUOUS
 10
233.5751247879
 20
180.8613737833
  0
VERTEX
  8
SURFACE
 62
7
  6
CONTINUOUS
 10
233.5593845099
 20
180.8083116254
  0
VERTEX
  8
SURFACE
 62
7
  6
CONTINUOUS
 10
233.5468245946
 20
180.7611417102
  0
VERTEX
  8
SURFACE
 62
7
  6
CONTINUOUS
 10
233.5366252736
 20
180.7186306475
  0
VERTEX
  8
SURFACE
 62
7
  6
CONTINUOUS
 10
233.5281610672
 20
180.679561687
  0
VERTEX
  8
SURFACE
 62
7
  6
CONTINUOUS
 10
233.5210094934
 20
180.6430213529
  0
VERTEX
  8
SURFACE
 62
7
  6
CONTINUOUS
 10
233.5149683217
 20
180.6088468903
  0
VERTEX
  8
SURFACE
 62
7
  6
CONTINUOUS
 10
233.5099024164
 20
180.5771407292
  0
VERTEX
  8
SURFACE
 62
7
  6
CONTINUOUS
 10
233.5056612732
 20
180.5478328481
  0
VERTEX
  8
SURFACE
 62
7
  6
CONTINUOUS
 10
233.5020918367
 20
180.520682349
  0
VERTEX
  8
SURFACE
 62
7
  6
CONTINUOUS
 10
233.4990558419
 20
180.4953572712
  0
VERTEX
  8
SURFACE
 62
7
  6
CONTINUOUS
 10
233.4964406452
 20
180.4715300506
  0
VERTEX
  8
SURFACE
 62
7
  6
CONTINUOUS
 10
233.494153666
 20
180.4488658568
  0
VERTEX
  8
SURFACE
 62
7
  6
CONTINUOUS
 10
233.4921185084
 20
180.4270169523
  0
VERTEX
  8
SURFACE
 62
7
  6
CONTINUOUS
 10
233.4902772507
 20
180.4056835001
  0
VERTEX
  8
SURFACE
 62
7
  6
CONTINUOUS
 10
233.488586311
 20
180.3846134186
  0
VERTEX
  8
SURFACE
 62
7
  6
CONTINUOUS
 10
233.4870129234
 20
180.3635977227
  0
VERTEX
  8
SURFACE
 62
7
  6
CONTINUOUS
 10
233.4841250391
 20
180.3210588364
  0
SEQEND
  0
POLYLINE
  8
SURFACE
 62
7
  6
CONTINUOUS
 66
1
 70
0
  0
VERTEX
  8
SURFACE
 62
7
  6
CONTINUOUS
 10
183.4677818217
 20
157.22752869
  0
VERTEX
  8
SURFACE
 62
7
  6
CONTINUOUS
 10
183.3706362943
 20
157.4001226172
  0
VERTEX
  8
SURFACE
 62
7
  6
CONTINUOUS
 10
183.2756129652
 20
157.5959554614
  0
VERTEX
  8
SURFACE
 62
7
  6
CONTINUOUS
 10
183.1887633183
 20
157.8045069918
  0
VERTEX
  8
SURFACE
 62
7
  6
CONTINUOUS
 10
183.1098751519
 20
158.0260187446
  0
VERTEX
  8
SURFACE
 62
7
  6
CONTINUOUS
 10
183.0389324209
 20
158.2606388608
  0
VERTEX
  8
SURFACE
 62
7
  6
CONTINUOUS
 10
182.976073015
 20
158.5082247601
  0
VERTEX
  8
SURFACE
 62
7
  6
CONTINUOUS
 10
182.921367346
 20
158.7689786584
  0
VERTEX
  8
SURFACE
 62
7
  6
CONTINUOUS
 10
182.8748866741
 20
159.0433082352
  0
VERTEX
  8
SURFACE
 62
7
  6
CONTINUOUS
 10
182.8367385437
 20
159.3316142267
  0
VERTEX
  8
SURFACE
 62
7
  6
CONTINUOUS
 10
182.8070210417
 20
159.6344805625
  0
VERTEX
  8
SURFACE
 62
7
  6
CONTINUOUS
 10
182.7858257443
 20
159.9526354137
  0
VERTEX
  8
SURFACE
 62
7
  6
CONTINUOUS
 10
182.7732380327
 20
160.2866834914
  0
VERTEX
  8
SURFACE
 62
7
  6
CONTINUOUS
 10
182.7692753526
 20
160.622745949
  0
SEQEND
  0
LINE
  8
SURFACE
 62
7
  6
CONTINUOUS
 10
199.4788651448
 20
102.5149519772
 11
199.4792754529
 21
110.1347207547
  0
LINE
  8
SURFACE
 62
7
  6
CONTINUOUS
 10
199.8112395665
 20
168.2425137362
 11
199.8108292591
 21
160.6227459427
  0
LINE
  8
SURFACE
 62
7
  6
CONTINUOUS
 10
199.477728029
 20
101.471109713
 11
199.4788651448
 21
102.5149519772
  0
LINE
  8
SURFACE
 62
7
  6
CONTINUOUS
 10
199.8123766807
 20
169.2863553736
 11
199.8112395665
 21
168.2425137362
  0
LINE
  8
SURFACE
 62
7
  6
CONTINUOUS
 10
199.4749834559
 20
100.0569326077
 11
199.477728029
 21
101.471109713
  0
LINE
  8
SURFACE
 62
7
  6
CONTINUOUS
 10
199.8151212502
 20
170.7005316285
 11
199.8123766807
 21
169.2863553736
  0
LINE
  8
SURFACE
 62
7
  6
CONTINUOUS
 10
199.471339336
 20
98.8110055098
 11
199.4749834559
 21
100.0569326077
  0
LINE
  8
SURFACE
 62
7
  6
CONTINUOUS
 10
199.8187653653
 20
171.9464580109
 11
199.8151212502
 21
170.7005316285
  0
LINE
  8
SURFACE
 62
7
  6
CONTINUOUS
 10
199.4655225801
 20
97.3698438904
 11
199.471339336
 21
98.8110055098
  0
LINE
  8
SURFACE
 62
7
  6
CONTINUOUS
 10
199.8245821136
 20
173.3876188525
 11
199.8187653653
 21
171.9464580109
  0
LINE
  8
SURFACE
 62
7
  6
CONTINUOUS
 10
199.8311095234
 20
174.6141178381
 11
199.8245821136
 21
173.3876188525
  0
LINE
  8
SURFACE
 62
7
  6
CONTINUOUS
 10
199.4589951629
 20
96.1433445189
 11
199.4655225801
 21
97.3698438904
  0
LINE
  8
SURFACE
 62
7
  6
CONTINUOUS
 10
199.839543975
 20
175.8556993315
 11
199.8311095234
 21
174.6141178381
  0
LINE
  8
SURFACE
 62
7
  6
CONTINUOUS
 10
199.4505607045
 20
94.9017630787
 11
199.4589951629
 21
96.1433445189
  0
LINE
  8
SURFACE
 62
7
  6
CONTINUOUS
 10
199.8496065288
 20
177.0149602158
 11
199.839543975
 21
175.8556993315
  0
LINE
  8
SURFACE
 62
7
  6
CONTINUOUS
 10
199.4404981432
 20
93.7425023632
 11
199.4505607045
 21
94.9017630787
  0
POLYLINE
  8
SURFACE
 62
7
  6
CONTINUOUS
 66
1
 70
0
  0
VERTEX
  8
SURFACE
 62
7
  6
CONTINUOUS
 10
199.8108293588
 20
160.6227459428
  0
VERTEX
  8
SURFACE
 62
7
  6
CONTINUOUS
 10
199.8068974883
 20
160.2879604048
  0
VERTEX
  8
SURFACE
 62
7
  6
CONTINUOUS
 10
199.7943433297
 20
159.9538782626
  0
VERTEX
  8
SURFACE
 62
7
  6
CONTINUOUS
 10
199.7731828847
 20
159.635690429
  0
VERTEX
  8
SURFACE
 62
7
  6
CONTINUOUS
 10
199.7435014025
 20
159.3327918025
  0
VERTEX
  8
SURFACE
 62
7
  6
CONTINUOUS
 10
199.7053903641
 20
159.0444536923
  0
VERTEX
  8
SURFACE
 62
7
  6
CONTINUOUS
 10
199.6589478468
 20
158.7700916361
  0
VERTEX
  8
SURFACE
 62
7
  6
CONTINUOUS
 10
199.6042813556
 20
158.5093042931
  0
VERTEX
  8
SURFACE
 62
7
  6
CONTINUOUS
 10
199.5414621417
 20
158.2616835343
  0
VERTEX
  8
SURFACE
 62
7
  6
CONTINUOUS
 10
199.4705606492
 20
158.027026815
  0
VERTEX
  8
SURFACE
 62
7
  6
CONTINUOUS
 10
199.3917145377
 20
157.8054755975
  0
VERTEX
  8
SURFACE
 62
7
  6
CONTINUOUS
 10
199.304907858
 20
157.5968813486
  0
VERTEX
  8
SURFACE
 62
7
  6
CONTINUOUS
 10
199.2099292329
 20
157.4010030654
  0
VERTEX
  8
SURFACE
 62
7
  6
CONTINUOUS
 10
199.1123227283
 20
157.227528454
  0
SEQEND
  0
POLYLINE
  8
SURFACE
 62
7
  6
CONTINUOUS
 66
1
 70
0
  0
VERTEX
  8
SURFACE
 62
7
  6
CONTINUOUS
 10
199.4792753532
 20
110.1347207546
  0
VERTEX
  8
SURFACE
 62
7
  6
CONTINUOUS
 10
199.4832072234
 20
110.4695062808
  0
VERTEX
  8
SURFACE
 62
7
  6
CONTINUOUS
 10
199.495761383
 20
110.8035884227
  0
VERTEX
  8
SURFACE
 62
7
  6
CONTINUOUS
 10
199.5169218313
 20
111.1217762594
  0
VERTEX
  8
SURFACE
 62
7
  6
CONTINUOUS
 10
199.5466033086
 20
111.4246748267
  0
VERTEX
  8
SURFACE
 62
7
  6
CONTINUOUS
 10
199.584714345
 20
111.7130129519
  0
VERTEX
  8
SURFACE
 62
7
  6
CONTINUOUS
 10
199.6311568696
 20
111.9873750515
  0
VERTEX
  8
SURFACE
 62
7
  6
CONTINUOUS
 10
199.6858233638
 20
112.2481623757
  0
VERTEX
  8
SURFACE
 62
7
  6
CONTINUOUS
 10
199.7486425918
 20
112.4957831934
  0
VERTEX
  8
SURFACE
 62
7
  6
CONTINUOUS
 10
199.8195440707
 20
112.7304398837
  0
VERTEX
  8
SURFACE
 62
7
  6
CONTINUOUS
 10
199.8983901981
 20
112.9519911252
  0
VERTEX
  8
SURFACE
 62
7
  6
CONTINUOUS
 10
199.9851969002
 20
113.1605854168
  0
VERTEX
  8
SURFACE
 62
7
  6
CONTINUOUS
 10
200.0801755172
 20
113.3564636732
  0
VERTEX
  8
SURFACE
 62
7
  6
CONTINUOUS
 10
200.1777820065
 20
113.5299382291
  0
SEQEND
  0
LINE
  8
SURFACE
 62
7
  6
CONTINUOUS
 10
199.8596554628
 20
177.9288751039
 11
199.8496065288
 21
177.0149602158
  0
LINE
  8
SURFACE
 62
7
  6
CONTINUOUS
 10
199.430449201
 20
92.8285876469
 11
199.4404981432
 21
93.7425023632
  0
LINE
  8
SURFACE
 62
7
  6
CONTINUOUS
 10
199.8712278578
 20
178.7541629298
 11
199.8596554628
 21
177.9288751039
  0
LINE
  8
SURFACE
 62
7
  6
CONTINUOUS
 10
199.4188767975
 20
92.0033001955
 11
199.430449201
 21
92.8285876469
  0
LINE
  8
SURFACE
 62
7
  6
CONTINUOUS
 10
199.8823749115
 20
179.3635052699
 11
199.8712278578
 21
178.7541629298
  0
LINE
  8
SURFACE
 62
7
  6
CONTINUOUS
 10
199.4077297368
 20
91.3939583699
 11
199.4188767975
 21
92.0033001955
  0
LINE
  8
SURFACE
 62
7
  6
CONTINUOUS
 10
199.8899012937
 20
179.686511547
 11
199.8823749115
 21
179.3635052699
  0
LINE
  8
SURFACE
 62
7
  6
CONTINUOUS
 10
199.4002033528
 20
91.0709525905
 11
199.4077297368
 21
91.3939583699
  0
LINE
  8
SURFACE
 62
7
  6
CONTINUOUS
 10
199.8953907423
 20
179.8814894309
 11
199.8899012937
 21
179.686511547
  0
LINE
  8
SURFACE
 62
7
  6
CONTINUOUS
 10
199.3947139062
 20
90.8759751637
 11
199.4002033528
 21
91.0709525905
  0
LINE
  8
SURFACE
 62
7
  6
CONTINUOUS
 10
199.9004116046
 20
180.0319115879
 11
199.8953907423
 21
179.8814894309
  0
LINE
  8
SURFACE
 62
7
  6
CONTINUOUS
 10
199.3896930448
 20
90.7255533554
 11
199.3947139062
 21
90.8759751637
  0
LINE
  8
SURFACE
 62
7
  6
CONTINUOUS
 10
199.9040213213
 20
180.1245693212
 11
199.9004116046
 21
180.0319115879
  0
LINE
  8
SURFACE
 62
7
  6
CONTINUOUS
 10
199.3860833262
 20
90.6328957958
 11
199.3896930448
 21
90.7255533554
  0
LINE
  8
SURFACE
 62
7
  6
CONTINUOUS
 10
199.9076355405
 20
180.205195796
 11
199.9040213213
 21
180.1245693212
  0
LINE
  8
SURFACE
 62
7
  6
CONTINUOUS
 10
199.3824691029
 20
90.5522694438
 11
199.3860833262
 21
90.6328957958
  0
LINE
  8
SURFACE
 62
7
  6
CONTINUOUS
 10
199.9101014863
 20
180.2536910304
 11
199.9076355405
 21
180.205195796
  0
LINE
  8
SURFACE
 62
7
  6
CONTINUOUS
 10
199.3800031532
 20
90.5037742796
 11
199.3824691029
 21
90.5522694438
  0
LINE
  8
SURFACE
 62
7
  6
CONTINUOUS
 10
199.9126703758
 20
180.2990184501
 11
199.9101014863
 21
180.2536910304
  0
POLYLINE
  8
SURFACE
 62
7
  6
CONTINUOUS
 66
1
 70
0
  0
VERTEX
  8
SURFACE
 62
7
  6
CONTINUOUS
 10
199.3760877062
 20
90.4366544122
  0
VERTEX
  8
SURFACE
 62
7
  6
CONTINUOUS
 10
199.3774342573
 20
90.4584468961
  0
VERTEX
  8
SURFACE
 62
7
  6
CONTINUOUS
 10
199.3800031532
 20
90.5037742796
  0
SEQEND
  0
POLYLINE
  8
0
 62
7
  6
CONTINUOUS
 66
1
 70
0
  0
VERTEX
  8
0
 62
7
  6
CONTINUOUS
 10
68.046023963
 20
182.1287331809
  0
VERTEX
  8
0
 62
7
  6
CONTINUOUS
 10
67.9425921406
 20
182.1257606849
  0
VERTEX
  8
0
 62
7
  6
CONTINUOUS
 10
67.8078854153
 20
182.1129198283
  0
VERTEX
  8
0
 62
7
  6
CONTINUOUS
 10
67.6742375155
 20
182.0899412134
  0
VERTEX
  8
0
 62
7
  6
CONTINUOUS
 10
67.5434325874
 20
182.057185899
  0
VERTEX
  8
0
 62
7
  6
CONTINUOUS
 10
67.4171536324
 20
182.0153741511
  0
VERTEX
  8
0
 62
7
  6
CONTINUOUS
 10
67.2969274532
 20
181.9655590544
  0
VERTEX
  8
0
 62
7
  6
CONTINUOUS
 10
67.1840734989
 20
181.9090856132
  0
VERTEX
  8
0
 62
7
  6
CONTINUOUS
 10
67.0795796332
 20
181.8474837521
  0
VERTEX
  8
0
 62
7
  6
CONTINUOUS
 10
66.9834631579
 20
181.7819176637
  0
VERTEX
  8
0
 62
7
  6
CONTINUOUS
 10
66.8952777157
 20
181.7131984158
  0
VERTEX
  8
0
 62
7
  6
CONTINUOUS
 10
66.81454675
 20
181.6419825486
  0
VERTEX
  8
0
 62
7
  6
CONTINUOUS
 10
66.7407955076
 20
181.5687971128
  0
VERTEX
  8
0
 62
7
  6
CONTINUOUS
 10
66.6736987987
 20
181.4942143755
  0
VERTEX
  8
0
 62
7
  6
CONTINUOUS
 10
66.6130427093
 20
181.4188964855
  0
VERTEX
  8
0
 62
7
  6
CONTINUOUS
 10
66.558569949
 20
181.3434594481
  0
VERTEX
  8
0
 62
7
  6
CONTINUOUS
 10
66.509973151
 20
181.2684500079
  0
VERTEX
  8
0
 62
7
  6
CONTINUOUS
 10
66.4669582005
 20
181.1944356999
  0
VERTEX
  8
0
 62
7
  6
CONTINUOUS
 10
66.4292495614
 20
181.1220455753
  0
VERTEX
  8
0
 62
7
  6
CONTINUOUS
 10
66.3965107366
 20
181.0518353986
  0
VERTEX
  8
0
 62
7
  6
CONTINUOUS
 10
66.3683870502
 20
180.9843493154
  0
VERTEX
  8
0
 62
7
  6
CONTINUOUS
 10
66.3446519476
 20
180.9205311033
  0
VERTEX
  8
0
 62
7
  6
CONTINUOUS
 10
66.3251005573
 20
180.8616230003
  0
VERTEX
  8
0
 62
7
  6
CONTINUOUS
 10
66.3093396381
 20
180.8085152169
  0
VERTEX
  8
0
 62
7
  6
CONTINUOUS
 10
66.2967596425
 20
180.7612871563
  0
VERTEX
  8
0
 62
7
  6
CONTINUOUS
 10
66.2865472991
 20
180.7187331154
  0
VERTEX
  8
0
 62
7
  6
CONTINUOUS
 10
66.2780774005
 20
180.6796455962
  0
VERTEX
  8
0
 62
7
  6
CONTINUOUS
 10
66.2709255382
 20
180.6431104485
  0
VERTEX
  8
0
 62
7
  6
CONTINUOUS
 10
66.2648845005
 20
180.6089435721
  0
VERTEX
  8
0
 62
7
  6
CONTINUOUS
 10
66.2598182484
 20
180.5772420097
  0
VERTEX
  8
0
 62
7
  6
CONTINUOUS
 10
66.255576164
 20
180.5479337557
  0
VERTEX
  8
0
 62
7
  6
CONTINUOUS
 10
66.2520056526
 20
180.5207800742
  0
VERTEX
  8
0
 62
7
  6
CONTINUOUS
 10
66.2489687975
 20
180.4954514644
  0
VERTEX
  8
0
 62
7
  6
CONTINUOUS
 10
66.2463531076
 20
180.4716220659
  0
VERTEX
  8
0
 62
7
  6
CONTINUOUS
 10
66.244066099
 20
180.4489587466
  0
VERTEX
  8
0
 62
7
  6
CONTINUOUS
 10
66.242031257
 20
180.4271134728
  0
VERTEX
  8
0
 62
7
  6
CONTINUOUS
 10
66.2401905341
 20
180.4057856895
  0
VERTEX
  8
0
 62
7
  6
CONTINUOUS
 10
66.2385002583
 20
180.3847226731
  0
VERTEX
  8
0
 62
7
  6
CONTINUOUS
 10
66.2369275969
 20
180.3637148084
  0
VERTEX
  8
0
 62
7
  6
CONTINUOUS
 10
66.2354475847
 20
180.3425865994
  0
VERTEX
  8
0
 62
7
  6
CONTINUOUS
 10
66.2326936429
 20
180.2994061094
  0
SEQEND
  0
POLYLINE
  8
SURFACE
 62
7
  6
CONTINUOUS
 66
1
 70
0
  0
VERTEX
  8
SURFACE
 62
7
  6
CONTINUOUS
 10
201.7260239607
 20
182.128733181
  0
VERTEX
  8
SURFACE
 62
7
  6
CONTINUOUS
 10
201.6239653847
 20
182.1258391546
  0
VERTEX
  8
SURFACE
 62
7
  6
CONTINUOUS
 10
201.4892023739
 20
182.1130950111
  0
VERTEX
  8
SURFACE
 62
7
  6
CONTINUOUS
 10
201.3554241281
 20
182.0901911413
  0
VERTEX
  8
SURFACE
 62
7
  6
CONTINUOUS
 10
201.2244382658
 20
182.0574778318
  0
VERTEX
  8
SURFACE
 62
7
  6
CONTINUOUS
 10
201.0979517515
 20
182.015671329
  0
VERTEX
  8
SURFACE
 62
7
  6
CONTINUOUS
 10
200.9775144964
 20
181.9658274074
  0
VERTEX
  8
SURFACE
 62
7
  6
CONTINUOUS
 10
200.8644669775
 20
181.9093000038
  0
VERTEX
  8
SURFACE
 62
7
  6
CONTINUOUS
 10
200.7598114544
 20
181.8476311285
  0
VERTEX
  8
SURFACE
 62
7
  6
CONTINUOUS
 10
200.6635615594
 20
181.7819895475
  0
VERTEX
  8
SURFACE
 62
7
  6
CONTINUOUS
 10
200.5752653449
 20
181.7131881447
  0
VERTEX
  8
SURFACE
 62
7
  6
CONTINUOUS
 10
200.4944412539
 20
181.6418837238
  0
VERTEX
  8
SURFACE
 62
7
  6
CONTINUOUS
 10
200.4206107598
 20
181.5686028737
  0
VERTEX
  8
SURFACE
 62
7
  6
CONTINUOUS
 10
200.3534500587
 20
181.4939218556
  0
VERTEX
  8
SURFACE
 62
7
  6
CONTINUOUS
 10
200.2927458911
 20
181.4185068889
  0
VERTEX
  8
SURFACE
 62
7
  6
CONTINUOUS
 10
200.2382408041
 20
181.3429777875
  0
VERTEX
  8
SURFACE
 62
7
  6
CONTINUOUS
 10
200.1896260935
 20
181.2678838899
  0
VERTEX
  8
SURFACE
 62
7
  6
CONTINUOUS
 10
200.1466062678
 20
181.1937954317
  0
VERTEX
  8
SURFACE
 62
7
  6
CONTINUOUS
 10
200.1089013858
 20
181.1213383459
  0
VERTEX
  8
SURFACE
 62
7
  6
CONTINUOUS
 10
200.0761716175
 20
181.0510651559
  0
VERTEX
  8
SURFACE
 62
7
  6
CONTINUOUS
 10
200.0480614466
 20
180.9835209131
  0
VERTEX
  8
SURFACE
 62
7
  6
CONTINUOUS
 10
200.0243522172
 20
180.9196760665
  0
VERTEX
  8
SURFACE
 62
7
  6
CONTINUOUS
 10
200.0048406099
 20
180.8607923704
  0
VERTEX
  8
SURFACE
 62
7
  6
CONTINUOUS
 10
199.9891302113
 20
180.8077680385
  0
VERTEX
  8
SURFACE
 62
7
  6
CONTINUOUS
 10
199.9765966918
 20
180.7606409612
  0
VERTEX
  8
SURFACE
 62
7
  6
CONTINUOUS
 10
199.9664181121
 20
180.7181654297
  0
VERTEX
  8
SURFACE
 62
7
  6
CONTINUOUS
 10
199.9579697129
 20
180.6791218626
  0
VERTEX
  8
SURFACE
 62
7
  6
CONTINUOUS
 10
199.9508304806
 20
180.6425986081
  0
VERTEX
  8
SURFACE
 62
7
  6
CONTINUOUS
 10
199.9448005281
 20
180.6084429892
  0
VERTEX
  8
SURFACE
 62
7
  6
CONTINUOUS
 10
199.9397447961
 20
180.5767579488
  0
VERTEX
  8
SURFACE
 62
7
  6
CONTINUOUS
 10
199.9355127227
 20
180.5474728109
  0
VERTEX
  8
SURFACE
 62
7
  6
CONTINUOUS
 10
199.9319510829
 20
180.5203444658
  0
VERTEX
  8
SURFACE
 62
7
  6
CONTINUOUS
 10
199.9289216706
 20
180.4950397609
  0
VERTEX
  8
SURFACE
 62
7
  6
CONTINUOUS
 10
199.9263119811
 20
180.4712305009
  0
VERTEX
  8
SURFACE
 62
7
  6
CONTINUOUS
 10
199.9240295285
 20
180.4485808511
  0
VERTEX
  8
SURFACE
 62
7
  6
CONTINUOUS
 10
199.9219981197
 20
180.4267432814
  0
VERTEX
  8
SURFACE
 62
7
  6
CONTINUOUS
 10
199.9201600197
 20
180.4054184842
  0
VERTEX
  8
SURFACE
 62
7
  6
CONTINUOUS
 10
199.9184717887
 20
180.3843548628
  0
VERTEX
  8
SURFACE
 62
7
  6
CONTINUOUS
 10
199.9169007692
 20
180.3633438787
  0
VERTEX
  8
SURFACE
 62
7
  6
CONTINUOUS
 10
199.9154221183
 20
180.3422108866
  0
VERTEX
  8
SURFACE
 62
7
  6
CONTINUOUS
 10
199.9126703758
 20
180.2990184501
  0
SEQEND
  0
POLYLINE
  8
SURFACE
 62
7
  6
CONTINUOUS
 66
1
 70
0
  0
VERTEX
  8
SURFACE
 62
7
  6
CONTINUOUS
 10
168.3060239607
 20
182.128733181
  0
VERTEX
  8
SURFACE
 62
7
  6
CONTINUOUS
 10
168.2039653847
 20
182.1258391546
  0
VERTEX
  8
SURFACE
 62
7
  6
CONTINUOUS
 10
168.0692023739
 20
182.1130950111
  0
VERTEX
  8
SURFACE
 62
7
  6
CONTINUOUS
 10
167.9354241281
 20
182.0901911413
  0
VERTEX
  8
SURFACE
 62
7
  6
CONTINUOUS
 10
167.8044382658
 20
182.0574778318
  0
VERTEX
  8
SURFACE
 62
7
  6
CONTINUOUS
 10
167.6779517515
 20
182.015671329
  0
VERTEX
  8
SURFACE
 62
7
  6
CONTINUOUS
 10
167.5575144964
 20
181.9658274074
  0
VERTEX
  8
SURFACE
 62
7
  6
CONTINUOUS
 10
167.4444669775
 20
181.9093000038
  0
VERTEX
  8
SURFACE
 62
7
  6
CONTINUOUS
 10
167.3398114544
 20
181.8476311285
  0
VERTEX
  8
SURFACE
 62
7
  6
CONTINUOUS
 10
167.2435615594
 20
181.7819895475
  0
VERTEX
  8
SURFACE
 62
7
  6
CONTINUOUS
 10
167.1552653449
 20
181.7131881447
  0
VERTEX
  8
SURFACE
 62
7
  6
CONTINUOUS
 10
167.0744412539
 20
181.6418837238
  0
VERTEX
  8
SURFACE
 62
7
  6
CONTINUOUS
 10
167.0006107598
 20
181.5686028737
  0
VERTEX
  8
SURFACE
 62
7
  6
CONTINUOUS
 10
166.9334500587
 20
181.4939218556
  0
VERTEX
  8
SURFACE
 62
7
  6
CONTINUOUS
 10
166.8727458911
 20
181.4185068889
  0
VERTEX
  8
SURFACE
 62
7
  6
CONTINUOUS
 10
166.8182408041
 20
181.3429777875
  0
VERTEX
  8
SURFACE
 62
7
  6
CONTINUOUS
 10
166.7696260935
 20
181.2678838899
  0
VERTEX
  8
SURFACE
 62
7
  6
CONTINUOUS
 10
166.7266062678
 20
181.1937954317
  0
VERTEX
  8
SURFACE
 62
7
  6
CONTINUOUS
 10
166.6889013858
 20
181.1213383459
  0
VERTEX
  8
SURFACE
 62
7
  6
CONTINUOUS
 10
166.6561716175
 20
181.0510651559
  0
VERTEX
  8
SURFACE
 62
7
  6
CONTINUOUS
 10
166.6280614466
 20
180.9835209131
  0
VERTEX
  8
SURFACE
 62
7
  6
CONTINUOUS
 10
166.6043522172
 20
180.9196760665
  0
VERTEX
  8
SURFACE
 62
7
  6
CONTINUOUS
 10
166.5848406099
 20
180.8607923704
  0
VERTEX
  8
SURFACE
 62
7
  6
CONTINUOUS
 10
166.5691302113
 20
180.8077680385
  0
VERTEX
  8
SURFACE
 62
7
  6
CONTINUOUS
 10
166.5565966918
 20
180.7606409612
  0
VERTEX
  8
SURFACE
 62
7
  6
CONTINUOUS
 10
166.5464181121
 20
180.7181654297
  0
VERTEX
  8
SURFACE
 62
7
  6
CONTINUOUS
 10
166.5379697129
 20
180.6791218626
  0
VERTEX
  8
SURFACE
 62
7
  6
CONTINUOUS
 10
166.5308304806
 20
180.6425986081
  0
VERTEX
  8
SURFACE
 62
7
  6
CONTINUOUS
 10
166.5248005281
 20
180.6084429892
  0
VERTEX
  8
SURFACE
 62
7
  6
CONTINUOUS
 10
166.5197447961
 20
180.5767579488
  0
VERTEX
  8
SURFACE
 62
7
  6
CONTINUOUS
 10
166.5155127227
 20
180.5474728109
  0
VERTEX
  8
SURFACE
 62
7
  6
CONTINUOUS
 10
166.5119510829
 20
180.5203444658
  0
VERTEX
  8
SURFACE
 62
7
  6
CONTINUOUS
 10
166.5089216706
 20
180.4950397609
  0
VERTEX
  8
SURFACE
 62
7
  6
CONTINUOUS
 10
166.5063119811
 20
180.4712305009
  0
VERTEX
  8
SURFACE
 62
7
  6
CONTINUOUS
 10
166.5040295285
 20
180.4485808511
  0
VERTEX
  8
SURFACE
 62
7
  6
CONTINUOUS
 10
166.5019981197
 20
180.4267432814
  0
VERTEX
  8
SURFACE
 62
7
  6
CONTINUOUS
 10
166.5001600197
 20
180.4054184842
  0
VERTEX
  8
SURFACE
 62
7
  6
CONTINUOUS
 10
166.4984717887
 20
180.3843548628
  0
VERTEX
  8
SURFACE
 62
7
  6
CONTINUOUS
 10
166.4969007692
 20
180.3633438787
  0
VERTEX
  8
SURFACE
 62
7
  6
CONTINUOUS
 10
166.4954221183
 20
180.3422108866
  0
VERTEX
  8
SURFACE
 62
7
  6
CONTINUOUS
 10
166.4926703758
 20
180.2990184501
  0
SEQEND
  0
POLYLINE
  8
0
 62
7
  6
CONTINUOUS
 66
1
 70
0
  0
VERTEX
  8
0
 62
7
  6
CONTINUOUS
 10
134.8860239589
 20
182.128733181
  0
VERTEX
  8
0
 62
7
  6
CONTINUOUS
 10
134.7839652413
 20
182.1258391465
  0
VERTEX
  8
0
 62
7
  6
CONTINUOUS
 10
134.6492023114
 20
182.113095003
  0
VERTEX
  8
0
 62
7
  6
CONTINUOUS
 10
134.5154243155
 20
182.0901911809
  0
VERTEX
  8
0
 62
7
  6
CONTINUOUS
 10
134.3844388134
 20
182.0574779909
  0
VERTEX
  8
0
 62
7
  6
CONTINUOUS
 10
134.2579527105
 20
182.0156716862
  0
VERTEX
  8
0
 62
7
  6
CONTINUOUS
 10
134.1375158618
 20
181.9658280317
  0
VERTEX
  8
0
 62
7
  6
CONTINUOUS
 10
134.0244686937
 20
181.9093009391
  0
VERTEX
  8
0
 62
7
  6
CONTINUOUS
 10
133.919813433
 20
181.8476323867
  0
VERTEX
  8
0
 62
7
  6
CONTINUOUS
 10
133.8235637261
 20
181.7819911308
  0
VERTEX
  8
0
 62
7
  6
CONTINUOUS
 10
133.735267641
 20
181.713190052
  0
VERTEX
  8
0
 62
7
  6
CONTINUOUS
 10
133.6544436348
 20
181.6418859551
  0
VERTEX
  8
0
 62
7
  6
CONTINUOUS
 10
133.5806131913
 20
181.5686054313
  0
VERTEX
  8
0
 62
7
  6
CONTINUOUS
 10
133.513452503
 20
181.4939247316
  0
VERTEX
  8
0
 62
7
  6
CONTINUOUS
 10
133.4527483093
 20
181.4185100648
  0
VERTEX
  8
0
 62
7
  6
CONTINUOUS
 10
133.3982431585
 20
181.3429812349
  0
VERTEX
  8
0
 62
7
  6
CONTINUOUS
 10
133.3496283506
 20
181.2678875741
  0
VERTEX
  8
0
 62
7
  6
CONTINUOUS
 10
133.3066083973
 20
181.1937993086
  0
VERTEX
  8
0
 62
7
  6
CONTINUOUS
 10
133.2689033681
 20
181.1213423754
  0
VERTEX
  8
0
 62
7
  6
CONTINUOUS
 10
133.2361734416
 20
181.051069302
  0
VERTEX
  8
0
 62
7
  6
CONTINUOUS
 10
133.2080631047
 20
180.9835251348
  0
VERTEX
  8
0
 62
7
  6
CONTINUOUS
 10
133.1843537018
 20
180.9196803047
  0
VERTEX
  8
0
 62
7
  6
CONTINUOUS
 10
133.1648418916
 20
180.8607964686
  0
VERTEX
  8
0
 62
7
  6
CONTINUOUS
 10
133.149131273
 20
180.8077718288
  0
VERTEX
  8
0
 62
7
  6
CONTINUOUS
 10
133.1365975538
 20
180.7606443813
  0
VERTEX
  8
0
 62
7
  6
CONTINUOUS
 10
133.1264188125
 20
180.718168509
  0
VERTEX
  8
0
 62
7
  6
CONTINUOUS
 10
133.1179702879
 20
180.6791246605
  0
VERTEX
  8
0
 62
7
  6
CONTINUOUS
 10
133.1108309582
 20
180.6426011822
  0
VERTEX
  8
0
 62
7
  6
CONTINUOUS
 10
133.1048009226
 20
180.608445343
  0
VERTEX
  8
0
 62
7
  6
CONTINUOUS
 10
133.0997451198
 20
180.576760085
  0
VERTEX
  8
0
 62
7
  6
CONTINUOUS
 10
133.0955129874
 20
180.547474736
  0
VERTEX
  8
0
 62
7
  6
CONTINUOUS
 10
133.0919513043
 20
180.5203462343
  0
VERTEX
  8
0
 62
7
  6
CONTINUOUS
 10
133.0889218603
 20
180.4950414183
  0
VERTEX
  8
0
 62
7
  6
CONTINUOUS
 10
133.0863121445
 20
180.4712320571
  0
VERTEX
  8
0
 62
7
  6
CONTINUOUS
 10
133.0840296708
 20
180.4485823224
  0
VERTEX
  8
0
 62
7
  6
CONTINUOUS
 10
133.081998245
 20
180.4267446836
  0
VERTEX
  8
0
 62
7
  6
CONTINUOUS
 10
133.0801601315
 20
180.4054198307
  0
VERTEX
  8
0
 62
7
  6
CONTINUOUS
 10
133.07847189
 20
180.3843561727
  0
VERTEX
  8
0
 62
7
  6
CONTINUOUS
 10
133.0769008638
 20
180.3633451864
  0
VERTEX
  8
0
 62
7
  6
CONTINUOUS
 10
133.075422207
 20
180.3422121948
  0
VERTEX
  8
0
 62
7
  6
CONTINUOUS
 10
133.0726704547
 20
180.2990197662
  0
SEQEND
  0
POLYLINE
  8
0
 62
7
  6
CONTINUOUS
 66
1
 70
0
  0
VERTEX
  8
0
 62
7
  6
CONTINUOUS
 10
101.4660239589
 20
182.128733181
  0
VERTEX
  8
0
 62
7
  6
CONTINUOUS
 10
101.3639652413
 20
182.1258391465
  0
VERTEX
  8
0
 62
7
  6
CONTINUOUS
 10
101.2292023114
 20
182.113095003
  0
VERTEX
  8
0
 62
7
  6
CONTINUOUS
 10
101.0954243155
 20
182.0901911809
  0
VERTEX
  8
0
 62
7
  6
CONTINUOUS
 10
100.9644388134
 20
182.0574779909
  0
VERTEX
  8
0
 62
7
  6
CONTINUOUS
 10
100.8379527105
 20
182.0156716862
  0
VERTEX
  8
0
 62
7
  6
CONTINUOUS
 10
100.7175158618
 20
181.9658280317
  0
VERTEX
  8
0
 62
7
  6
CONTINUOUS
 10
100.6044686937
 20
181.9093009391
  0
VERTEX
  8
0
 62
7
  6
CONTINUOUS
 10
100.499813433
 20
181.8476323867
  0
VERTEX
  8
0
 62
7
  6
CONTINUOUS
 10
100.4035637261
 20
181.7819911308
  0
VERTEX
  8
0
 62
7
  6
CONTINUOUS
 10
100.315267641
 20
181.713190052
  0
VERTEX
  8
0
 62
7
  6
CONTINUOUS
 10
100.2344436348
 20
181.6418859551
  0
VERTEX
  8
0
 62
7
  6
CONTINUOUS
 10
100.1606131913
 20
181.5686054313
  0
VERTEX
  8
0
 62
7
  6
CONTINUOUS
 10
100.093452503
 20
181.4939247316
  0
VERTEX
  8
0
 62
7
  6
CONTINUOUS
 10
100.0327483093
 20
181.4185100648
  0
VERTEX
  8
0
 62
7
  6
CONTINUOUS
 10
99.9782431585
 20
181.3429812349
  0
VERTEX
  8
0
 62
7
  6
CONTINUOUS
 10
99.9296283506
 20
181.2678875741
  0
VERTEX
  8
0
 62
7
  6
CONTINUOUS
 10
99.8866083973
 20
181.1937993086
  0
VERTEX
  8
0
 62
7
  6
CONTINUOUS
 10
99.8489033681
 20
181.1213423754
  0
VERTEX
  8
0
 62
7
  6
CONTINUOUS
 10
99.8161734416
 20
181.051069302
  0
VERTEX
  8
0
 62
7
  6
CONTINUOUS
 10
99.7880631047
 20
180.9835251348
  0
VERTEX
  8
0
 62
7
  6
CONTINUOUS
 10
99.7643537018
 20
180.9196803047
  0
VERTEX
  8
0
 62
7
  6
CONTINUOUS
 10
99.7448418916
 20
180.8607964686
  0
VERTEX
  8
0
 62
7
  6
CONTINUOUS
 10
99.729131273
 20
180.8077718288
  0
VERTEX
  8
0
 62
7
  6
CONTINUOUS
 10
99.7165975538
 20
180.7606443813
  0
VERTEX
  8
0
 62
7
  6
CONTINUOUS
 10
99.7064188125
 20
180.718168509
  0
VERTEX
  8
0
 62
7
  6
CONTINUOUS
 10
99.6979702879
 20
180.6791246605
  0
VERTEX
  8
0
 62
7
  6
CONTINUOUS
 10
99.6908309582
 20
180.6426011822
  0
VERTEX
  8
0
 62
7
  6
CONTINUOUS
 10
99.6848009226
 20
180.608445343
  0
VERTEX
  8
0
 62
7
  6
CONTINUOUS
 10
99.6797451198
 20
180.576760085
  0
VERTEX
  8
0
 62
7
  6
CONTINUOUS
 10
99.6755129874
 20
180.547474736
  0
VERTEX
  8
0
 62
7
  6
CONTINUOUS
 10
99.6719513043
 20
180.5203462343
  0
VERTEX
  8
0
 62
7
  6
CONTINUOUS
 10
99.6689218603
 20
180.4950414183
  0
VERTEX
  8
0
 62
7
  6
CONTINUOUS
 10
99.6663121445
 20
180.4712320571
  0
VERTEX
  8
0
 62
7
  6
CONTINUOUS
 10
99.6640296708
 20
180.4485823224
  0
VERTEX
  8
0
 62
7
  6
CONTINUOUS
 10
99.661998245
 20
180.4267446836
  0
VERTEX
  8
0
 62
7
  6
CONTINUOUS
 10
99.6601601315
 20
180.4054198307
  0
VERTEX
  8
0
 62
7
  6
CONTINUOUS
 10
99.65847189
 20
180.3843561727
  0
VERTEX
  8
0
 62
7
  6
CONTINUOUS
 10
99.6569008638
 20
180.3633451864
  0
VERTEX
  8
0
 62
7
  6
CONTINUOUS
 10
99.655422207
 20
180.3422121947
  0
VERTEX
  8
0
 62
7
  6
CONTINUOUS
 10
99.6526704547
 20
180.2990197662
  0
SEQEND
  0
LINE
  8
SURFACE
 62
7
  6
CONTINUOUS
 10
214.2740807981
 20
182.1287333312
 11
201.726023914
 21
182.1287333312
  0
LINE
  8
SURFACE
 62
7
  6
CONTINUOUS
 10
180.8540807981
 20
182.1287333312
 11
168.306023914
 21
182.1287333312
  0
LINE
  8
0
 62
7
  6
CONTINUOUS
 10
68.0460239139
 20
182.1287333312
 11
80.5940807981
 21
182.1287333312
  0
LINE
  8
0
 62
7
  6
CONTINUOUS
 10
101.466023914
 20
182.1287333312
 11
114.0140807981
 21
182.1287333312
  0
LINE
  8
0
 62
7
  6
CONTINUOUS
 10
134.886023914
 20
182.1287333312
 11
147.4340807981
 21
182.1287333312
  0
LINE
  8
SURFACE
 62
7
  6
CONTINUOUS
 10
235.2961287514
 20
182.1287333312
 11
247.915052356
 21
182.1287333312
  0
POLYLINE
  8
SURFACE
 62
7
  6
CONTINUOUS
 66
1
 70
0
  0
VERTEX
  8
SURFACE
 62
7
  6
CONTINUOUS
 10
215.8223228933
 20
113.5299379743
  0
VERTEX
  8
SURFACE
 62
7
  6
CONTINUOUS
 10
215.9194684311
 20
113.3573440179
  0
VERTEX
  8
SURFACE
 62
7
  6
CONTINUOUS
 10
216.0144917631
 20
113.161511165
  0
VERTEX
  8
SURFACE
 62
7
  6
CONTINUOUS
 10
216.1013414
 20
112.9529596548
  0
VERTEX
  8
SURFACE
 62
7
  6
CONTINUOUS
 10
216.1802295606
 20
112.7314479104
  0
VERTEX
  8
SURFACE
 62
7
  6
CONTINUOUS
 10
216.2511722981
 20
112.4968277829
  0
VERTEX
  8
SURFACE
 62
7
  6
CONTINUOUS
 10
216.3140316978
 20
112.2492419086
  0
VERTEX
  8
SURFACE
 62
7
  6
CONTINUOUS
 10
216.368737367
 20
111.9884879988
  0
VERTEX
  8
SURFACE
 62
7
  6
CONTINUOUS
 10
216.4152180355
 20
111.7141584418
  0
VERTEX
  8
SURFACE
 62
7
  6
CONTINUOUS
 10
216.4533661666
 20
111.4258524571
  0
VERTEX
  8
SURFACE
 62
7
  6
CONTINUOUS
 10
216.4830836722
 20
111.1229860904
  0
VERTEX
  8
SURFACE
 62
7
  6
CONTINUOUS
 10
216.5042789682
 20
110.8048312391
  0
VERTEX
  8
SURFACE
 62
7
  6
CONTINUOUS
 10
216.5168666792
 20
110.4707831597
  0
VERTEX
  8
SURFACE
 62
7
  6
CONTINUOUS
 10
216.5208293594
 20
110.134720694
  0
SEQEND
  0
POLYLINE
  8
SURFACE
 62
7
  6
CONTINUOUS
 66
1
 70
0
  0
VERTEX
  8
SURFACE
 62
7
  6
CONTINUOUS
 10
200.1777819443
 20
113.5299382667
  0
VERTEX
  8
SURFACE
 62
7
  6
CONTINUOUS
 10
200.225383319
 20
113.6067179649
  0
VERTEX
  8
SURFACE
 62
7
  6
CONTINUOUS
 10
200.2835522725
 20
113.6954249247
  0
VERTEX
  8
SURFACE
 62
7
  6
CONTINUOUS
 10
200.3409030863
 20
113.7772672914
  0
VERTEX
  8
SURFACE
 62
7
  6
CONTINUOUS
 10
200.3980294777
 20
113.8531938094
  0
VERTEX
  8
SURFACE
 62
7
  6
CONTINUOUS
 10
200.4555485371
 20
113.9239877998
  0
VERTEX
  8
SURFACE
 62
7
  6
CONTINUOUS
 10
200.5139680741
 20
113.9900982196
  0
VERTEX
  8
SURFACE
 62
7
  6
CONTINUOUS
 10
200.5734934849
 20
114.0514908247
  0
VERTEX
  8
SURFACE
 62
7
  6
CONTINUOUS
 10
200.634195894
 20
114.1079325605
  0
VERTEX
  8
SURFACE
 62
7
  6
CONTINUOUS
 10
200.6960340612
 20
114.1590697948
  0
VERTEX
  8
SURFACE
 62
7
  6
CONTINUOUS
 10
200.7589832139
 20
114.2045672623
  0
VERTEX
  8
SURFACE
 62
7
  6
CONTINUOUS
 10
200.8230019686
 20
114.2440820529
  0
VERTEX
  8
SURFACE
 62
7
  6
CONTINUOUS
 10
200.8873445554
 20
114.2769713876
  0
VERTEX
  8
SURFACE
 62
7
  6
CONTINUOUS
 10
200.9517350694
 20
114.3031093918
  0
VERTEX
  8
SURFACE
 62
7
  6
CONTINUOUS
 10
201.0160516822
 20
114.3225934173
  0
VERTEX
  8
SURFACE
 62
7
  6
CONTINUOUS
 10
201.0794384778
 20
114.3355455187
  0
VERTEX
  8
SURFACE
 62
7
  6
CONTINUOUS
 10
201.1414434799
 20
114.3425007807
  0
VERTEX
  8
SURFACE
 62
7
  6
CONTINUOUS
 10
201.1919232197
 20
114.3442106311
  0
SEQEND
  0
POLYLINE
  8
SURFACE
 62
7
  6
CONTINUOUS
 66
1
 70
0
  0
VERTEX
  8
SURFACE
 62
7
  6
CONTINUOUS
 10
216.6233592278
 20
90.447137896
  0
VERTEX
  8
SURFACE
 62
7
  6
CONTINUOUS
 10
216.6250099813
 20
90.4213951859
  0
VERTEX
  8
SURFACE
 62
7
  6
CONTINUOUS
 10
216.6267184722
 20
90.3966548071
  0
VERTEX
  8
SURFACE
 62
7
  6
CONTINUOUS
 10
216.628506116
 20
90.3726683675
  0
VERTEX
  8
SURFACE
 62
7
  6
CONTINUOUS
 10
216.6304057477
 20
90.3491041921
  0
VERTEX
  8
SURFACE
 62
7
  6
CONTINUOUS
 10
216.632461198
 20
90.3255935973
  0
VERTEX
  8
SURFACE
 62
7
  6
CONTINUOUS
 10
216.6347294546
 20
90.3017410675
  0
VERTEX
  8
SURFACE
 62
7
  6
CONTINUOUS
 10
216.6372781174
 20
90.2771811388
  0
VERTEX
  8
SURFACE
 62
7
  6
CONTINUOUS
 10
216.6401934943
 20
90.2515240375
  0
VERTEX
  8
SURFACE
 62
7
  6
CONTINUOUS
 10
216.6435882304
 20
90.2243345685
  0
VERTEX
  8
SURFACE
 62
7
  6
CONTINUOUS
 10
216.6476067375
 20
90.1951465304
  0
VERTEX
  8
SURFACE
 62
7
  6
CONTINUOUS
 10
216.6524334989
 20
90.1634638985
  0
VERTEX
  8
SURFACE
 62
7
  6
CONTINUOUS
 10
216.658292376
 20
90.1288243316
  0
VERTEX
  8
SURFACE
 62
7
  6
CONTINUOUS
 10
216.6653563392
 20
90.0912885518
  0
VERTEX
  8
SURFACE
 62
7
  6
CONTINUOUS
 10
216.6737056957
 20
90.0514121594
  0
VERTEX
  8
SURFACE
 62
7
  6
CONTINUOUS
 10
216.6833651481
 20
90.0098471735
  0
VERTEX
  8
SURFACE
 62
7
  6
CONTINUOUS
 10
216.6947330226
 20
89.9656739467
  0
VERTEX
  8
SURFACE
 62
7
  6
CONTINUOUS
 10
216.7086196388
 20
89.9169799719
  0
VERTEX
  8
SURFACE
 62
7
  6
CONTINUOUS
 10
216.7261428356
 20
89.8617587842
  0
VERTEX
  8
SURFACE
 62
7
  6
CONTINUOUS
 10
216.7480742483
 20
89.7999564141
  0
VERTEX
  8
SURFACE
 62
7
  6
CONTINUOUS
 10
216.7748412206
 20
89.732713581
  0
VERTEX
  8
SURFACE
 62
7
  6
CONTINUOUS
 10
216.806774235
 20
89.661261808
  0
VERTEX
  8
SURFACE
 62
7
  6
CONTINUOUS
 10
216.8445252116
 20
89.5860314909
  0
VERTEX
  8
SURFACE
 62
7
  6
CONTINUOUS
 10
216.8888390283
 20
89.5074158924
  0
VERTEX
  8
SURFACE
 62
7
  6
CONTINUOUS
 10
216.9404585535
 20
89.4259756789
  0
VERTEX
  8
SURFACE
 62
7
  6
CONTINUOUS
 10
217.0001006318
 20
89.3424416147
  0
VERTEX
  8
SURFACE
 62
7
  6
CONTINUOUS
 10
217.0685343988
 20
89.2575905002
  0
VERTEX
  8
SURFACE
 62
7
  6
CONTINUOUS
 10
217.1468467777
 20
89.1720113436
  0
VERTEX
  8
SURFACE
 62
7
  6
CONTINUOUS
 10
217.2361089795
 20
89.0866151103
  0
VERTEX
  8
SURFACE
 62
7
  6
CONTINUOUS
 10
217.3359627815
 20
89.0037006474
  0
VERTEX
  8
SURFACE
 62
7
  6
CONTINUOUS
 10
217.4448379529
 20
88.9260002388
  0
VERTEX
  8
SURFACE
 62
7
  6
CONTINUOUS
 10
217.560625692
 20
88.8557848396
  0
VERTEX
  8
SURFACE
 62
7
  6
CONTINUOUS
 10
217.6812614055
 20
88.7945107932
  0
VERTEX
  8
SURFACE
 62
7
  6
CONTINUOUS
 10
217.8058971393
 20
88.7425612325
  0
VERTEX
  8
SURFACE
 62
7
  6
CONTINUOUS
 10
217.9339277231
 20
88.7001369533
  0
VERTEX
  8
SURFACE
 62
7
  6
CONTINUOUS
 10
218.0647480933
 20
88.6674178068
  0
VERTEX
  8
SURFACE
 62
7
  6
CONTINUOUS
 10
218.1977533602
 20
88.6445644542
  0
VERTEX
  8
SURFACE
 62
7
  6
CONTINUOUS
 10
218.3323332659
 20
88.6317208877
  0
VERTEX
  8
SURFACE
 62
7
  6
CONTINUOUS
 10
218.4360239586
 20
88.6287334813
  0
SEQEND
  0
LINE
  8
SURFACE
 62
7
  6
CONTINUOUS
 10
216.6201714419
 20
90.5024729651
 11
216.6233592278
 21
90.447137896
  0
LINE
  8
SURFACE
 62
7
  6
CONTINUOUS
 10
216.617059992
 20
90.5643316696
 11
216.6201714419
 21
90.5024729651
  0
LINE
  8
SURFACE
 62
7
  6
CONTINUOUS
 10
216.6139536028
 20
90.6345214791
 11
216.617059992
 21
90.5643316696
  0
LINE
  8
SURFACE
 62
7
  6
CONTINUOUS
 10
216.6107997163
 20
90.7149873795
 11
216.6139536028
 21
90.6345214791
  0
LINE
  8
SURFACE
 62
7
  6
CONTINUOUS
 10
216.6058263545
 20
90.8618957242
 11
216.6107997163
 21
90.7149873795
  0
LINE
  8
SURFACE
 62
7
  6
CONTINUOUS
 10
216.6004862185
 20
91.0486006796
 11
216.6058263545
 21
90.8618957242
  0
LINE
  8
SURFACE
 62
7
  6
CONTINUOUS
 10
216.5929897129
 20
91.3650393985
 11
216.6004862185
 21
91.0486006796
  0
LINE
  8
SURFACE
 62
7
  6
CONTINUOUS
 10
216.5852098144
 20
91.7664627066
 11
216.5929897129
 21
91.3650393985
  0
LINE
  8
SURFACE
 62
7
  6
CONTINUOUS
 10
216.5772780699
 20
92.2609805138
 11
216.5852098144
 21
91.7664627066
  0
LINE
  8
SURFACE
 62
7
  6
CONTINUOUS
 10
216.1348274199
 20
178.3568085175
 11
216.126866144
 21
178.8765425267
  0
LINE
  8
SURFACE
 62
7
  6
CONTINUOUS
 10
216.5692444206
 20
92.862049146
 11
216.5772780699
 21
92.2609805138
  0
LINE
  8
SURFACE
 62
7
  6
CONTINUOUS
 10
216.1428775716
 20
177.7266702735
 11
216.1348274199
 21
178.3568085175
  0
LINE
  8
SURFACE
 62
7
  6
CONTINUOUS
 10
216.5611715895
 20
93.5860530963
 11
216.5692444206
 21
92.862049146
  0
LINE
  8
SURFACE
 62
7
  6
CONTINUOUS
 10
216.1509488419
 20
176.9688447037
 11
216.1428775716
 21
177.7266702735
  0
LINE
  8
SURFACE
 62
7
  6
CONTINUOUS
 10
216.5531413464
 20
94.4538598495
 11
216.5611715895
 21
93.5860530963
  0
LINE
  8
SURFACE
 62
7
  6
CONTINUOUS
 10
216.1589504401
 20
176.0613197932
 11
216.1509488419
 21
176.9688447037
  0
LINE
  8
SURFACE
 62
7
  6
CONTINUOUS
 10
216.5472059709
 20
95.2164243474
 11
216.5531413464
 21
94.4538598495
  0
LINE
  8
SURFACE
 62
7
  6
CONTINUOUS
 10
216.1648607369
 20
175.2608172544
 11
216.1589504401
 21
176.0613197932
  0
LINE
  8
SURFACE
 62
7
  6
CONTINUOUS
 10
216.5413496841
 20
96.1034486684
 11
216.5472059709
 21
95.2164243474
  0
LINE
  8
SURFACE
 62
7
  6
CONTINUOUS
 10
216.1706898765
 20
174.3232940607
 11
216.1648607369
 21
175.2608172544
  0
LINE
  8
SURFACE
 62
7
  6
CONTINUOUS
 10
216.5355521743
 20
97.1673460512
 11
216.5413496841
 21
96.1034486684
  0
LINE
  8
SURFACE
 62
7
  6
CONTINUOUS
 10
216.1764638625
 20
173.1827115103
 11
216.1706898765
 21
174.3232940607
  0
LINE
  8
SURFACE
 62
7
  6
CONTINUOUS
 10
216.5317710496
 20
98.010025369
 11
216.5355521743
 21
97.1673460512
  0
LINE
  8
SURFACE
 62
7
  6
CONTINUOUS
 10
216.1801402808
 20
172.2837033041
 11
216.1764638625
 21
173.1827115103
  0
LINE
  8
SURFACE
 62
7
  6
CONTINUOUS
 10
216.5282375512
 20
98.9684687872
 11
216.5317710496
 21
98.010025369
  0
LINE
  8
SURFACE
 62
7
  6
CONTINUOUS
 10
216.183494081
 20
171.260554079
 11
216.1801402808
 21
172.2837033041
  0
LINE
  8
SURFACE
 62
7
  6
CONTINUOUS
 10
216.5251137912
 20
100.0599813379
 11
216.5282375512
 21
98.9684687872
  0
LINE
  8
SURFACE
 62
7
  6
CONTINUOUS
 10
216.1863031337
 20
170.1097599147
 11
216.183494081
 21
171.260554079
  0
LINE
  8
SURFACE
 62
7
  6
CONTINUOUS
 10
216.5227195045
 20
101.2458353865
 11
216.5251137912
 21
100.0599813379
  0
LINE
  8
SURFACE
 62
7
  6
CONTINUOUS
 10
216.1882177023
 20
168.9145044485
 11
216.1863031337
 21
170.1097599147
  0
LINE
  8
SURFACE
 62
7
  6
CONTINUOUS
 10
216.5212971238
 20
102.4395448076
 11
216.5227195045
 21
101.2458353865
  0
LINE
  8
SURFACE
 62
7
  6
CONTINUOUS
 10
216.1891604279
 20
167.7188246115
 11
216.1882177023
 21
168.9145044485
  0
LINE
  8
SURFACE
 62
7
  6
CONTINUOUS
 10
216.5208292592
 20
103.6287333312
 11
216.5212971238
 21
102.4395448076
  0
LINE
  8
SURFACE
 62
7
  6
CONTINUOUS
 10
216.1892754529
 20
160.622745949
 11
216.1891604279
 21
167.7188246115
  0
LINE
  8
SURFACE
 62
7
  6
CONTINUOUS
 10
216.5208292591
 20
110.134720694
 11
216.5208292591
 21
103.6287333312
  0
POLYLINE
  8
SURFACE
 62
7
  6
CONTINUOUS
 66
1
 70
0
  0
VERTEX
  8
SURFACE
 62
7
  6
CONTINUOUS
 10
216.0867454849
 20
180.3103287546
  0
VERTEX
  8
SURFACE
 62
7
  6
CONTINUOUS
 10
216.0850947322
 20
180.3360714551
  0
VERTEX
  8
SURFACE
 62
7
  6
CONTINUOUS
 10
216.0833862416
 20
180.3608118318
  0
VERTEX
  8
SURFACE
 62
7
  6
CONTINUOUS
 10
216.0815985973
 20
180.3847982787
  0
VERTEX
  8
SURFACE
 62
7
  6
CONTINUOUS
 10
216.0796989671
 20
180.4083624356
  0
VERTEX
  8
SURFACE
 62
7
  6
CONTINUOUS
 10
216.0776435189
 20
180.4318730107
  0
VERTEX
  8
SURFACE
 62
7
  6
CONTINUOUS
 10
216.075375264
 20
180.4557255283
  0
VERTEX
  8
SURFACE
 62
7
  6
CONTINUOUS
 10
216.0728266023
 20
180.4802854541
  0
VERTEX
  8
SURFACE
 62
7
  6
CONTINUOUS
 10
216.069911225
 20
180.505942565
  0
VERTEX
  8
SURFACE
 62
7
  6
CONTINUOUS
 10
216.066516486
 20
180.5331320605
  0
VERTEX
  8
SURFACE
 62
7
  6
CONTINUOUS
 10
216.0624979853
 20
180.5623200567
  0
VERTEX
  8
SURFACE
 62
7
  6
CONTINUOUS
 10
216.0576712318
 20
180.5940026467
  0
VERTEX
  8
SURFACE
 62
7
  6
CONTINUOUS
 10
216.0518123636
 20
180.628642176
  0
VERTEX
  8
SURFACE
 62
7
  6
CONTINUOUS
 10
216.0447484091
 20
180.6661779272
  0
VERTEX
  8
SURFACE
 62
7
  6
CONTINUOUS
 10
216.0363990605
 20
180.7060543032
  0
VERTEX
  8
SURFACE
 62
7
  6
CONTINUOUS
 10
216.0267396149
 20
180.7476192808
  0
VERTEX
  8
SURFACE
 62
7
  6
CONTINUOUS
 10
216.0153717488
 20
180.7917924968
  0
VERTEX
  8
SURFACE
 62
7
  6
CONTINUOUS
 10
216.0014851446
 20
180.8404864533
  0
VERTEX
  8
SURFACE
 62
7
  6
CONTINUOUS
 10
215.9839619647
 20
180.8957076154
  0
VERTEX
  8
SURFACE
 62
7
  6
CONTINUOUS
 10
215.9620305707
 20
180.9575099633
  0
VERTEX
  8
SURFACE
 62
7
  6
CONTINUOUS
 10
215.9352636306
 20
181.0247527508
  0
VERTEX
  8
SURFACE
 62
7
  6
CONTINUOUS
 10
215.9033306613
 20
181.0962044643
  0
VERTEX
  8
SURFACE
 62
7
  6
CONTINUOUS
 10
215.8655797366
 20
181.1714347262
  0
VERTEX
  8
SURFACE
 62
7
  6
CONTINUOUS
 10
215.82126598
 20
181.2500502728
  0
VERTEX
  8
SURFACE
 62
7
  6
CONTINUOUS
 10
215.7696465234
 20
181.3314904395
  0
VERTEX
  8
SURFACE
 62
7
  6
CONTINUOUS
 10
215.7100045205
 20
181.4150244658
  0
VERTEX
  8
SURFACE
 62
7
  6
CONTINUOUS
 10
215.6415708376
 20
181.4998755498
  0
VERTEX
  8
SURFACE
 62
7
  6
CONTINUOUS
 10
215.5632585632
 20
181.5854546736
  0
VERTEX
  8
SURFACE
 62
7
  6
CONTINUOUS
 10
215.4739964943
 20
181.6708508709
  0
VERTEX
  8
SURFACE
 62
7
  6
CONTINUOUS
 10
215.3741428287
 20
181.7537653215
  0
VERTEX
  8
SURFACE
 62
7
  6
CONTINUOUS
 10
215.2652677624
 20
181.8314657618
  0
VERTEX
  8
SURFACE
 62
7
  6
CONTINUOUS
 10
215.1494800568
 20
181.9016812456
  0
VERTEX
  8
SURFACE
 62
7
  6
CONTINUOUS
 10
215.028844286
 20
181.9629554166
  0
VERTEX
  8
SURFACE
 62
7
  6
CONTINUOUS
 10
214.9042084217
 20
182.0149051124
  0
VERTEX
  8
SURFACE
 62
7
  6
CONTINUOUS
 10
214.7761776567
 20
182.0573295149
  0
VERTEX
  8
SURFACE
 62
7
  6
CONTINUOUS
 10
214.6453570811
 20
182.0900487579
  0
VERTEX
  8
SURFACE
 62
7
  6
CONTINUOUS
 10
214.5123516141
 20
182.112902173
  0
VERTEX
  8
SURFACE
 62
7
  6
CONTINUOUS
 10
214.3777715438
 20
182.1257457689
  0
VERTEX
  8
SURFACE
 62
7
  6
CONTINUOUS
 10
214.2740807517
 20
182.128733181
  0
SEQEND
  0
LINE
  8
SURFACE
 62
7
  6
CONTINUOUS
 10
216.0899332694
 20
180.2549937109
 11
216.0867454849
 21
180.3103287546
  0
LINE
  8
SURFACE
 62
7
  6
CONTINUOUS
 10
216.0930447186
 20
180.1931350209
 11
216.0899332694
 21
180.2549937109
  0
LINE
  8
SURFACE
 62
7
  6
CONTINUOUS
 10
216.0961511068
 20
180.1229452426
 11
216.0930447186
 21
180.1931350209
  0
LINE
  8
SURFACE
 62
7
  6
CONTINUOUS
 10
216.0993049924
 20
180.0424793736
 11
216.0961511068
 21
180.1229452426
  0
LINE
  8
SURFACE
 62
7
  6
CONTINUOUS
 10
216.1042783523
 20
179.8955711041
 11
216.0993049924
 21
180.0424793736
  0
LINE
  8
SURFACE
 62
7
  6
CONTINUOUS
 10
216.1096184864
 20
179.7088662532
 11
216.1042783523
 21
179.8955711041
  0
LINE
  8
SURFACE
 62
7
  6
CONTINUOUS
 10
216.1171149895
 20
179.3924277146
 11
216.1096184864
 21
179.7088662532
  0
POLYLINE
  8
SURFACE
 62
7
  6
CONTINUOUS
 66
1
 70
0
  0
VERTEX
  8
SURFACE
 62
7
  6
CONTINUOUS
 10
216.126866144
 20
178.8765425267
  0
VERTEX
  8
SURFACE
 62
7
  6
CONTINUOUS
 10
216.1248948856
 20
178.9910046362
  0
VERTEX
  8
SURFACE
 62
7
  6
CONTINUOUS
 10
216.1171149895
 20
179.3924277146
  0
SEQEND
  0
POLYLINE
  8
SURFACE
 62
7
  6
CONTINUOUS
 66
1
 70
0
  0
VERTEX
  8
SURFACE
 62
7
  6
CONTINUOUS
 10
216.8877818217
 20
157.22752869
  0
VERTEX
  8
SURFACE
 62
7
  6
CONTINUOUS
 10
216.7906362943
 20
157.4001226172
  0
VERTEX
  8
SURFACE
 62
7
  6
CONTINUOUS
 10
216.6956129652
 20
157.5959554614
  0
VERTEX
  8
SURFACE
 62
7
  6
CONTINUOUS
 10
216.6087633183
 20
157.8045069918
  0
VERTEX
  8
SURFACE
 62
7
  6
CONTINUOUS
 10
216.5298751519
 20
158.0260187446
  0
VERTEX
  8
SURFACE
 62
7
  6
CONTINUOUS
 10
216.4589324209
 20
158.2606388608
  0
VERTEX
  8
SURFACE
 62
7
  6
CONTINUOUS
 10
216.396073015
 20
158.5082247601
  0
VERTEX
  8
SURFACE
 62
7
  6
CONTINUOUS
 10
216.341367346
 20
158.7689786584
  0
VERTEX
  8
SURFACE
 62
7
  6
CONTINUOUS
 10
216.2948866741
 20
159.0433082352
  0
VERTEX
  8
SURFACE
 62
7
  6
CONTINUOUS
 10
216.2567385437
 20
159.3316142267
  0
VERTEX
  8
SURFACE
 62
7
  6
CONTINUOUS
 10
216.2270210417
 20
159.6344805625
  0
VERTEX
  8
SURFACE
 62
7
  6
CONTINUOUS
 10
216.2058257443
 20
159.9526354137
  0
VERTEX
  8
SURFACE
 62
7
  6
CONTINUOUS
 10
216.1932380327
 20
160.2866834914
  0
VERTEX
  8
SURFACE
 62
7
  6
CONTINUOUS
 10
216.1892753526
 20
160.622745949
  0
SEQEND
  0
LINE
  8
SURFACE
 62
7
  6
CONTINUOUS
 10
233.4765234844
 20
180.1797282542
 11
233.4729182108
 21
180.0954458804
  0
LINE
  8
SURFACE
 62
7
  6
CONTINUOUS
 10
233.4789612469
 20
180.2301458936
 11
233.4765234844
 21
180.1797282542
  0
LINE
  8
SURFACE
 62
7
  6
CONTINUOUS
 10
233.4814736632
 20
180.2769362156
 11
233.4789612469
 21
180.2301458936
  0
LINE
  8
SURFACE
 62
7
  6
CONTINUOUS
 10
233.4841250391
 20
180.3210588364
 11
233.4814736632
 21
180.2769362156
  0
POLYLINE
  8
SURFACE
 62
7
  6
CONTINUOUS
 66
1
 70
0
  0
VERTEX
  8
SURFACE
 62
7
  6
CONTINUOUS
 10
233.1400884607
 20
158.3688959648
  0
VERTEX
  8
SURFACE
 62
7
  6
CONTINUOUS
 10
233.0947666068
 20
158.1934588504
  0
VERTEX
  8
SURFACE
 62
7
  6
CONTINUOUS
 10
233.0671142878
 20
158.088471238
  0
VERTEX
  8
SURFACE
 62
7
  6
CONTINUOUS
 10
233.0382120546
 20
157.9812835159
  0
VERTEX
  8
SURFACE
 62
7
  6
CONTINUOUS
 10
233.0080537127
 20
157.8728909286
  0
VERTEX
  8
SURFACE
 62
7
  6
CONTINUOUS
 10
232.9766393964
 20
157.764339878
  0
VERTEX
  8
SURFACE
 62
7
  6
CONTINUOUS
 10
232.9439954136
 20
157.6567408811
  0
VERTEX
  8
SURFACE
 62
7
  6
CONTINUOUS
 10
232.9102094628
 20
157.5512797441
  0
VERTEX
  8
SURFACE
 62
7
  6
CONTINUOUS
 10
232.8754505692
 20
157.4491979636
  0
VERTEX
  8
SURFACE
 62
7
  6
CONTINUOUS
 10
232.8400035783
 20
157.3517736651
  0
VERTEX
  8
SURFACE
 62
7
  6
CONTINUOUS
 10
232.8042750925
 20
157.2602465605
  0
VERTEX
  8
SURFACE
 62
7
  6
CONTINUOUS
 10
232.7686653725
 20
157.1754409613
  0
VERTEX
  8
SURFACE
 62
7
  6
CONTINUOUS
 10
232.7334330662
 20
157.097554618
  0
VERTEX
  8
SURFACE
 62
7
  6
CONTINUOUS
 10
232.6982195318
 20
157.0253865953
  0
VERTEX
  8
SURFACE
 62
7
  6
CONTINUOUS
 10
232.6625182663
 20
156.9577038656
  0
VERTEX
  8
SURFACE
 62
7
  6
CONTINUOUS
 10
232.625877702
 20
156.8936616748
  0
VERTEX
  8
SURFACE
 62
7
  6
CONTINUOUS
 10
232.5881065782
 20
156.833071178
  0
VERTEX
  8
SURFACE
 62
7
  6
CONTINUOUS
 10
232.5491115761
 20
156.7759719071
  0
VERTEX
  8
SURFACE
 62
7
  6
CONTINUOUS
 10
232.5088533625
 20
156.7225144944
  0
VERTEX
  8
SURFACE
 62
7
  6
CONTINUOUS
 10
232.4673224824
 20
156.6728985634
  0
VERTEX
  8
SURFACE
 62
7
  6
CONTINUOUS
 10
232.4247666808
 20
156.6275807925
  0
VERTEX
  8
SURFACE
 62
7
  6
CONTINUOUS
 10
232.3814890998
 20
156.5869344464
  0
VERTEX
  8
SURFACE
 62
7
  6
CONTINUOUS
 10
232.3377465093
 20
156.5511380445
  0
VERTEX
  8
SURFACE
 62
7
  6
CONTINUOUS
 10
232.2934365017
 20
156.5199950766
  0
VERTEX
  8
SURFACE
 62
7
  6
CONTINUOUS
 10
232.2478802232
 20
156.4930009237
  0
VERTEX
  8
SURFACE
 62
7
  6
CONTINUOUS
 10
232.1998297044
 20
156.4696178106
  0
VERTEX
  8
SURFACE
 62
7
  6
CONTINUOUS
 10
232.1484426833
 20
156.4498408498
  0
VERTEX
  8
SURFACE
 62
7
  6
CONTINUOUS
 10
232.0931651452
 20
156.4339278202
  0
VERTEX
  8
SURFACE
 62
7
  6
CONTINUOUS
 10
232.033904464
 20
156.4222894132
  0
VERTEX
  8
SURFACE
 62
7
  6
CONTINUOUS
 10
231.9703911838
 20
156.4152768729
  0
VERTEX
  8
SURFACE
 62
7
  6
CONTINUOUS
 10
231.9112852199
 20
156.413255994
  0
SEQEND
  0
LINE
  8
SURFACE
 62
7
  6
CONTINUOUS
 10
232.8988657513
 20
102.5157739716
 11
232.8992754529
 21
110.1347207551
  0
LINE
  8
SURFACE
 62
7
  6
CONTINUOUS
 10
233.3812526612
 20
168.2426353398
 11
233.3808419362
 21
160.6226980045
  0
LINE
  8
SURFACE
 62
7
  6
CONTINUOUS
 10
232.8977287479
 20
101.4716075148
 11
232.8988657513
 21
102.5157739716
  0
LINE
  8
SURFACE
 62
7
  6
CONTINUOUS
 10
233.3823909295
 20
169.2865872841
 11
233.3812526612
 21
168.2426353398
  0
LINE
  8
SURFACE
 62
7
  6
CONTINUOUS
 10
232.8949836929
 20
100.0570293753
 11
232.8977287479
 21
101.4716075148
  0
LINE
  8
SURFACE
 62
7
  6
CONTINUOUS
 10
233.3851382448
 20
170.7008938639
 11
233.3823909295
 21
169.2865872841
  0
LINE
  8
SURFACE
 62
7
  6
CONTINUOUS
 10
232.8913384127
 20
98.8107352531
 11
232.8949836929
 21
100.0570293753
  0
LINE
  8
SURFACE
 62
7
  6
CONTINUOUS
 10
233.3887858781
 20
171.9468952552
 11
233.3851382448
 21
170.7008938639
  0
LINE
  8
SURFACE
 62
7
  6
CONTINUOUS
 10
232.8855192586
 20
97.3691360022
 11
232.8913384127
 21
98.8107352531
  0
LINE
  8
SURFACE
 62
7
  6
CONTINUOUS
 10
233.3946080614
 20
173.3881052161
 11
233.3887858781
 21
171.9468952552
  0
LINE
  8
SURFACE
 62
7
  6
CONTINUOUS
 10
232.8789893453
 20
96.1423742842
 11
232.8855192586
 21
97.3691360022
  0
LINE
  8
SURFACE
 62
7
  6
CONTINUOUS
 10
233.4011414437
 20
174.6146251492
 11
233.3946080614
 21
173.3881052161
  0
LINE
  8
SURFACE
 62
7
  6
CONTINUOUS
 10
233.4095835843
 20
175.8562207311
 11
233.4011414437
 21
174.6146251492
  0
LINE
  8
SURFACE
 62
7
  6
CONTINUOUS
 10
232.8705527442
 20
94.9007251522
 11
232.8789893453
 21
96.1423742842
  0
LINE
  8
SURFACE
 62
7
  6
CONTINUOUS
 10
233.4196553088
 20
177.0154839123
 11
233.4095835843
 21
175.8562207311
  0
LINE
  8
SURFACE
 62
7
  6
CONTINUOUS
 10
232.8604876641
 20
93.7414358092
 11
232.8705527442
 21
94.9007251522
  0
POLYLINE
  8
SURFACE
 62
7
  6
CONTINUOUS
 66
1
 70
0
  0
VERTEX
  8
SURFACE
 62
7
  6
CONTINUOUS
 10
232.899275343
 20
110.1347207551
  0
VERTEX
  8
SURFACE
 62
7
  6
CONTINUOUS
 10
232.9032380376
 20
110.4707831597
  0
VERTEX
  8
SURFACE
 62
7
  6
CONTINUOUS
 10
232.9158257354
 20
110.8048312602
  0
VERTEX
  8
SURFACE
 62
7
  6
CONTINUOUS
 10
232.9370210455
 20
111.1229861148
  0
VERTEX
  8
SURFACE
 62
7
  6
CONTINUOUS
 10
232.9667385399
 20
111.4258523666
  0
VERTEX
  8
SURFACE
 62
7
  6
CONTINUOUS
 10
233.0048866648
 20
111.7141583831
  0
VERTEX
  8
SURFACE
 62
7
  6
CONTINUOUS
 10
233.0513673467
 20
111.9884880148
  0
VERTEX
  8
SURFACE
 62
7
  6
CONTINUOUS
 10
233.1060730203
 20
112.2492418923
  0
VERTEX
  8
SURFACE
 62
7
  6
CONTINUOUS
 10
233.1689324463
 20
112.4968278844
  0
VERTEX
  8
SURFACE
 62
7
  6
CONTINUOUS
 10
233.2398751622
 20
112.7314479741
  0
VERTEX
  8
SURFACE
 62
7
  6
CONTINUOUS
 10
233.3187633786
 20
112.9529598281
  0
VERTEX
  8
SURFACE
 62
7
  6
CONTINUOUS
 10
233.4056131071
 20
113.1615115181
  0
VERTEX
  8
SURFACE
 62
7
  6
CONTINUOUS
 10
233.5006364152
 20
113.3573442841
  0
VERTEX
  8
SURFACE
 62
7
  6
CONTINUOUS
 10
233.5977818731
 20
113.5299380233
  0
SEQEND
  0
LINE
  8
SURFACE
 62
7
  6
CONTINUOUS
 10
233.4297133602
 20
177.9293824495
 11
233.4196553088
 21
177.0154839123
  0
LINE
  8
SURFACE
 62
7
  6
CONTINUOUS
 10
232.850435671
 20
92.8274915761
 11
232.8604876641
 21
93.7414358092
  0
POLYLINE
  8
SURFACE
 62
7
  6
CONTINUOUS
 66
1
 70
0
  0
VERTEX
  8
SURFACE
 62
7
  6
CONTINUOUS
 10
233.3808420196
 20
160.6226980045
  0
VERTEX
  8
SURFACE
 62
7
  6
CONTINUOUS
 10
233.3748035251
 20
160.2101931068
  0
VERTEX
  8
SURFACE
 62
7
  6
CONTINUOUS
 10
233.3553502701
 20
159.8003970291
  0
VERTEX
  8
SURFACE
 62
7
  6
CONTINUOUS
 10
233.3219760499
 20
159.4094186908
  0
VERTEX
  8
SURFACE
 62
7
  6
CONTINUOUS
 10
233.2744500182
 20
159.0380984506
  0
VERTEX
  8
SURFACE
 62
7
  6
CONTINUOUS
 10
233.2127097518
 20
158.6868916196
  0
VERTEX
  8
SURFACE
 62
7
  6
CONTINUOUS
 10
233.1400883851
 20
158.3688959842
  0
SEQEND
  0
LINE
  8
SURFACE
 62
7
  6
CONTINUOUS
 10
232.8388599914
 20
92.0022532711
 11
232.850435671
 21
92.8274915761
  0
LINE
  8
SURFACE
 62
7
  6
CONTINUOUS
 10
233.4412960063
 20
178.7546195924
 11
233.4297133602
 21
177.9293824495
  0
LINE
  8
SURFACE
 62
7
  6
CONTINUOUS
 10
233.4524527547
 20
179.3638960089
 11
233.4412960063
 21
178.7546195924
  0
LINE
  8
SURFACE
 62
7
  6
CONTINUOUS
 10
232.8277101616
 20
91.3930303236
 11
232.8388599914
 21
92.0022532711
  0
LINE
  8
SURFACE
 62
7
  6
CONTINUOUS
 10
233.4599854005
 20
179.6868448147
 11
233.4524527547
 21
179.3638960089
  0
LINE
  8
SURFACE
 62
7
  6
CONTINUOUS
 10
232.8201832794
 20
91.0701790633
 11
232.8277101616
 21
91.3930303236
  0
LINE
  8
SURFACE
 62
7
  6
CONTINUOUS
 10
233.4654792552
 20
179.881777697
 11
233.4599854005
 21
179.6868448147
  0
LINE
  8
SURFACE
 62
7
  6
CONTINUOUS
 10
232.8146952028
 20
90.8753664555
 11
232.8201832794
 21
91.0701790633
  0
LINE
  8
SURFACE
 62
7
  6
CONTINUOUS
 10
233.4705047385
 20
180.0321785468
 11
233.4654792552
 21
179.881777697
  0
LINE
  8
SURFACE
 62
7
  6
CONTINUOUS
 10
232.8096743846
 20
90.72504187
 11
232.8146952028
 21
90.8753664555
  0
LINE
  8
SURFACE
 62
7
  6
CONTINUOUS
 10
233.4729182108
 20
180.0954458804
 11
233.4705047385
 21
180.0321785468
  0
LINE
  8
SURFACE
 62
7
  6
CONTINUOUS
 10
232.8060637532
 20
90.6324271598
 11
232.8096743846
 21
90.72504187
  0
LINE
  8
SURFACE
 62
7
  6
CONTINUOUS
 10
232.8024483964
 20
90.5518408806
 11
232.8060637532
 21
90.6324271598
  0
LINE
  8
SURFACE
 62
7
  6
CONTINUOUS
 10
232.7999814305
 20
90.5033693518
 11
232.8024483964
 21
90.5518408806
  0
LINE
  8
SURFACE
 62
7
  6
CONTINUOUS
 10
232.7974110691
 20
90.4580605529
 11
232.7999814305
 21
90.5033693518
  0
POLYLINE
  8
SURFACE
 62
7
  6
CONTINUOUS
 66
1
 70
0
  0
VERTEX
  8
SURFACE
 62
7
  6
CONTINUOUS
 10
233.5977818222
 20
113.5299380542
  0
VERTEX
  8
SURFACE
 62
7
  6
CONTINUOUS
 10
233.6453191164
 20
113.6066169122
  0
VERTEX
  8
SURFACE
 62
7
  6
CONTINUOUS
 10
233.7034976486
 20
113.6953442793
  0
VERTEX
  8
SURFACE
 62
7
  6
CONTINUOUS
 10
233.7616052421
 20
113.7782345143
  0
VERTEX
  8
SURFACE
 62
7
  6
CONTINUOUS
 10
233.8199778199
 20
113.8556845635
  0
VERTEX
  8
SURFACE
 62
7
  6
CONTINUOUS
 10
233.878918928
 20
113.9279603525
  0
VERTEX
  8
SURFACE
 62
7
  6
CONTINUOUS
 10
233.938653524
 20
113.9951486874
  0
VERTEX
  8
SURFACE
 62
7
  6
CONTINUOUS
 10
233.9993488717
 20
114.0572058012
  0
VERTEX
  8
SURFACE
 62
7
  6
CONTINUOUS
 10
234.0610025989
 20
114.1138750595
  0
VERTEX
  8
SURFACE
 62
7
  6
CONTINUOUS
 10
234.1232090935
 20
114.1645891608
  0
VERTEX
  8
SURFACE
 62
7
  6
CONTINUOUS
 10
234.1854859324
 20
114.2088913
  0
VERTEX
  8
SURFACE
 62
7
  6
CONTINUOUS
 10
234.2471751467
 20
114.2464221499
  0
VERTEX
  8
SURFACE
 62
7
  6
CONTINUOUS
 10
234.3076486549
 20
114.2771106641
  0
VERTEX
  8
SURFACE
 62
7
  6
CONTINUOUS
 10
234.3667774916
 20
114.30133507
  0
VERTEX
  8
SURFACE
 62
7
  6
CONTINUOUS
 10
234.4257328876
 20
114.3199047521
  0
VERTEX
  8
SURFACE
 62
7
  6
CONTINUOUS
 10
234.4865585089
 20
114.333402213
  0
VERTEX
  8
SURFACE
 62
7
  6
CONTINUOUS
 10
234.5513587263
 20
114.3417411316
  0
VERTEX
  8
SURFACE
 62
7
  6
CONTINUOUS
 10
234.6119231915
 20
114.3442106151
  0
SEQEND
  0
LINE
  8
SURFACE
 62
7
  6
CONTINUOUS
 10
249.715052356
 20
180.3287321437
 11
249.715052356
 21
116.1442089036
  0
POLYLINE
  8
SURFACE
 62
7
  6
CONTINUOUS
 66
1
 70
0
  0
VERTEX
  8
SURFACE
 62
7
  6
CONTINUOUS
 10
249.715052356
 20
116.1442106797
  0
VERTEX
  8
SURFACE
 62
7
  6
CONTINUOUS
 10
249.7104235338
 20
116.0152055098
  0
VERTEX
  8
SURFACE
 62
7
  6
CONTINUOUS
 10
249.6971408705
 20
115.8909113968
  0
VERTEX
  8
SURFACE
 62
7
  6
CONTINUOUS
 10
249.6749482821
 20
115.7663663606
  0
VERTEX
  8
SURFACE
 62
7
  6
CONTINUOUS
 10
249.6450746164
 20
115.6471966169
  0
VERTEX
  8
SURFACE
 62
7
  6
CONTINUOUS
 10
249.6060184384
 20
115.5272554882
  0
VERTEX
  8
SURFACE
 62
7
  6
CONTINUOUS
 10
249.5592468563
 20
115.4116641315
  0
VERTEX
  8
SURFACE
 62
7
  6
CONTINUOUS
 10
249.5035790251
 20
115.2976984107
  0
VERTEX
  8
SURFACE
 62
7
  6
CONTINUOUS
 10
249.44077569
 20
115.1891356522
  0
VERTEX
  8
SURFACE
 62
7
  6
CONTINUOUS
 10
249.3682265536
 20
115.0820031899
  0
VERTEX
  8
SURFACE
 62
7
  6
CONTINUOUS
 10
249.2901261977
 20
114.9826720751
  0
VERTEX
  8
SURFACE
 62
7
  6
CONTINUOUS
 10
249.2021306295
 20
114.8858667211
  0
VERTEX
  8
SURFACE
 62
7
  6
CONTINUOUS
 10
249.1083172658
 20
114.796576139
  0
VERTEX
  8
SURFACE
 62
7
  6
CONTINUOUS
 10
249.0068032588
 20
114.7130992353
  0
VERTEX
  8
SURFACE
 62
7
  6
CONTINUOUS
 10
248.897963596
 20
114.6362698671
  0
VERTEX
  8
SURFACE
 62
7
  6
CONTINUOUS
 10
248.783061477
 20
114.5673276257
  0
VERTEX
  8
SURFACE
 62
7
  6
CONTINUOUS
 10
248.6631208363
 20
114.5070199306
  0
VERTEX
  8
SURFACE
 62
7
  6
CONTINUOUS
 10
248.5352965245
 20
114.4544482196
  0
VERTEX
  8
SURFACE
 62
7
  6
CONTINUOUS
 10
248.4064757297
 20
114.4125920531
  0
VERTEX
  8
SURFACE
 62
7
  6
CONTINUOUS
 10
248.2690305575
 20
114.3793595719
  0
VERTEX
  8
SURFACE
 62
7
  6
CONTINUOUS
 10
248.133688904
 20
114.3575383371
  0
VERTEX
  8
SURFACE
 62
7
  6
CONTINUOUS
 10
247.9905100725
 20
114.3457930049
  0
VERTEX
  8
SURFACE
 62
7
  6
CONTINUOUS
 10
247.915052356
 20
114.3442106804
  0
SEQEND
  0
LINE
  8
0
 62
7
  6
CONTINUOUS
 10
49.315052356
 20
224.9142015707
 11
49.315052356
 21
251.3142015707
  0
LINE
  8
0
 62
7
  6
CONTINUOUS
 10
65.4186204972
 20
224.8984812409
 11
65.6491941277
 21
251.2984812409
  0
POLYLINE
  8
0
 62
7
  6
CONTINUOUS
 66
1
 70
0
  0
VERTEX
  8
0
 62
7
  6
CONTINUOUS
 10
87.8574236944
 20
231.6365167991
  0
VERTEX
  8
0
 62
7
  6
CONTINUOUS
 10
87.9058272699
 20
231.1004681736
  0
VERTEX
  8
0
 62
7
  6
CONTINUOUS
 10
87.9580801229
 20
230.575055498
  0
VERTEX
  8
0
 62
7
  6
CONTINUOUS
 10
88.014103628
 20
230.061179168
  0
VERTEX
  8
0
 62
7
  6
CONTINUOUS
 10
88.0738188935
 20
229.5596613803
  0
VERTEX
  8
0
 62
7
  6
CONTINUOUS
 10
88.137141022
 20
229.0713114316
  0
VERTEX
  8
0
 62
7
  6
CONTINUOUS
 10
88.2039790933
 20
228.596924357
  0
VERTEX
  8
0
 62
7
  6
CONTINUOUS
 10
88.2742361649
 20
228.1372794564
  0
VERTEX
  8
0
 62
7
  6
CONTINUOUS
 10
88.3478092964
 20
227.693138694
  0
VERTEX
  8
0
 62
7
  6
CONTINUOUS
 10
88.4245895291
 20
227.265245383
  0
VERTEX
  8
0
 62
7
  6
CONTINUOUS
 10
88.5044614344
 20
226.8543249103
  0
VERTEX
  8
0
 62
7
  6
CONTINUOUS
 10
88.5873040898
 20
226.4610778555
  0
VERTEX
  8
0
 62
7
  6
CONTINUOUS
 10
88.6729909863
 20
226.0861798054
  0
VERTEX
  8
0
 62
7
  6
CONTINUOUS
 10
88.7613784682
 20
225.7303249563
  0
SEQEND
  0
POLYLINE
  8
0
 62
7
  6
CONTINUOUS
 66
1
 70
0
  0
VERTEX
  8
0
 62
7
  6
CONTINUOUS
 10
87.3489490129
 20
229.918907468
  0
VERTEX
  8
0
 62
7
  6
CONTINUOUS
 10
87.3766762596
 20
229.6044142727
  0
VERTEX
  8
0
 62
7
  6
CONTINUOUS
 10
87.4054459842
 20
229.2951636959
  0
SEQEND
  0
POLYLINE
  8
0
 62
7
  6
CONTINUOUS
 66
1
 70
0
  0
VERTEX
  8
0
 62
7
  6
CONTINUOUS
 10
88.1964068154
 20
231.6365167991
  0
VERTEX
  8
0
 62
7
  6
CONTINUOUS
 10
88.2362822422
 20
231.1820599609
  0
VERTEX
  8
0
 62
7
  6
CONTINUOUS
 10
88.2788667693
 20
230.7351261709
  0
VERTEX
  8
0
 62
7
  6
CONTINUOUS
 10
88.3241137609
 20
230.2962731669
  0
VERTEX
  8
0
 62
7
  6
CONTINUOUS
 10
88.3719757183
 20
229.866020746
  0
VERTEX
  8
0
 62
7
  6
CONTINUOUS
 10
88.4223953472
 20
229.4449319855
  0
SEQEND
  0
POLYLINE
  8
0
 62
7
  6
CONTINUOUS
 66
1
 70
0
  0
VERTEX
  8
0
 62
7
  6
CONTINUOUS
 10
87.3489490129
 20
230.1046544281
  0
VERTEX
  8
0
 62
7
  6
CONTINUOUS
 10
87.3766537217
 20
229.7834005948
  0
VERTEX
  8
0
 62
7
  6
CONTINUOUS
 10
87.4054459842
 20
229.4675010996
  0
SEQEND
  0
POLYLINE
  8
0
 62
7
  6
CONTINUOUS
 66
1
 70
0
  0
VERTEX
  8
0
 62
7
  6
CONTINUOUS
 10
88.1964068154
 20
231.8731760139
  0
VERTEX
  8
0
 62
7
  6
CONTINUOUS
 10
88.2359833971
 20
231.4060504075
  0
VERTEX
  8
0
 62
7
  6
CONTINUOUS
 10
88.2784209489
 20
230.9466084379
  0
VERTEX
  8
0
 62
7
  6
CONTINUOUS
 10
88.3236705751
 20
230.4954540298
  0
VERTEX
  8
0
 62
7
  6
CONTINUOUS
 10
88.3716822936
 20
230.0531498811
  0
VERTEX
  8
0
 62
7
  6
CONTINUOUS
 10
88.4223953472
 20
229.620307579
  0
SEQEND
  0
LINE
  8
0
 62
7
  6
CONTINUOUS
 10
82.8408977976
 20
251.2984938068
 11
83.0712871073
 21
224.8984938068
  0
LINE
  8
0
 62
7
  6
CONTINUOUS
 10
85.315050287
 20
228.8677318283
 11
85.315050287
 21
229.7772712858
  0
LINE
  8
0
 62
7
  6
CONTINUOUS
 10
85.4280448762
 20
230.2579465036
 11
85.4280448762
 21
230.4519079402
  0
LINE
  8
0
 62
7
  6
CONTINUOUS
 10
85.4845418475
 20
226.6351019447
 11
85.4845418475
 21
226.7669671841
  0
LINE
  8
0
 62
7
  6
CONTINUOUS
 10
85.654033408
 20
229.4449319855
 11
85.654033408
 21
229.0067368952
  0
LINE
  8
0
 62
7
  6
CONTINUOUS
 10
85.654033408
 20
231.0032995945
 11
85.654033408
 21
231.2181935288
  0
LINE
  8
0
 62
7
  6
CONTINUOUS
 10
85.7670279972
 20
228.5993772453
 11
85.7670279972
 21
228.7588885378
  0
LINE
  8
0
 62
7
  6
CONTINUOUS
 10
85.8235249685
 20
226.6351019447
 11
85.8235249685
 21
226.7669671841
  0
LINE
  8
0
 62
7
  6
CONTINUOUS
 10
85.8800219398
 20
226.4566281976
 11
85.8800219398
 21
226.5864517057
  0
LINE
  8
0
 62
7
  6
CONTINUOUS
 10
85.8800219398
 20
231.4170969552
 11
85.8800219398
 21
231.6457233702
  0
LINE
  8
0
 62
7
  6
CONTINUOUS
 10
85.9365195577
 20
228.3430184822
 11
85.9365195577
 21
228.4982762929
  0
LINE
  8
0
 62
7
  6
CONTINUOUS
 10
85.993016529
 20
226.2846721215
 11
85.993016529
 21
226.4125877081
  0
LINE
  8
0
 62
7
  6
CONTINUOUS
 10
86.1625080895
 20
226.2010495946
 11
86.1625080895
 21
226.328057587
  0
LINE
  8
0
 62
7
  6
CONTINUOUS
 10
86.1625080895
 20
228.2190443994
 11
86.1625080895
 21
228.372326215
  0
LINE
  8
0
 62
7
  6
CONTINUOUS
 10
86.1625080895
 20
231.6365167991
 11
86.1625080895
 21
231.8731760139
  0
LINE
  8
0
 62
7
  6
CONTINUOUS
 10
86.5014912105
 20
226.2010495946
 11
86.5014912105
 21
226.328057587
  0
LINE
  8
0
 62
7
  6
CONTINUOUS
 10
86.5014912105
 20
228.2190443994
 11
86.5014912105
 21
228.372326215
  0
LINE
  8
0
 62
7
  6
CONTINUOUS
 10
86.6144857997
 20
231.6365167991
 11
86.6144857997
 21
231.8731760139
  0
LINE
  8
0
 62
7
  6
CONTINUOUS
 10
86.670982771
 20
226.2846721215
 11
86.670982771
 21
226.4125877081
  0
LINE
  8
0
 62
7
  6
CONTINUOUS
 10
86.7274797423
 20
228.0977342658
 11
86.7274797423
 21
228.2491310048
  0
LINE
  8
0
 62
7
  6
CONTINUOUS
 10
86.8404743315
 20
226.4566281976
 11
86.8404743315
 21
226.5864517057
  0
LINE
  8
0
 62
7
  6
CONTINUOUS
 10
86.8969713028
 20
226.9157182329
 11
86.8969713028
 21
226.7268785339
  0
LINE
  8
0
 62
7
  6
CONTINUOUS
 10
86.8969713028
 20
231.4170969552
 11
86.8969713028
 21
231.6457233702
  0
LINE
  8
0
 62
7
  6
CONTINUOUS
 10
86.9534689206
 20
227.8627296321
 11
86.9534689206
 21
228.0106043446
  0
LINE
  8
0
 62
7
  6
CONTINUOUS
 10
87.1794574524
 20
227.4208774789
 11
87.1794574524
 21
227.5625580905
  0
LINE
  8
0
 62
7
  6
CONTINUOUS
 10
87.1794574524
 20
230.8075037617
 11
87.1794574524
 21
231.0164672229
  0
LINE
  8
0
 62
7
  6
CONTINUOUS
 10
87.2359544237
 20
226.6351019447
 11
87.2359544237
 21
227.1492789252
  0
LINE
  8
0
 62
7
  6
CONTINUOUS
 10
87.3489490129
 20
229.918907468
 11
87.3489490129
 21
230.1046544281
  0
LINE
  8
0
 62
7
  6
CONTINUOUS
 10
87.4054459842
 20
229.2951636959
 11
87.4054459842
 21
229.4675010996
  0
LINE
  8
0
 62
7
  6
CONTINUOUS
 10
87.8574236944
 20
231.6365167991
 11
87.8574236944
 21
231.8731760139
  0
LINE
  8
0
 62
7
  6
CONTINUOUS
 10
88.1964068154
 20
231.6365167991
 11
88.1964068154
 21
231.8731760139
  0
LINE
  8
0
 62
7
  6
CONTINUOUS
 10
88.4223953472
 20
229.4449319855
 11
88.4223953472
 21
229.620307579
  0
LINE
  8
0
 62
7
  6
CONTINUOUS
 10
88.9873676465
 20
226.0383524486
 11
88.9873676465
 21
226.1636312069
  0
LINE
  8
0
 62
7
  6
CONTINUOUS
 10
89.5523392993
 20
229.4449319855
 11
89.5523392993
 21
229.620307579
  0
POLYLINE
  8
0
 62
7
  6
CONTINUOUS
 66
1
 70
0
  0
VERTEX
  8
0
 62
7
  6
CONTINUOUS
 10
85.4280448762
 20
230.4519079402
  0
VERTEX
  8
0
 62
7
  6
CONTINUOUS
 10
85.3727676054
 20
230.1119342565
  0
VERTEX
  8
0
 62
7
  6
CONTINUOUS
 10
85.315050287
 20
229.7772712858
  0
SEQEND
  0
POLYLINE
  8
0
 62
7
  6
CONTINUOUS
 66
1
 70
0
  0
VERTEX
  8
0
 62
7
  6
CONTINUOUS
 10
85.4280448762
 20
230.2579465036
  0
VERTEX
  8
0
 62
7
  6
CONTINUOUS
 10
85.3727136378
 20
229.9257072534
  0
VERTEX
  8
0
 62
7
  6
CONTINUOUS
 10
85.315050287
 20
229.5986624465
  0
SEQEND
  0
POLYLINE
  8
0
 62
7
  6
CONTINUOUS
 66
1
 70
0
  0
VERTEX
  8
0
 62
7
  6
CONTINUOUS
 10
85.7670279972
 20
229.918907468
  0
VERTEX
  8
0
 62
7
  6
CONTINUOUS
 10
85.7113617414
 20
229.6805659385
  0
VERTEX
  8
0
 62
7
  6
CONTINUOUS
 10
85.654033408
 20
229.4449319855
  0
SEQEND
  0
POLYLINE
  8
0
 62
7
  6
CONTINUOUS
 66
1
 70
0
  0
VERTEX
  8
0
 62
7
  6
CONTINUOUS
 10
85.5410388188
 20
226.3698535979
  0
VERTEX
  8
0
 62
7
  6
CONTINUOUS
 10
85.6251287943
 20
226.2023321086
  0
VERTEX
  8
0
 62
7
  6
CONTINUOUS
 10
85.7105303793
 20
226.0383524486
  0
SEQEND
  0
POLYLINE
  8
0
 62
7
  6
CONTINUOUS
 66
1
 70
0
  0
VERTEX
  8
0
 62
7
  6
CONTINUOUS
 10
86.9534689206
 20
227.8627296321
  0
VERTEX
  8
0
 62
7
  6
CONTINUOUS
 10
87.0275783075
 20
227.71384321
  0
VERTEX
  8
0
 62
7
  6
CONTINUOUS
 10
87.1029131968
 20
227.5665402623
  0
VERTEX
  8
0
 62
7
  6
CONTINUOUS
 10
87.1794574524
 20
227.4208774789
  0
SEQEND
  0
POLYLINE
  8
0
 62
7
  6
CONTINUOUS
 66
1
 70
0
  0
VERTEX
  8
0
 62
7
  6
CONTINUOUS
 10
86.9534689206
 20
228.0106043446
  0
VERTEX
  8
0
 62
7
  6
CONTINUOUS
 10
87.0275459725
 20
227.8596357118
  0
VERTEX
  8
0
 62
7
  6
CONTINUOUS
 10
87.1028809424
 20
227.7102673843
  0
VERTEX
  8
0
 62
7
  6
CONTINUOUS
 10
87.1794574524
 20
227.5625580905
  0
SEQEND
  0
POLYLINE
  8
0
 62
7
  6
CONTINUOUS
 66
1
 70
0
  0
VERTEX
  8
0
 62
7
  6
CONTINUOUS
 10
85.4280448762
 20
228.3430184822
  0
VERTEX
  8
0
 62
7
  6
CONTINUOUS
 10
85.5020011823
 20
228.1812763938
  0
VERTEX
  8
0
 62
7
  6
CONTINUOUS
 10
85.577336125
 20
228.0211584955
  0
VERTEX
  8
0
 62
7
  6
CONTINUOUS
 10
85.654033408
 20
227.8627296321
  0
SEQEND
  0
POLYLINE
  8
0
 62
7
  6
CONTINUOUS
 66
1
 70
0
  0
VERTEX
  8
0
 62
7
  6
CONTINUOUS
 10
86.8969713028
 20
231.6457233702
  0
VERTEX
  8
0
 62
7
  6
CONTINUOUS
 10
87.0343743718
 20
231.330476691
  0
VERTEX
  8
0
 62
7
  6
CONTINUOUS
 10
87.1794574524
 20
231.0164672229
  0
SEQEND
  0
POLYLINE
  8
0
 62
7
  6
CONTINUOUS
 66
1
 70
0
  0
VERTEX
  8
0
 62
7
  6
CONTINUOUS
 10
86.8404743315
 20
230.2579465036
  0
VERTEX
  8
0
 62
7
  6
CONTINUOUS
 10
86.9237870725
 20
230.0060532965
  0
VERTEX
  8
0
 62
7
  6
CONTINUOUS
 10
87.0099658919
 20
229.7565737172
  0
SEQEND
  0
POLYLINE
  8
0
 62
7
  6
CONTINUOUS
 66
1
 70
0
  0
VERTEX
  8
0
 62
7
  6
CONTINUOUS
 10
85.8235249685
 20
226.6351019447
  0
VERTEX
  8
0
 62
7
  6
CONTINUOUS
 10
85.8516591074
 20
226.5453929766
  0
VERTEX
  8
0
 62
7
  6
CONTINUOUS
 10
85.8800219398
 20
226.4566281976
  0
SEQEND
  0
POLYLINE
  8
0
 62
7
  6
CONTINUOUS
 66
1
 70
0
  0
VERTEX
  8
0
 62
7
  6
CONTINUOUS
 10
85.8235249685
 20
226.7669671841
  0
VERTEX
  8
0
 62
7
  6
CONTINUOUS
 10
85.8516565267
 20
226.6762321855
  0
VERTEX
  8
0
 62
7
  6
CONTINUOUS
 10
85.8800219398
 20
226.5864517057
  0
SEQEND
  0
POLYLINE
  8
0
 62
7
  6
CONTINUOUS
 66
1
 70
0
  0
VERTEX
  8
0
 62
7
  6
CONTINUOUS
 10
85.654033408
 20
229.0067368952
  0
VERTEX
  8
0
 62
7
  6
CONTINUOUS
 10
85.7098777714
 20
228.8018161071
  0
VERTEX
  8
0
 62
7
  6
CONTINUOUS
 10
85.7670279972
 20
228.5993772453
  0
SEQEND
  0
POLYLINE
  8
0
 62
7
  6
CONTINUOUS
 66
1
 70
0
  0
VERTEX
  8
0
 62
7
  6
CONTINUOUS
 10
85.654033408
 20
229.1735129611
  0
VERTEX
  8
0
 62
7
  6
CONTINUOUS
 10
85.709855039
 20
228.9649394897
  0
VERTEX
  8
0
 62
7
  6
CONTINUOUS
 10
85.7670279972
 20
228.7588885378
  0
SEQEND
  0
POLYLINE
  8
0
 62
7
  6
CONTINUOUS
 66
1
 70
0
  0
VERTEX
  8
0
 62
7
  6
CONTINUOUS
 10
85.315050287
 20
228.8677318283
  0
VERTEX
  8
0
 62
7
  6
CONTINUOUS
 10
85.3707418704
 20
228.6031176813
  0
VERTEX
  8
0
 62
7
  6
CONTINUOUS
 10
85.4280448762
 20
228.3430184822
  0
SEQEND
  0
POLYLINE
  8
0
 62
7
  6
CONTINUOUS
 66
1
 70
0
  0
VERTEX
  8
0
 62
7
  6
CONTINUOUS
 10
85.4845418475
 20
226.6351019447
  0
VERTEX
  8
0
 62
7
  6
CONTINUOUS
 10
85.5126253679
 20
226.5013984899
  0
VERTEX
  8
0
 62
7
  6
CONTINUOUS
 10
85.5410388188
 20
226.3698535979
  0
SEQEND
  0
POLYLINE
  8
0
 62
7
  6
CONTINUOUS
 66
1
 70
0
  0
VERTEX
  8
0
 62
7
  6
CONTINUOUS
 10
86.8404743315
 20
227.2128886351
  0
VERTEX
  8
0
 62
7
  6
CONTINUOUS
 10
86.8685290055
 20
227.0631717607
  0
VERTEX
  8
0
 62
7
  6
CONTINUOUS
 10
86.8969713028
 20
226.9157182329
  0
SEQEND
  0
POLYLINE
  8
0
 62
7
  6
CONTINUOUS
 66
1
 70
0
  0
VERTEX
  8
0
 62
7
  6
CONTINUOUS
 10
87.1794574524
 20
230.8075037617
  0
VERTEX
  8
0
 62
7
  6
CONTINUOUS
 10
87.2337198499
 20
230.50766109
  0
VERTEX
  8
0
 62
7
  6
CONTINUOUS
 10
87.2902293995
 20
230.2113783795
  0
VERTEX
  8
0
 62
7
  6
CONTINUOUS
 10
87.3489490129
 20
229.918907468
  0
SEQEND
  0
POLYLINE
  8
0
 62
7
  6
CONTINUOUS
 66
1
 70
0
  0
VERTEX
  8
0
 62
7
  6
CONTINUOUS
 10
87.1794574524
 20
231.0164672229
  0
VERTEX
  8
0
 62
7
  6
CONTINUOUS
 10
87.2336043398
 20
230.7087980842
  0
VERTEX
  8
0
 62
7
  6
CONTINUOUS
 10
87.2901144567
 20
230.4047702371
  0
VERTEX
  8
0
 62
7
  6
CONTINUOUS
 10
87.3489490129
 20
230.1046544281
  0
SEQEND
  0
POLYLINE
  8
0
 62
7
  6
CONTINUOUS
 66
1
 70
0
  0
VERTEX
  8
0
 62
7
  6
CONTINUOUS
 10
88.4788929651
 20
228.8677318283
  0
VERTEX
  8
0
 62
7
  6
CONTINUOUS
 10
88.5428962988
 20
228.4189049947
  0
VERTEX
  8
0
 62
7
  6
CONTINUOUS
 10
88.6099444488
 20
227.9838312665
  0
VERTEX
  8
0
 62
7
  6
CONTINUOUS
 10
88.6799382417
 20
227.5632351155
  0
VERTEX
  8
0
 62
7
  6
CONTINUOUS
 10
88.7527821202
 20
227.157762595
  0
VERTEX
  8
0
 62
7
  6
CONTINUOUS
 10
88.8283748217
 20
226.7680462887
  0
VERTEX
  8
0
 62
7
  6
CONTINUOUS
 10
88.906610212
 20
226.3946987741
  0
VERTEX
  8
0
 62
7
  6
CONTINUOUS
 10
88.9873676465
 20
226.0383524486
  0
SEQEND
  0
POLYLINE
  8
0
 62
7
  6
CONTINUOUS
 66
1
 70
0
  0
VERTEX
  8
0
 62
7
  6
CONTINUOUS
 10
88.5019116073
 20
228.8677318283
  0
VERTEX
  8
0
 62
7
  6
CONTINUOUS
 10
88.5426608296
 20
228.5770123919
  0
VERTEX
  8
0
 62
7
  6
CONTINUOUS
 10
88.609556096
 20
228.1359618626
  0
VERTEX
  8
0
 62
7
  6
CONTINUOUS
 10
88.6794772842
 20
227.7095569174
  0
VERTEX
  8
0
 62
7
  6
CONTINUOUS
 10
88.7523264773
 20
227.2984695442
  0
VERTEX
  8
0
 62
7
  6
CONTINUOUS
 10
88.827999802
 20
226.9033577187
  0
VERTEX
  8
0
 62
7
  6
CONTINUOUS
 10
88.9063882132
 20
226.524858938
  0
VERTEX
  8
0
 62
7
  6
CONTINUOUS
 10
88.9873676465
 20
226.1636312069
  0
SEQEND
  0
POLYLINE
  8
0
 62
7
  6
CONTINUOUS
 66
1
 70
0
  0
VERTEX
  8
0
 62
7
  6
CONTINUOUS
 10
87.1794574524
 20
227.4208774789
  0
VERTEX
  8
0
 62
7
  6
CONTINUOUS
 10
87.2074385681
 20
227.2148191601
  0
VERTEX
  8
0
 62
7
  6
CONTINUOUS
 10
87.2359544237
 20
227.0128715323
  0
SEQEND
  0
POLYLINE
  8
0
 62
7
  6
CONTINUOUS
 66
1
 70
0
  0
VERTEX
  8
0
 62
7
  6
CONTINUOUS
 10
87.1794574524
 20
227.5625580905
  0
VERTEX
  8
0
 62
7
  6
CONTINUOUS
 10
87.2074316512
 20
227.3538368913
  0
VERTEX
  8
0
 62
7
  6
CONTINUOUS
 10
87.2359544237
 20
227.1492789252
  0
SEQEND
  0
POLYLINE
  8
0
 62
7
  6
CONTINUOUS
 66
1
 70
0
  0
VERTEX
  8
0
 62
7
  6
CONTINUOUS
 10
87.0099658919
 20
229.7565737172
  0
VERTEX
  8
0
 62
7
  6
CONTINUOUS
 10
87.0378303058
 20
229.5244246654
  0
VERTEX
  8
0
 62
7
  6
CONTINUOUS
 10
87.0664628633
 20
229.2951636959
  0
SEQEND
  0
LINE
  8
0
 62
7
  6
CONTINUOUS
 10
89.7783278311
 20
231.6365167991
 11
89.7783278311
 21
231.8731760139
  0
LINE
  8
0
 62
7
  6
CONTINUOUS
 10
90.1173112754
 20
231.6365167991
 11
90.1173112754
 21
231.8731760139
  0
LINE
  8
0
 62
7
  6
CONTINUOUS
 10
90.5692886623
 20
230.4352861692
 11
90.5692886623
 21
231.8731760139
  0
LINE
  8
0
 62
7
  6
CONTINUOUS
 10
92.2642042672
 20
230.4352861692
 11
92.2642042672
 21
225.7303249563
  0
LINE
  8
0
 62
7
  6
CONTINUOUS
 10
92.6031873882
 20
225.7303249563
 11
92.6031873882
 21
231.8731760139
  0
LINE
  8
0
 62
7
  6
CONTINUOUS
 10
93.0551649367
 20
225.7303249563
 11
93.0551649367
 21
231.8731760139
  0
LINE
  8
0
 62
7
  6
CONTINUOUS
 10
93.3941480577
 20
230.2579465036
 11
93.3941480577
 21
225.7303249563
  0
LINE
  8
0
 62
7
  6
CONTINUOUS
 10
93.5636396182
 20
231.6365167991
 11
93.5636396182
 21
231.8731760139
  0
LINE
  8
0
 62
7
  6
CONTINUOUS
 10
94.976069235
 20
226.2010495946
 11
94.976069235
 21
231.8731760139
  0
LINE
  8
0
 62
7
  6
CONTINUOUS
 10
95.315052356
 20
225.7303249563
 11
95.315052356
 21
231.8731760139
  0
POLYLINE
  8
0
 62
7
  6
CONTINUOUS
 66
1
 70
0
  0
VERTEX
  8
0
 62
7
  6
CONTINUOUS
 10
89.7783278311
 20
231.8731760139
  0
VERTEX
  8
0
 62
7
  6
CONTINUOUS
 10
89.7387512494
 20
231.4060504075
  0
VERTEX
  8
0
 62
7
  6
CONTINUOUS
 10
89.6963136976
 20
230.9466084379
  0
VERTEX
  8
0
 62
7
  6
CONTINUOUS
 10
89.6510640714
 20
230.4954540298
  0
VERTEX
  8
0
 62
7
  6
CONTINUOUS
 10
89.6030523529
 20
230.0531498811
  0
VERTEX
  8
0
 62
7
  6
CONTINUOUS
 10
89.5523392993
 20
229.620307579
  0
SEQEND
  0
POLYLINE
  8
0
 62
7
  6
CONTINUOUS
 66
1
 70
0
  0
VERTEX
  8
0
 62
7
  6
CONTINUOUS
 10
89.7783278311
 20
231.6365167991
  0
VERTEX
  8
0
 62
7
  6
CONTINUOUS
 10
89.7384524043
 20
231.1820599609
  0
VERTEX
  8
0
 62
7
  6
CONTINUOUS
 10
89.6958678772
 20
230.7351261709
  0
VERTEX
  8
0
 62
7
  6
CONTINUOUS
 10
89.6506208856
 20
230.2962731669
  0
VERTEX
  8
0
 62
7
  6
CONTINUOUS
 10
89.6027589282
 20
229.866020746
  0
VERTEX
  8
0
 62
7
  6
CONTINUOUS
 10
89.5523392993
 20
229.4449319855
  0
SEQEND
  0
POLYLINE
  8
0
 62
7
  6
CONTINUOUS
 66
1
 70
0
  0
VERTEX
  8
0
 62
7
  6
CONTINUOUS
 10
90.1173112754
 20
231.6365167991
  0
VERTEX
  8
0
 62
7
  6
CONTINUOUS
 10
90.0689076828
 20
231.1004681752
  0
VERTEX
  8
0
 62
7
  6
CONTINUOUS
 10
90.0166548112
 20
230.5750555011
  0
VERTEX
  8
0
 62
7
  6
CONTINUOUS
 10
89.9606312863
 20
230.061179172
  0
VERTEX
  8
0
 62
7
  6
CONTINUOUS
 10
89.9009159994
 20
229.5596613851
  0
VERTEX
  8
0
 62
7
  6
CONTINUOUS
 10
89.8375938484
 20
229.0713114368
  0
VERTEX
  8
0
 62
7
  6
CONTINUOUS
 10
89.7707557534
 20
228.5969243624
  0
VERTEX
  8
0
 62
7
  6
CONTINUOUS
 10
89.7004986566
 20
228.1372794616
  0
VERTEX
  8
0
 62
7
  6
CONTINUOUS
 10
89.6269254988
 20
227.6931386988
  0
VERTEX
  8
0
 62
7
  6
CONTINUOUS
 10
89.5501452386
 20
227.2652453872
  0
VERTEX
  8
0
 62
7
  6
CONTINUOUS
 10
89.4702733047
 20
226.8543249136
  0
VERTEX
  8
0
 62
7
  6
CONTINUOUS
 10
89.3874306194
 20
226.4610778578
  0
VERTEX
  8
0
 62
7
  6
CONTINUOUS
 10
89.3017436921
 20
226.0861798066
  0
VERTEX
  8
0
 62
7
  6
CONTINUOUS
 10
89.2133561783
 20
225.7303249563
  0
SEQEND
  0
POLYLINE
  8
0
 62
7
  6
CONTINUOUS
 66
1
 70
0
  0
VERTEX
  8
0
 62
7
  6
CONTINUOUS
 10
89.4728236858
 20
228.8677318283
  0
VERTEX
  8
0
 62
7
  6
CONTINUOUS
 10
89.4320744634
 20
228.5770123919
  0
VERTEX
  8
0
 62
7
  6
CONTINUOUS
 10
89.3651791971
 20
228.1359618626
  0
VERTEX
  8
0
 62
7
  6
CONTINUOUS
 10
89.2952580088
 20
227.7095569174
  0
VERTEX
  8
0
 62
7
  6
CONTINUOUS
 10
89.2224088157
 20
227.2984695442
  0
VERTEX
  8
0
 62
7
  6
CONTINUOUS
 10
89.146735491
 20
226.9033577187
  0
VERTEX
  8
0
 62
7
  6
CONTINUOUS
 10
89.0683470799
 20
226.524858938
  0
VERTEX
  8
0
 62
7
  6
CONTINUOUS
 10
88.9873676465
 20
226.1636312069
  0
SEQEND
  0
POLYLINE
  8
0
 62
7
  6
CONTINUOUS
 66
1
 70
0
  0
VERTEX
  8
0
 62
7
  6
CONTINUOUS
 10
89.495842328
 20
228.8677318283
  0
VERTEX
  8
0
 62
7
  6
CONTINUOUS
 10
89.4318389942
 20
228.4189049947
  0
VERTEX
  8
0
 62
7
  6
CONTINUOUS
 10
89.3647908442
 20
227.9838312665
  0
VERTEX
  8
0
 62
7
  6
CONTINUOUS
 10
89.2947970514
 20
227.5632351155
  0
VERTEX
  8
0
 62
7
  6
CONTINUOUS
 10
89.2219531729
 20
227.157762595
  0
VERTEX
  8
0
 62
7
  6
CONTINUOUS
 10
89.1463604713
 20
226.7680462887
  0
VERTEX
  8
0
 62
7
  6
CONTINUOUS
 10
89.0681250811
 20
226.3946987741
  0
VERTEX
  8
0
 62
7
  6
CONTINUOUS
 10
88.9873676465
 20
226.0383524486
  0
SEQEND
  0
POLYLINE
  8
0
 62
7
  6
CONTINUOUS
 66
1
 70
0
  0
VERTEX
  8
0
 62
7
  6
CONTINUOUS
 10
87.2359544237
 20
226.6351019447
  0
VERTEX
  8
0
 62
7
  6
CONTINUOUS
 10
87.2079210103
 20
226.457962027
  0
VERTEX
  8
0
 62
7
  6
CONTINUOUS
 10
87.1794574524
 20
226.2846721215
  0
SEQEND
  0
POLYLINE
  8
0
 62
7
  6
CONTINUOUS
 66
1
 70
0
  0
VERTEX
  8
0
 62
7
  6
CONTINUOUS
 10
86.8969713028
 20
226.859819049
  0
VERTEX
  8
0
 62
7
  6
CONTINUOUS
 10
86.8688960305
 20
226.7220358184
  0
VERTEX
  8
0
 62
7
  6
CONTINUOUS
 10
86.8404743315
 20
226.5864517057
  0
SEQEND
  0
POLYLINE
  8
0
 62
7
  6
CONTINUOUS
 66
1
 70
0
  0
VERTEX
  8
0
 62
7
  6
CONTINUOUS
 10
86.8969713028
 20
226.7268785339
  0
VERTEX
  8
0
 62
7
  6
CONTINUOUS
 10
86.8688921385
 20
226.5906661064
  0
VERTEX
  8
0
 62
7
  6
CONTINUOUS
 10
86.8404743315
 20
226.4566281976
  0
SEQEND
  0
POLYLINE
  8
0
 62
7
  6
CONTINUOUS
 66
1
 70
0
  0
VERTEX
  8
0
 62
7
  6
CONTINUOUS
 10
85.654033408
 20
231.2181935288
  0
VERTEX
  8
0
 62
7
  6
CONTINUOUS
 10
85.5442432153
 20
230.8327250245
  0
VERTEX
  8
0
 62
7
  6
CONTINUOUS
 10
85.4280448762
 20
230.4519079402
  0
SEQEND
  0
POLYLINE
  8
0
 62
7
  6
CONTINUOUS
 66
1
 70
0
  0
VERTEX
  8
0
 62
7
  6
CONTINUOUS
 10
85.654033408
 20
231.0032995945
  0
VERTEX
  8
0
 62
7
  6
CONTINUOUS
 10
85.5440794166
 20
230.6283489027
  0
VERTEX
  8
0
 62
7
  6
CONTINUOUS
 10
85.4280448762
 20
230.2579465036
  0
SEQEND
  0
POLYLINE
  8
0
 62
7
  6
CONTINUOUS
 66
1
 70
0
  0
VERTEX
  8
0
 62
7
  6
CONTINUOUS
 10
85.9365195577
 20
230.2579465036
  0
VERTEX
  8
0
 62
7
  6
CONTINUOUS
 10
85.852838651
 20
230.0880618552
  0
VERTEX
  8
0
 62
7
  6
CONTINUOUS
 10
85.7670279972
 20
229.918907468
  0
SEQEND
  0
POLYLINE
  8
0
 62
7
  6
CONTINUOUS
 66
1
 70
0
  0
VERTEX
  8
0
 62
7
  6
CONTINUOUS
 10
85.8800219398
 20
231.6457233702
  0
VERTEX
  8
0
 62
7
  6
CONTINUOUS
 10
85.769247978
 20
231.4318932034
  0
VERTEX
  8
0
 62
7
  6
CONTINUOUS
 10
85.654033408
 20
231.2181935288
  0
SEQEND
  0
POLYLINE
  8
0
 62
7
  6
CONTINUOUS
 66
1
 70
0
  0
VERTEX
  8
0
 62
7
  6
CONTINUOUS
 10
85.7105303793
 20
226.0383524486
  0
VERTEX
  8
0
 62
7
  6
CONTINUOUS
 10
85.8228186092
 20
225.920918445
  0
VERTEX
  8
0
 62
7
  6
CONTINUOUS
 10
85.9365195577
 20
225.8052298422
  0
SEQEND
  0
POLYLINE
  8
0
 62
7
  6
CONTINUOUS
 66
1
 70
0
  0
VERTEX
  8
0
 62
7
  6
CONTINUOUS
 10
86.670982771
 20
227.4208774789
  0
VERTEX
  8
0
 62
7
  6
CONTINUOUS
 10
86.7551955346
 20
227.3165122747
  0
VERTEX
  8
0
 62
7
  6
CONTINUOUS
 10
86.8404743315
 20
227.2128886351
  0
SEQEND
  0
POLYLINE
  8
0
 62
7
  6
CONTINUOUS
 66
1
 70
0
  0
VERTEX
  8
0
 62
7
  6
CONTINUOUS
 10
85.7670279972
 20
228.5993772453
  0
VERTEX
  8
0
 62
7
  6
CONTINUOUS
 10
85.8510658963
 20
228.470829867
  0
VERTEX
  8
0
 62
7
  6
CONTINUOUS
 10
85.9365195577
 20
228.3430184822
  0
SEQEND
  0
POLYLINE
  8
0
 62
7
  6
CONTINUOUS
 66
1
 70
0
  0
VERTEX
  8
0
 62
7
  6
CONTINUOUS
 10
85.8800219398
 20
226.4566281976
  0
VERTEX
  8
0
 62
7
  6
CONTINUOUS
 10
85.9362747797
 20
226.3702256008
  0
VERTEX
  8
0
 62
7
  6
CONTINUOUS
 10
85.993016529
 20
226.2846721215
  0
SEQEND
  0
POLYLINE
  8
0
 62
7
  6
CONTINUOUS
 66
1
 70
0
  0
VERTEX
  8
0
 62
7
  6
CONTINUOUS
 10
85.8800219398
 20
226.5864517057
  0
VERTEX
  8
0
 62
7
  6
CONTINUOUS
 10
85.9362696136
 20
226.4990912862
  0
VERTEX
  8
0
 62
7
  6
CONTINUOUS
 10
85.993016529
 20
226.4125877081
  0
SEQEND
  0
POLYLINE
  8
0
 62
7
  6
CONTINUOUS
 66
1
 70
0
  0
VERTEX
  8
0
 62
7
  6
CONTINUOUS
 10
85.7670279972
 20
228.7588885378
  0
VERTEX
  8
0
 62
7
  6
CONTINUOUS
 10
85.8510445318
 20
228.6282121887
  0
VERTEX
  8
0
 62
7
  6
CONTINUOUS
 10
85.9365195577
 20
228.4982762929
  0
SEQEND
  0
POLYLINE
  8
0
 62
7
  6
CONTINUOUS
 66
1
 70
0
  0
VERTEX
  8
0
 62
7
  6
CONTINUOUS
 10
86.8969713028
 20
231.4170969552
  0
VERTEX
  8
0
 62
7
  6
CONTINUOUS
 10
87.0345871829
 20
231.1116765732
  0
VERTEX
  8
0
 62
7
  6
CONTINUOUS
 10
87.1794574524
 20
230.8075037617
  0
SEQEND
  0
POLYLINE
  8
0
 62
7
  6
CONTINUOUS
 66
1
 70
0
  0
VERTEX
  8
0
 62
7
  6
CONTINUOUS
 10
93.3941480577
 20
230.2579465036
  0
VERTEX
  8
0
 62
7
  6
CONTINUOUS
 10
93.4941605976
 20
229.7834727818
  0
VERTEX
  8
0
 62
7
  6
CONTINUOUS
 10
93.6002254732
 20
229.3194460926
  0
VERTEX
  8
0
 62
7
  6
CONTINUOUS
 10
93.7122313639
 20
228.8666169271
  0
VERTEX
  8
0
 62
7
  6
CONTINUOUS
 10
93.8300678273
 20
228.4256831795
  0
VERTEX
  8
0
 62
7
  6
CONTINUOUS
 10
93.9536139895
 20
227.9973422296
  0
VERTEX
  8
0
 62
7
  6
CONTINUOUS
 10
94.0827381089
 20
227.5822892041
  0
VERTEX
  8
0
 62
7
  6
CONTINUOUS
 10
94.2172971756
 20
227.1812150552
  0
VERTEX
  8
0
 62
7
  6
CONTINUOUS
 10
94.3571356592
 20
226.794806836
  0
VERTEX
  8
0
 62
7
  6
CONTINUOUS
 10
94.5020863492
 20
226.4237417117
  0
VERTEX
  8
0
 62
7
  6
CONTINUOUS
 10
94.6519703578
 20
226.0686842804
  0
VERTEX
  8
0
 62
7
  6
CONTINUOUS
 10
94.8065776745
 20
225.7303249563
  0
SEQEND
  0
POLYLINE
  8
0
 62
7
  6
CONTINUOUS
 66
1
 70
0
  0
VERTEX
  8
0
 62
7
  6
CONTINUOUS
 10
93.5636396182
 20
231.6365167991
  0
VERTEX
  8
0
 62
7
  6
CONTINUOUS
 10
93.6472651535
 20
231.1185906324
  0
VERTEX
  8
0
 62
7
  6
CONTINUOUS
 10
93.7374544323
 20
230.6098717044
  0
VERTEX
  8
0
 62
7
  6
CONTINUOUS
 10
93.8341142029
 20
230.1111810953
  0
VERTEX
  8
0
 62
7
  6
CONTINUOUS
 10
93.9371503777
 20
229.623286394
  0
VERTEX
  8
0
 62
7
  6
CONTINUOUS
 10
94.0464586845
 20
229.1469577195
  0
VERTEX
  8
0
 62
7
  6
CONTINUOUS
 10
94.1619241669
 20
228.6829661578
  0
VERTEX
  8
0
 62
7
  6
CONTINUOUS
 10
94.2834206054
 20
228.2320823968
  0
VERTEX
  8
0
 62
7
  6
CONTINUOUS
 10
94.4108100324
 20
227.7950748073
  0
VERTEX
  8
0
 62
7
  6
CONTINUOUS
 10
94.5439413825
 20
227.3727100658
  0
VERTEX
  8
0
 62
7
  6
CONTINUOUS
 10
94.682651089
 20
226.9657469644
  0
VERTEX
  8
0
 62
7
  6
CONTINUOUS
 10
94.8267631876
 20
226.5749329392
  0
VERTEX
  8
0
 62
7
  6
CONTINUOUS
 10
94.976069235
 20
226.2010495946
  0
SEQEND
  0
POLYLINE
  8
0
 62
7
  6
CONTINUOUS
 66
1
 70
0
  0
VERTEX
  8
0
 62
7
  6
CONTINUOUS
 10
93.5636396182
 20
231.8731760139
  0
VERTEX
  8
0
 62
7
  6
CONTINUOUS
 10
93.6459479276
 20
231.3451772857
  0
VERTEX
  8
0
 62
7
  6
CONTINUOUS
 10
93.7350683033
 20
230.8264167132
  0
VERTEX
  8
0
 62
7
  6
CONTINUOUS
 10
93.830906185
 20
230.3177578496
  0
VERTEX
  8
0
 62
7
  6
CONTINUOUS
 10
93.9333657153
 20
229.820008784
  0
VERTEX
  8
0
 62
7
  6
CONTINUOUS
 10
94.0423402737
 20
229.3339807198
  0
VERTEX
  8
0
 62
7
  6
CONTINUOUS
 10
94.1577119213
 20
228.8604863536
  0
VERTEX
  8
0
 62
7
  6
CONTINUOUS
 10
94.2793507612
 20
228.400338449
  0
VERTEX
  8
0
 62
7
  6
CONTINUOUS
 10
94.4071144015
 20
227.9543477866
  0
VERTEX
  8
0
 62
7
  6
CONTINUOUS
 10
94.5408465945
 20
227.5233235572
  0
VERTEX
  8
0
 62
7
  6
CONTINUOUS
 10
94.6803775121
 20
227.1080677561
  0
VERTEX
  8
0
 62
7
  6
CONTINUOUS
 10
94.8255241572
 20
226.7093703236
  0
VERTEX
  8
0
 62
7
  6
CONTINUOUS
 10
94.976069235
 20
226.328057587
  0
SEQEND
  0
LINE
  8
0
 62
7
  6
CONTINUOUS
 10
98.9888176047
 20
224.8984938068
 11
99.2192069144
 21
251.2984938068
  0
POLYLINE
  8
0
 62
7
  6
CONTINUOUS
 66
1
 70
0
  0
VERTEX
  8
0
 62
7
  6
CONTINUOUS
 10
85.8800219398
 20
231.4170969552
  0
VERTEX
  8
0
 62
7
  6
CONTINUOUS
 10
85.7691243636
 20
231.2101179272
  0
VERTEX
  8
0
 62
7
  6
CONTINUOUS
 10
85.654033408
 20
231.0032995945
  0
SEQEND
  0
POLYLINE
  8
0
 62
7
  6
CONTINUOUS
 66
1
 70
0
  0
VERTEX
  8
0
 62
7
  6
CONTINUOUS
 10
52.49110379
 20
224.3124487098
  0
VERTEX
  8
0
 62
7
  6
CONTINUOUS
 10
52.4899193022
 20
224.311513097
  0
VERTEX
  8
0
 62
7
  6
CONTINUOUS
 10
52.4912005203
 20
224.3124420281
  0
VERTEX
  8
0
 62
7
  6
CONTINUOUS
 10
52.4987966473
 20
224.3176725326
  0
VERTEX
  8
0
 62
7
  6
CONTINUOUS
 10
52.5134141786
 20
224.3270208076
  0
VERTEX
  8
0
 62
7
  6
CONTINUOUS
 10
52.5358641029
 20
224.3403166269
  0
VERTEX
  8
0
 62
7
  6
CONTINUOUS
 10
52.5669207234
 20
224.3573019774
  0
VERTEX
  8
0
 62
7
  6
CONTINUOUS
 10
52.6069895759
 20
224.3774744566
  0
VERTEX
  8
0
 62
7
  6
CONTINUOUS
 10
52.6560304547
 20
224.4001204939
  0
VERTEX
  8
0
 62
7
  6
CONTINUOUS
 10
52.7136550533
 20
224.4244290076
  0
VERTEX
  8
0
 62
7
  6
CONTINUOUS
 10
52.7791699014
 20
224.4495552471
  0
VERTEX
  8
0
 62
7
  6
CONTINUOUS
 10
52.8516443313
 20
224.4746806194
  0
VERTEX
  8
0
 62
7
  6
CONTINUOUS
 10
52.9299639149
 20
224.4990536995
  0
VERTEX
  8
0
 62
7
  6
CONTINUOUS
 10
53.0129391835
 20
224.5220364763
  0
VERTEX
  8
0
 62
7
  6
CONTINUOUS
 10
53.0994997097
 20
224.5431505249
  0
VERTEX
  8
0
 62
7
  6
CONTINUOUS
 10
53.1885842453
 20
224.562029214
  0
VERTEX
  8
0
 62
7
  6
CONTINUOUS
 10
53.2791872982
 20
224.5784199952
  0
VERTEX
  8
0
 62
7
  6
CONTINUOUS
 10
53.3707499839
 20
224.5922264619
  0
VERTEX
  8
0
 62
7
  6
CONTINUOUS
 10
53.4629265639
 20
224.6034167865
  0
VERTEX
  8
0
 62
7
  6
CONTINUOUS
 10
53.5554427928
 20
224.6119837611
  0
VERTEX
  8
0
 62
7
  6
CONTINUOUS
 10
53.6480414458
 20
224.6179339048
  0
VERTEX
  8
0
 62
7
  6
CONTINUOUS
 10
53.7404997818
 20
224.6212874568
  0
VERTEX
  8
0
 62
7
  6
CONTINUOUS
 10
53.8150523538
 20
224.622121087
  0
SEQEND
  0
POLYLINE
  8
0
 62
7
  6
CONTINUOUS
 66
1
 70
0
  0
VERTEX
  8
0
 62
7
  6
CONTINUOUS
 10
85.654033408
 20
227.8627296321
  0
VERTEX
  8
0
 62
7
  6
CONTINUOUS
 10
85.7661468512
 20
227.7497410342
  0
VERTEX
  8
0
 62
7
  6
CONTINUOUS
 10
85.8800219398
 20
227.6373128215
  0
SEQEND
  0
POLYLINE
  8
0
 62
7
  6
CONTINUOUS
 66
1
 70
0
  0
VERTEX
  8
0
 62
7
  6
CONTINUOUS
 10
86.7274797423
 20
228.0977342658
  0
VERTEX
  8
0
 62
7
  6
CONTINUOUS
 10
86.839543458
 20
227.9799603999
  0
VERTEX
  8
0
 62
7
  6
CONTINUOUS
 10
86.9534689206
 20
227.8627296321
  0
SEQEND
  0
POLYLINE
  8
0
 62
7
  6
CONTINUOUS
 66
1
 70
0
  0
VERTEX
  8
0
 62
7
  6
CONTINUOUS
 10
86.7274797423
 20
228.2491310048
  0
VERTEX
  8
0
 62
7
  6
CONTINUOUS
 10
86.8395184425
 20
228.1295975812
  0
VERTEX
  8
0
 62
7
  6
CONTINUOUS
 10
86.9534689206
 20
228.0106043446
  0
SEQEND
  0
POLYLINE
  8
0
 62
7
  6
CONTINUOUS
 66
1
 70
0
  0
VERTEX
  8
0
 62
7
  6
CONTINUOUS
 10
87.1794574524
 20
226.2846721215
  0
VERTEX
  8
0
 62
7
  6
CONTINUOUS
 10
87.1049405427
 20
226.1747007322
  0
VERTEX
  8
0
 62
7
  6
CONTINUOUS
 10
87.0296058192
 20
226.0662036297
  0
VERTEX
  8
0
 62
7
  6
CONTINUOUS
 10
86.9534689206
 20
225.9592169544
  0
SEQEND
  0
POLYLINE
  8
0
 62
7
  6
CONTINUOUS
 66
1
 70
0
  0
VERTEX
  8
0
 62
7
  6
CONTINUOUS
 10
86.5014912105
 20
227.5280074324
  0
VERTEX
  8
0
 62
7
  6
CONTINUOUS
 10
86.5858749965
 20
227.474403468
  0
VERTEX
  8
0
 62
7
  6
CONTINUOUS
 10
86.670982771
 20
227.4208774789
  0
SEQEND
  0
POLYLINE
  8
0
 62
7
  6
CONTINUOUS
 66
1
 70
0
  0
VERTEX
  8
0
 62
7
  6
CONTINUOUS
 10
86.6144857997
 20
231.6365167991
  0
VERTEX
  8
0
 62
7
  6
CONTINUOUS
 10
86.7537095373
 20
231.5272468623
  0
VERTEX
  8
0
 62
7
  6
CONTINUOUS
 10
86.8969713028
 20
231.4170969552
  0
SEQEND
  0
POLYLINE
  8
0
 62
7
  6
CONTINUOUS
 66
1
 70
0
  0
VERTEX
  8
0
 62
7
  6
CONTINUOUS
 10
86.6144857997
 20
230.4352861692
  0
VERTEX
  8
0
 62
7
  6
CONTINUOUS
 10
86.7263962485
 20
230.3467786334
  0
VERTEX
  8
0
 62
7
  6
CONTINUOUS
 10
86.8404743315
 20
230.2579465036
  0
SEQEND
  0
POLYLINE
  8
0
 62
7
  6
CONTINUOUS
 66
1
 70
0
  0
VERTEX
  8
0
 62
7
  6
CONTINUOUS
 10
86.6144857997
 20
231.8731760139
  0
VERTEX
  8
0
 62
7
  6
CONTINUOUS
 10
86.7535817029
 20
231.7599381151
  0
VERTEX
  8
0
 62
7
  6
CONTINUOUS
 10
86.8969713028
 20
231.6457233702
  0
SEQEND
  0
LINE
  8
0
 62
7
  6
CONTINUOUS
 10
116.2608977976
 20
251.2984938068
 11
116.4912871073
 21
224.8984938068
  0
POLYLINE
  8
0
 62
7
  6
CONTINUOUS
 66
1
 70
0
  0
VERTEX
  8
0
 62
7
  6
CONTINUOUS
 10
86.8404743315
 20
226.5864517057
  0
VERTEX
  8
0
 62
7
  6
CONTINUOUS
 10
86.7561549046
 20
226.4991445495
  0
VERTEX
  8
0
 62
7
  6
CONTINUOUS
 10
86.670982771
 20
226.4125877081
  0
SEQEND
  0
POLYLINE
  8
0
 62
7
  6
CONTINUOUS
 66
1
 70
0
  0
VERTEX
  8
0
 62
7
  6
CONTINUOUS
 10
86.8404743315
 20
226.4566281976
  0
VERTEX
  8
0
 62
7
  6
CONTINUOUS
 10
86.7561462805
 20
226.3702773919
  0
VERTEX
  8
0
 62
7
  6
CONTINUOUS
 10
86.670982771
 20
226.2846721215
  0
SEQEND
  0
POLYLINE
  8
0
 62
7
  6
CONTINUOUS
 66
1
 70
0
  0
VERTEX
  8
0
 62
7
  6
CONTINUOUS
 10
86.1625080895
 20
231.8731760139
  0
VERTEX
  8
0
 62
7
  6
CONTINUOUS
 10
86.0234118697
 20
231.7599381165
  0
VERTEX
  8
0
 62
7
  6
CONTINUOUS
 10
85.8800219398
 20
231.6457233702
  0
SEQEND
  0
POLYLINE
  8
0
 62
7
  6
CONTINUOUS
 66
1
 70
0
  0
VERTEX
  8
0
 62
7
  6
CONTINUOUS
 10
86.1625080895
 20
230.4352861692
  0
VERTEX
  8
0
 62
7
  6
CONTINUOUS
 10
86.0505976407
 20
230.3467786334
  0
VERTEX
  8
0
 62
7
  6
CONTINUOUS
 10
85.9365195577
 20
230.2579465036
  0
SEQEND
  0
POLYLINE
  8
0
 62
7
  6
CONTINUOUS
 66
1
 70
0
  0
VERTEX
  8
0
 62
7
  6
CONTINUOUS
 10
86.1625080895
 20
231.6365167991
  0
VERTEX
  8
0
 62
7
  6
CONTINUOUS
 10
86.0232840348
 20
231.5272468636
  0
VERTEX
  8
0
 62
7
  6
CONTINUOUS
 10
85.8800219398
 20
231.4170969552
  0
SEQEND
  0
POLYLINE
  8
0
 62
7
  6
CONTINUOUS
 66
1
 70
0
  0
VERTEX
  8
0
 62
7
  6
CONTINUOUS
 10
85.993016529
 20
226.2846721215
  0
VERTEX
  8
0
 62
7
  6
CONTINUOUS
 10
86.0774991513
 20
226.2427978974
  0
VERTEX
  8
0
 62
7
  6
CONTINUOUS
 10
86.1625080895
 20
226.2010495946
  0
SEQEND
  0
POLYLINE
  8
0
 62
7
  6
CONTINUOUS
 66
1
 70
0
  0
VERTEX
  8
0
 62
7
  6
CONTINUOUS
 10
85.993016529
 20
226.4125877081
  0
VERTEX
  8
0
 62
7
  6
CONTINUOUS
 10
86.0774937845
 20
226.3702600558
  0
VERTEX
  8
0
 62
7
  6
CONTINUOUS
 10
86.1625080895
 20
226.328057587
  0
SEQEND
  0
POLYLINE
  8
0
 62
7
  6
CONTINUOUS
 66
1
 70
0
  0
VERTEX
  8
0
 62
7
  6
CONTINUOUS
 10
86.5014912105
 20
228.2190443994
  0
VERTEX
  8
0
 62
7
  6
CONTINUOUS
 10
86.6138562689
 20
228.1584002313
  0
VERTEX
  8
0
 62
7
  6
CONTINUOUS
 10
86.7274797423
 20
228.0977342658
  0
SEQEND
  0
POLYLINE
  8
0
 62
7
  6
CONTINUOUS
 66
1
 70
0
  0
VERTEX
  8
0
 62
7
  6
CONTINUOUS
 10
86.5014912105
 20
228.372326215
  0
VERTEX
  8
0
 62
7
  6
CONTINUOUS
 10
86.6138383061
 20
228.3107435935
  0
VERTEX
  8
0
 62
7
  6
CONTINUOUS
 10
86.7274797423
 20
228.2491310048
  0
SEQEND
  0
POLYLINE
  8
0
 62
7
  6
CONTINUOUS
 66
1
 70
0
  0
VERTEX
  8
0
 62
7
  6
CONTINUOUS
 10
85.9365195577
 20
228.3430184822
  0
VERTEX
  8
0
 62
7
  6
CONTINUOUS
 10
86.0488652538
 20
228.2810479957
  0
VERTEX
  8
0
 62
7
  6
CONTINUOUS
 10
86.1625080895
 20
228.2190443994
  0
SEQEND
  0
POLYLINE
  8
0
 62
7
  6
CONTINUOUS
 66
1
 70
0
  0
VERTEX
  8
0
 62
7
  6
CONTINUOUS
 10
85.9365195577
 20
228.4982762929
  0
VERTEX
  8
0
 62
7
  6
CONTINUOUS
 10
86.0488463209
 20
228.435322247
  0
VERTEX
  8
0
 62
7
  6
CONTINUOUS
 10
86.1625080895
 20
228.372326215
  0
SEQEND
  0
LINE
  8
0
 62
7
  6
CONTINUOUS
 10
85.9365195577
 20
225.8052298422
 11
86.2190050608
 21
225.7303249563
  0
POLYLINE
  8
0
 62
7
  6
CONTINUOUS
 66
1
 70
0
  0
VERTEX
  8
0
 62
7
  6
CONTINUOUS
 10
85.8800219398
 20
227.6373128215
  0
VERTEX
  8
0
 62
7
  6
CONTINUOUS
 10
86.0205438218
 20
227.5826630545
  0
VERTEX
  8
0
 62
7
  6
CONTINUOUS
 10
86.1625080895
 20
227.5280074324
  0
SEQEND
  0
POLYLINE
  8
0
 62
7
  6
CONTINUOUS
 66
1
 70
0
  0
VERTEX
  8
0
 62
7
  6
CONTINUOUS
 10
86.9534689206
 20
225.9592169544
  0
VERTEX
  8
0
 62
7
  6
CONTINUOUS
 10
86.8410189932
 20
225.8818896129
  0
VERTEX
  8
0
 62
7
  6
CONTINUOUS
 10
86.7274797423
 20
225.8052298422
  0
SEQEND
  0
LINE
  8
0
 62
7
  6
CONTINUOUS
 10
132.4088176047
 20
224.8984938068
 11
132.6392069144
 21
251.2984938068
  0
POLYLINE
  8
0
 62
7
  6
CONTINUOUS
 66
1
 70
0
  0
VERTEX
  8
0
 62
7
  6
CONTINUOUS
 10
86.670982771
 20
226.4125877081
  0
VERTEX
  8
0
 62
7
  6
CONTINUOUS
 10
86.5865055155
 20
226.3702600558
  0
VERTEX
  8
0
 62
7
  6
CONTINUOUS
 10
86.5014912105
 20
226.328057587
  0
SEQEND
  0
POLYLINE
  8
0
 62
7
  6
CONTINUOUS
 66
1
 70
0
  0
VERTEX
  8
0
 62
7
  6
CONTINUOUS
 10
86.670982771
 20
226.2846721215
  0
VERTEX
  8
0
 62
7
  6
CONTINUOUS
 10
86.5865001486
 20
226.2427978974
  0
VERTEX
  8
0
 62
7
  6
CONTINUOUS
 10
86.5014912105
 20
226.2010495946
  0
SEQEND
  0
LINE
  8
0
 62
7
  6
CONTINUOUS
 10
51.115052356
 20
223.1142015707
 11
151.7112185688
 21
223.1142015707
  0
LINE
  8
SURFACE
 62
7
  6
CONTINUOUS
 10
151.7112185688
 20
223.1142015707
 11
247.915052356
 21
223.1142015707
  0
LINE
  8
0
 62
7
  6
CONTINUOUS
 10
53.8150523538
 20
224.6221208505
 11
55.3150523577
 21
224.6221208505
  0
POLYLINE
  8
0
 62
7
  6
CONTINUOUS
 66
1
 70
0
  0
VERTEX
  8
0
 62
7
  6
CONTINUOUS
 10
55.3150523577
 20
224.6221211169
  0
VERTEX
  8
0
 62
7
  6
CONTINUOUS
 10
55.391012225
 20
224.6212556789
  0
VERTEX
  8
0
 62
7
  6
CONTINUOUS
 10
55.4834254719
 20
224.6178652121
  0
VERTEX
  8
0
 62
7
  6
CONTINUOUS
 10
55.5759798498
 20
224.6118801841
  0
VERTEX
  8
0
 62
7
  6
CONTINUOUS
 10
55.66845088
 20
224.6032804214
  0
VERTEX
  8
0
 62
7
  6
CONTINUOUS
 10
55.7605803885
 20
224.5920595097
  0
VERTEX
  8
0
 62
7
  6
CONTINUOUS
 10
55.8520932486
 20
224.5782248776
  0
VERTEX
  8
0
 62
7
  6
CONTINUOUS
 10
55.9426429746
 20
224.5618086532
  0
VERTEX
  8
0
 62
7
  6
CONTINUOUS
 10
56.0316685469
 20
224.5429080197
  0
VERTEX
  8
0
 62
7
  6
CONTINUOUS
 10
56.1181569815
 20
224.5217781293
  0
VERTEX
  8
0
 62
7
  6
CONTINUOUS
 10
56.201040307
 20
224.4987890242
  0
VERTEX
  8
0
 62
7
  6
CONTINUOUS
 10
56.2792512032
 20
224.4744203227
  0
VERTEX
  8
0
 62
7
  6
CONTINUOUS
 10
56.3516259155
 20
224.449302732
  0
VERTEX
  8
0
 62
7
  6
CONTINUOUS
 10
56.4170547536
 20
224.4241851326
  0
VERTEX
  8
0
 62
7
  6
CONTINUOUS
 10
56.4745897489
 20
224.3998925251
  0
VERTEX
  8
0
 62
7
  6
CONTINUOUS
 10
56.5235284571
 20
224.3772747491
  0
VERTEX
  8
0
 62
7
  6
CONTINUOUS
 10
56.5634948106
 20
224.3571384817
  0
VERTEX
  8
0
 62
7
  6
CONTINUOUS
 10
56.5944612573
 20
224.3401906956
  0
VERTEX
  8
0
 62
7
  6
CONTINUOUS
 10
56.6168390076
 20
224.3269291494
  0
VERTEX
  8
0
 62
7
  6
CONTINUOUS
 10
56.6313954876
 20
224.3176142455
  0
VERTEX
  8
0
 62
7
  6
CONTINUOUS
 10
56.6389368359
 20
224.3124185526
  0
VERTEX
  8
0
 62
7
  6
CONTINUOUS
 10
56.6402289143
 20
224.3114755815
  0
SEQEND
  0
LINE
  8
0
 62
7
  6
CONTINUOUS
 10
86.7274797423
 20
225.8052298422
 11
86.5014912105
 21
225.7303249563
  0
LINE
  8
0
 62
7
  6
CONTINUOUS
 10
86.2190050608
 20
225.7303249563
 11
86.5014912105
 21
225.7303249563
  0
LINE
  8
0
 62
7
  6
CONTINUOUS
 10
88.7613784682
 20
225.7303249563
 11
89.2133561783
 21
225.7303249563
  0
LINE
  8
0
 62
7
  6
CONTINUOUS
 10
92.2642042672
 20
225.7303249563
 11
92.6031873882
 21
225.7303249563
  0
LINE
  8
0
 62
7
  6
CONTINUOUS
 10
93.0551649367
 20
225.7303249563
 11
93.3941480577
 21
225.7303249563
  0
LINE
  8
0
 62
7
  6
CONTINUOUS
 10
94.8065776745
 20
225.7303249563
 11
95.315052356
 21
225.7303249563
  0
LINE
  8
0
 62
7
  6
CONTINUOUS
 10
86.1625080895
 20
226.2010495946
 11
86.5014912105
 21
226.2010495946
  0
LINE
  8
0
 62
7
  6
CONTINUOUS
 10
86.1625080895
 20
226.328057587
 11
86.5014912105
 21
226.328057587
  0
LINE
  8
0
 62
7
  6
CONTINUOUS
 10
85.4845418475
 20
226.6351019447
 11
85.8235249685
 21
226.6351019447
  0
LINE
  8
0
 62
7
  6
CONTINUOUS
 10
85.4845418475
 20
226.7669671841
 11
85.8235249685
 21
226.7669671841
  0
LINE
  8
0
 62
7
  6
CONTINUOUS
 10
86.1625080895
 20
227.5280074324
 11
86.5014912105
 21
227.5280074324
  0
LINE
  8
0
 62
7
  6
CONTINUOUS
 10
86.1625080895
 20
228.2190443994
 11
86.5014912105
 21
228.2190443994
  0
LINE
  8
0
 62
7
  6
CONTINUOUS
 10
86.1625080895
 20
228.372326215
 11
86.5014912105
 21
228.372326215
  0
LINE
  8
0
 62
7
  6
CONTINUOUS
 10
88.4788929651
 20
228.8677318283
 11
89.495842328
 21
228.8677318283
  0
LINE
  8
0
 62
7
  6
CONTINUOUS
 10
87.0664628633
 20
229.2951636959
 11
87.4054459842
 21
229.2951636959
  0
LINE
  8
0
 62
7
  6
CONTINUOUS
 10
88.4223953472
 20
229.4449319855
 11
89.5523392993
 21
229.4449319855
  0
LINE
  8
0
 62
7
  6
CONTINUOUS
 10
88.4223953472
 20
229.620307579
 11
89.5523392993
 21
229.620307579
  0
LINE
  8
0
 62
7
  6
CONTINUOUS
 10
86.1625080895
 20
230.4352861692
 11
86.6144857997
 21
230.4352861692
  0
LINE
  8
0
 62
7
  6
CONTINUOUS
 10
90.5692886623
 20
230.4352861692
 11
92.2642042672
 21
230.4352861692
  0
LINE
  8
0
 62
7
  6
CONTINUOUS
 10
86.1625080895
 20
231.6365167991
 11
86.6144857997
 21
231.6365167991
  0
LINE
  8
0
 62
7
  6
CONTINUOUS
 10
87.8574236944
 20
231.6365167991
 11
88.1964068154
 21
231.6365167991
  0
LINE
  8
0
 62
7
  6
CONTINUOUS
 10
89.7783278311
 20
231.6365167991
 11
90.1173112754
 21
231.6365167991
  0
LINE
  8
0
 62
7
  6
CONTINUOUS
 10
90.5692886623
 20
231.6365167991
 11
92.6031873882
 21
231.6365167991
  0
LINE
  8
0
 62
7
  6
CONTINUOUS
 10
93.0551649367
 20
231.6365167991
 11
93.5636396182
 21
231.6365167991
  0
LINE
  8
0
 62
7
  6
CONTINUOUS
 10
94.976069235
 20
231.6365167991
 11
95.315052356
 21
231.6365167991
  0
LINE
  8
0
 62
7
  6
CONTINUOUS
 10
86.1625080895
 20
231.8731760139
 11
86.6144857997
 21
231.8731760139
  0
LINE
  8
0
 62
7
  6
CONTINUOUS
 10
87.8574236944
 20
231.8731760139
 11
88.1964068154
 21
231.8731760139
  0
LINE
  8
0
 62
7
  6
CONTINUOUS
 10
89.7783278311
 20
231.8731760139
 11
90.1173112754
 21
231.8731760139
  0
LINE
  8
0
 62
7
  6
CONTINUOUS
 10
90.5692886623
 20
231.8731760139
 11
92.6031873882
 21
231.8731760139
  0
LINE
  8
0
 62
7
  6
CONTINUOUS
 10
93.0551649367
 20
231.8731760139
 11
93.5636396182
 21
231.8731760139
  0
LINE
  8
0
 62
7
  6
CONTINUOUS
 10
94.976069235
 20
231.8731760139
 11
95.315052356
 21
231.8731760139
  0
LINE
  8
SURFACE
 62
7
  6
CONTINUOUS
 10
149.6808977976
 20
251.2984938068
 11
149.9112871073
 21
224.8984938068
  0
LINE
  8
DEFAULT_1
 62
2
  6
CENTER
 10
47.315052356
 20
238.1142015707
 11
254.1999452954
 21
238.1142015707
  0
LINE
  8
0
 62
7
  6
CONTINUOUS
 10
238.015052356
 20
246.4142015707
 11
234.515052356
 21
246.4142015707
  0
LINE
  8
0
 62
7
  6
CONTINUOUS
 10
149.7209043099
 20
246.7142015707
 11
132.5992004022
 21
246.7142015707
  0
LINE
  8
0
 62
7
  6
CONTINUOUS
 10
116.3009043099
 20
246.7142015707
 11
99.1792004022
 21
246.7142015707
  0
LINE
  8
0
 62
7
  6
CONTINUOUS
 10
82.8809043099
 20
246.7142015707
 11
65.6091557183
 21
246.7142015707
  0
LINE
  8
SURFACE
 62
7
  6
CONTINUOUS
 10
166.0192004022
 20
246.7142015707
 11
183.1409043099
 21
246.7142015707
  0
LINE
  8
SURFACE
 62
7
  6
CONTINUOUS
 10
199.4392004022
 20
246.7142015707
 11
216.5609043099
 21
246.7142015707
  0
LINE
  8
SURFACE
 62
7
  6
CONTINUOUS
 10
232.8592004022
 20
246.7142015707
 11
239.9866012723
 21
246.7142015707
  0
LINE
  8
SURFACE
 62
7
  6
CONTINUOUS
 10
165.8288176047
 20
224.8984938068
 11
166.0592069144
 21
251.2984938068
  0
LINE
  8
0
 62
7
  6
CONTINUOUS
 10
51.115052356
 20
253.1142015707
 11
150.522155577
 21
253.1142015707
  0
LINE
  8
SURFACE
 62
7
  6
CONTINUOUS
 10
150.522155577
 20
253.1142015707
 11
247.915052356
 21
253.1142015707
  0
LINE
  8
SURFACE
 62
7
  6
CONTINUOUS
 10
183.1008977976
 20
251.2984938068
 11
183.3312871073
 21
224.8984938068
  0
LINE
  8
SURFACE
 62
7
  6
CONTINUOUS
 10
199.2488176047
 20
224.8984938068
 11
199.4792069144
 21
251.2984938068
  0
LINE
  8
SURFACE
 62
7
  6
CONTINUOUS
 10
216.5208977976
 20
251.2984938068
 11
216.7512871073
 21
224.8984938068
  0
LINE
  8
0
 62
7
  6
CONTINUOUS
 10
234.515052356
 20
246.7142015707
 11
234.515052356
 21
246.4142015707
  0
LINE
  8
0
 62
7
  6
CONTINUOUS
 10
236.3022863941
 20
246.7142015707
 11
236.3022863941
 21
246.4142015707
  0
LINE
  8
0
 62
7
  6
CONTINUOUS
 10
238.015052356
 20
246.7142015707
 11
238.015052356
 21
246.4142015707
  0
LINE
  8
SURFACE
 62
7
  6
CONTINUOUS
 10
232.8992069144
 20
251.2984938068
 11
232.6688176047
 21
224.8984938068
  0
LINE
  8
SURFACE
 62
7
  6
CONTINUOUS
 10
241.7880899383
 20
244.751614013
 11
241.7865325906
 21
244.9299257367
  0
LINE
  8
SURFACE
 62
7
  6
CONTINUOUS
 10
249.715052356
 20
251.3142015707
 11
249.715052356
 21
224.9142015707
  0
LINE
  8
0
 62
7
  6
CONTINUOUS
 10
308.5360586839
 20
89.9887333312
 11
308.7727178987
 21
89.9887333312
  0
LINE
  8
0
 62
7
  6
CONTINUOUS
 10
308.3166388401
 20
90.0951163065
 11
308.545265255
 21
90.0951163065
  0
LINE
  8
0
 62
7
  6
CONTINUOUS
 10
307.9028414794
 20
90.3078822665
 11
308.1177354136
 21
90.3078822665
  0
LINE
  8
0
 62
7
  6
CONTINUOUS
 10
307.1574883884
 20
90.7334141679
 11
307.3514498251
 21
90.7334141679
  0
LINE
  8
0
 62
7
  6
CONTINUOUS
 10
306.4982043313
 20
91.1589461066
 11
306.6768131706
 21
91.1589461066
  0
LINE
  8
0
 62
7
  6
CONTINUOUS
 10
305.7672737131
 20
91.6908609368
 11
305.9314968889
 21
91.6908609368
  0
LINE
  8
0
 62
7
  6
CONTINUOUS
 10
305.242560367
 20
92.11639295
 11
305.3978181777
 21
92.11639295
  0
LINE
  8
0
 62
7
  6
CONTINUOUS
 10
304.7622715169
 20
92.5419248142
 11
304.9101462294
 21
92.5419248142
  0
LINE
  8
0
 62
7
  6
CONTINUOUS
 10
304.5368547064
 20
92.7546907463
 11
304.6815027565
 21
92.7546907463
  0
LINE
  8
0
 62
7
  6
CONTINUOUS
 10
304.4275493173
 20
92.8610737123
 11
304.5706832559
 21
92.8610737123
  0
LINE
  8
0
 62
7
  6
CONTINUOUS
 10
304.3204193637
 20
92.9674566783
 11
304.4620999753
 21
92.9674566783
  0
LINE
  8
0
 62
7
  6
CONTINUOUS
 10
304.1124305199
 20
93.1802226104
 11
304.251372726
 21
93.1802226104
  0
LINE
  8
0
 62
7
  6
CONTINUOUS
 10
303.8152601177
 20
93.4993715085
 11
303.9504695699
 21
93.4993715085
  0
LINE
  8
0
 62
7
  6
CONTINUOUS
 10
303.6264204187
 20
93.7121374406
 11
303.7593609338
 21
93.7121374406
  0
LINE
  8
0
 62
7
  6
CONTINUOUS
 10
303.5346438295
 20
93.8185207047
 11
303.6665090689
 21
93.8185207047
  0
LINE
  8
0
 62
7
  6
CONTINUOUS
 10
303.2693954828
 20
94.1376696028
 11
303.3982490922
 21
94.1376696028
  0
LINE
  8
0
 62
7
  6
CONTINUOUS
 10
302.9378943334
 20
94.563201467
 11
303.0631730917
 21
94.563201467
  0
LINE
  8
0
 62
7
  6
CONTINUOUS
 10
302.7047717271
 20
94.8823503651
 11
302.8276536392
 21
94.8823503651
  0
LINE
  8
0
 62
7
  6
CONTINUOUS
 10
302.6298668411
 20
94.9887333312
 11
302.7519980659
 21
94.9887333312
  0
LINE
  8
0
 62
2
  6
CONTINUOUS
 10
316.0637434555
 20
103.6287333312
 11
313.9637434555
 21
103.6287333312
  0
LINE
  8
DEFAULT_1
 62
2
  6
CENTER
 10
309.7637434555
 20
103.6287333312
 11
307.7637434555
 21
103.6287333312
  0
LINE
  8
DEFAULT_1
 62
2
  6
CENTER
 10
320.2637434555
 20
103.6287333312
 11
322.2637434555
 21
103.6287333312
  0
LINE
  8
SURFACE
 62
7
  6
CONTINUOUS
 10
300.0137434555
 20
162.6562849234
 11
300.0137434555
 21
161.1325944289
  0
LINE
  8
0
 62
7
  6
CONTINUOUS
 10
300.0137434555
 20
167.1287280636
 11
300.0137434555
 21
103.6287333312
  0
LINE
  8
0
 62
2
  6
CONTINUOUS
 10
315.0137434555
 20
168.1787333312
 11
315.0137434555
 21
166.0787333312
  0
LINE
  8
DEFAULT_1
 62
2
  6
CENTER
 10
315.0137434555
 20
161.8787333312
 11
315.0137434555
 21
159.8787333312
  0
LINE
  8
0
 62
2
  6
CONTINUOUS
 10
315.0137434555
 20
104.6787333312
 11
315.0137434555
 21
102.5787333312
  0
LINE
  8
DEFAULT_1
 62
2
  6
CENTER
 10
315.0137434555
 20
98.3787333312
 11
315.0137434555
 21
96.3787333312
  0
LINE
  8
DEFAULT_1
 62
2
  6
CENTER
 10
315.0137434555
 20
108.8787333312
 11
315.0137434555
 21
110.8787333312
  0
LINE
  8
DEFAULT_1
 62
2
  6
CENTER
 10
315.0137434555
 20
172.3787333312
 11
315.0137434555
 21
174.3787333312
  0
LINE
  8
0
 62
7
  6
CONTINUOUS
 10
306.5002854988
 20
138.1766437206
 11
301.5943786374
 21
137.5742741008
  0
LINE
  8
SURFACE
 62
7
  6
CONTINUOUS
 10
330.0137434555
 20
160.6227459423
 11
330.0137434555
 21
156.2953723097
  0
LINE
  8
SURFACE
 62
7
  6
CONTINUOUS
 10
330.0137434555
 20
155.1364999321
 11
330.0137434555
 21
154.6132560203
  0
LINE
  8
0
 62
7
  6
CONTINUOUS
 10
330.0137434555
 20
103.6287333312
 11
330.0137434555
 21
167.1287274036
  0
LINE
  8
0
 62
2
  6
CONTINUOUS
 10
316.0637434555
 20
167.1287333312
 11
313.9637434555
 21
167.1287333312
  0
LINE
  8
DEFAULT_1
 62
2
  6
CENTER
 10
309.7637434555
 20
167.1287333312
 11
307.7637434555
 21
167.1287333312
  0
LINE
  8
DEFAULT_1
 62
2
  6
CENTER
 10
320.2637434555
 20
167.1287333312
 11
322.2637434555
 21
167.1287333312
  0
ARC
  8
SURFACE
 62
7
  6
CONTINUOUS
 10
247.915052356
 20
180.3287333312
 40
1.8
 50
0.0
 51
90.0
  0
ARC
  8
0
 62
7
  6
CONTINUOUS
 10
51.115052356
 20
90.4287333312
 40
1.8
 50
179.9999999984
 51
270.0
  0
ARC
  8
0
 62
7
  6
CONTINUOUS
 10
51.115052356
 20
224.9142015707
 40
1.8
 50
180.0
 51
270.0
  0
ARC
  8
0
 62
7
  6
CONTINUOUS
 10
130.6088861433
 20
224.9142015794
 40
1.8
 50
269.9999999976
 51
359.4999997218
  0
ARC
  8
0
 62
7
  6
CONTINUOUS
 10
118.2912185849
 20
224.9142015707
 40
1.8
 50
180.4999999955
 51
269.9999994887
  0
ARC
  8
0
 62
7
  6
CONTINUOUS
 10
97.1888861433
 20
224.9142015794
 40
1.8
 50
269.9999999976
 51
359.4999997218
  0
ARC
  8
0
 62
7
  6
CONTINUOUS
 10
84.8712185849
 20
224.9142015707
 40
1.8
 50
180.4999999955
 51
269.9999994887
  0
ARC
  8
0
 62
7
  6
CONTINUOUS
 10
63.6186891455
 20
224.9142015803
 40
1.8
 50
269.9999999973
 51
359.4995996924
  0
ARC
  8
0
 62
7
  6
CONTINUOUS
 10
51.315052356
 20
224.6142015707
 40
1.5
 50
270.0
 51
354.050828258
  0
ARC
  8
0
 62
7
  6
CONTINUOUS
 10
57.815052356
 20
224.6142015707
 40
1.5
 50
185.9492819929
 51
270.0
  0
ARC
  8
0
 62
7
  6
CONTINUOUS
 10
51.115052356
 20
251.3142015707
 40
1.8
 50
90.0
 51
180.0
  0
ARC
  8
0
 62
7
  6
CONTINUOUS
 10
130.8392754529
 20
251.3142015707
 40
1.8
 50
359.5
 51
90.0
  0
ARC
  8
0
 62
7
  6
CONTINUOUS
 10
97.4192754529
 20
251.3142015707
 40
1.8
 50
359.5
 51
90.0
  0
ARC
  8
0
 62
7
  6
CONTINUOUS
 10
118.0608292592
 20
251.314201561
 40
1.8
 50
90.0000000027
 51
180.4999996924
  0
ARC
  8
0
 62
7
  6
CONTINUOUS
 10
63.8492627759
 20
251.3142015707
 40
1.8
 50
359.4996
 51
90.0
  0
ARC
  8
0
 62
7
  6
CONTINUOUS
 10
84.6408292592
 20
251.314201561
 40
1.8
 50
90.0000000027
 51
180.4999996924
  0
ARC
  8
SURFACE
 62
7
  6
CONTINUOUS
 10
230.8688861432
 20
224.9142015707
 40
1.8
 50
270.0
 51
359.5
  0
ARC
  8
SURFACE
 62
7
  6
CONTINUOUS
 10
218.5512185688
 20
224.9142015707
 40
1.8
 50
180.5
 51
270.0
  0
ARC
  8
SURFACE
 62
7
  6
CONTINUOUS
 10
247.915052356
 20
224.9142015707
 40
1.8
 50
270.0
 51
360.0
  0
ARC
  8
SURFACE
 62
7
  6
CONTINUOUS
 10
151.7112185849
 20
224.9142015707
 40
1.8
 50
180.4999999955
 51
269.9999994887
  0
ARC
  8
SURFACE
 62
7
  6
CONTINUOUS
 10
185.1312185849
 20
224.9142015707
 40
1.8
 50
180.4999999955
 51
269.9999994887
  0
ARC
  8
SURFACE
 62
7
  6
CONTINUOUS
 10
164.0288861433
 20
224.9142015803
 40
1.8
 50
269.9999999973
 51
359.4999996924
  0
ARC
  8
SURFACE
 62
7
  6
CONTINUOUS
 10
197.4488861433
 20
224.9142015803
 40
1.8
 50
269.9999999973
 51
359.4999996924
  0
ARC
  8
SURFACE
 62
7
  6
CONTINUOUS
 10
239.9866012723
 20
244.9142015707
 40
1.8
 50
0.5005221192
 51
90.0
  0
ARC
  8
SURFACE
 62
7
  6
CONTINUOUS
 10
231.0992754529
 20
251.3142015707
 40
1.8
 50
359.5
 51
90.0
  0
ARC
  8
SURFACE
 62
7
  6
CONTINUOUS
 10
218.3208292591
 20
251.3142015707
 40
1.8
 50
90.0
 51
180.5
  0
ARC
  8
SURFACE
 62
7
  6
CONTINUOUS
 10
247.915052356
 20
251.3142015707
 40
1.8
 50
0.0
 51
90.0
  0
ARC
  8
SURFACE
 62
7
  6
CONTINUOUS
 10
151.4808292592
 20
251.3142015619
 40
1.8
 50
90.0000000024
 51
180.4999997218
  0
ARC
  8
SURFACE
 62
7
  6
CONTINUOUS
 10
164.2592754529
 20
251.3142015707
 40
1.8
 50
359.5
 51
90.0
  0
ARC
  8
SURFACE
 62
7
  6
CONTINUOUS
 10
184.9008292592
 20
251.3142015619
 40
1.8
 50
90.0000000024
 51
180.4999997218
  0
ARC
  8
SURFACE
 62
7
  6
CONTINUOUS
 10
197.6792754529
 20
251.3142015707
 40
1.8
 50
359.5
 51
90.0
  0
ARC
  8
0
 62
7
  6
CONTINUOUS
 10
304.0397434555
 20
158.2161505223
 40
20.19
 50
277.0
 51
342.7986888667
  0
ARC
  8
SURFACE
 62
7
  6
CONTINUOUS
 10
301.8137434555
 20
135.7876910648
 40
1.7999999921
 50
101.2620694063
 51
175.7379319477
  0
ARC
  8
0
 62
7
  6
CONTINUOUS
 10
301.8137434555
 20
135.7876910279
 40
1.8
 50
97.0
 51
180.0
  0
ARC
  8
0
 62
7
  6
CONTINUOUS
 10
315.0137434555
 20
103.6287333312
 40
15.1
 50
214.9027634983
 51
244.5967897266
  0
ARC
  8
0
 62
7
  6
CONTINUOUS
 10
315.0137434555
 20
103.6287333312
 40
15.0
 50
180.0
 51
360.0
  0
ARC
  8
SURFACE
 62
7
  6
CONTINUOUS
 10
315.0137434555
 20
103.6287333312
 40
15.0
 50
357.4822965439
 51
359.2432542823
  0
ARC
  8
SURFACE
 62
7
  6
CONTINUOUS
 10
315.0137434555
 20
103.6287333312
 40
15.0
 50
180.7698270703
 51
182.4118182495
  0
ARC
  8
SURFACE
 62
7
  6
CONTINUOUS
 10
315.0137434555
 20
103.6287333312
 40
15.0
 50
314.3667228634
 51
357.4648315339
  0
ARC
  8
SURFACE
 62
7
  6
CONTINUOUS
 10
315.0137434555
 20
103.6287333312
 40
15.0
 50
206.9852669453
 51
207.3393586628
  0
ARC
  8
SURFACE
 62
7
  6
CONTINUOUS
 10
315.0137434555
 20
103.6287333312
 40
15.0
 50
185.7691264201
 51
192.0980460319
  0
CIRCLE
  8
0
 62
7
  6
CONTINUOUS
 10
315.0137434555
 20
103.6287333312
 40
5.25
  0
ARC
  8
0
 62
7
  6
CONTINUOUS
 10
315.0137434555
 20
167.1287333312
 40
15.0
 50
359.9999801262
 51
180.0000204114
  0
ARC
  8
SURFACE
 62
7
  6
CONTINUOUS
 10
315.0137434555
 20
167.1287333312
 40
15.0
 50
359.9999795886
 51
180.0000198738
  0
CIRCLE
  8
0
 62
7
  6
CONTINUOUS
 10
315.0137434555
 20
167.1287333312
 40
5.25
  0
ARC
  8
0
 62
7
  6
CONTINUOUS
 10
315.1556522171
 20
167.4341862613
 40
16.5
 50
304.471190007
 51
315.5250560984
  0
ARC
  8
0
 62
7
  6
CONTINUOUS
 10
326.1924917438
 20
151.3581739055
 40
3.0
 50
124.471190007
 51
162.7986888667
  0
ARC
  8
SURFACE
 62
7
  6
CONTINUOUS
 10
328.2137434555
 20
154.6132559826
 40
1.8
 50
133.9318066233
 51
135.5250486322
  0
ARC
  8
SURFACE
 62
7
  6
CONTINUOUS
 10
328.2137434555
 20
154.6132562134
 40
1.7999999426
 50
131.1532977146
 51
133.3302010507
  0
ARC
  8
0
 62
7
  6
CONTINUOUS
 10
328.2137434555
 20
154.613256247
 40
1.7999999338
 50
359.9999940153
 51
135.5250728943
  0
ENDSEC
  0
EOF
