999
DXF file: G:\afd20\200100-Web\Chains\uni 1700\2D-DXF\Belt links\uni_1701_tab_r_st.dxf
999
Pro/ENGINEER 2015290 by Parametric Technology Corporation
  0
SECTION
  2
HEADER
  9
$ACADVER
  1
AC1027
  9
$DWGCODEPAGE
  3
ANSI_1252
  9
$EXTMAX
 10
210.0
 20
297.0
 30
0.0
  9
$EXTMIN
 10
0.0
 20
0.0
 30
0.0
  9
$LIMMIN
 10
0.0
 20
0.0
  9
$LIMMAX
 10
210.0
 20
297.0
  9
$VIEWCTR
 10
105.0
 20
148.5
  9
$VIEWSIZE
 40
297.0
  9
$CLAYER
  8
0
  9
$LTSCALE
 40
19.36
  9
$CELTYPE
  6
BYLAYER
  9
$DIMSCALE
 40
1.0
  9
$DIMASZ
 40
3.5
  9
$DIMEXO
 40
1.0
  9
$DIMDLI
 40
13.376
  9
$DIMEXE
 40
2.0
  9
$DIMCEN
 40
3.168
  9
$DIMLFAC
 40
1.0
  9
$DIMBLK
  1
_FILLED
  9
$DIMALT
 70
0
  9
$DIMALTF
 40
0.0393700787
  9
$DIMTXT
 40
3.5
  9
$DIMTOL
 70
1
  9
$DIMLIM
 70
0
  9
$DIMTFAC
 40
1.0
  9
$DIMTP
 40
0.01
  9
$DIMTM
 40
0.01
  9
$DIMGAP
 40
0.625
  9
$DIMDSEP
 70
46
  9
$AUNITS
 70
0
  9
$PDMODE
 70
3
  9
$PDSIZE
 40
0.3125
  9
$HANDSEED
  5
74C
  9
$TILEMODE
 70
1
  9
$MEASUREMENT
 70
1
  9
$INSUNITS
 70
4
  0
ENDSEC
  0
SECTION
  2
CLASSES
  0
CLASS
  1
ACDBDICTIONARYWDFLT
  2
AcDbDictionaryWithDefault
  3
AutoCAD 2000
 90
0
 91
1
280
0
281
0
  0
CLASS
  1
ACDBPLACEHOLDER
  2
AcDbPlaceHolder
  3
AutoCAD 2000
 90
0
 91
1
280
0
281
0
  0
CLASS
  1
LAYOUT
  2
AcDbLayout
  3
AutoCAD 2000
 90
0
 91
0
280
0
281
0
  0
CLASS
  1
TABLESTYLE
  2
AcDbTableStyle
  3
ObjectDBX Classes
 90
2047
 91
1
280
0
281
0
  0
CLASS
  1
ACAD_TABLE
  2
AcDbTable
  3
ObjectDBX Classes
 90
1025
 91
1
280
0
281
1
  0
ENDSEC
  0
SECTION
  2
TABLES
  0
TABLE
  2
VPORT
  5
8
100
AcDbSymbolTable
 70
2
  0
VPORT
  5
1F4
100
AcDbSymbolTableRecord
100
AcDbViewportTableRecord
  2
*ACTIVE
 70
0
 10
0.0
 20
0.0
 11
1.0
 21
1.0
 12
105.0
 22
148.5
 13
0.0
 23
0.0
 14
1.0
 24
1.0
 15
0.0
 25
0.0
 16
0.0
 26
0.0
 36
1.0
 17
0.0
 27
0.0
 37
0.0
 40
297.0
 41
0.7070707071
 42
50.0
 43
0.0
 44
0.0
 50
0.0
 51
0.0
 71
0
 72
100
 73
1
 74
1
 75
0
 76
0
 77
0
 78
0
  0
ENDTAB
  0
TABLE
  2
LTYPE
  5
5
100
AcDbSymbolTable
 70
6
  0
LTYPE
  5
14
100
AcDbSymbolTableRecord
100
AcDbLinetypeTableRecord
  2
BYBLOCK
 70
0
  3

 72
65
 73
0
 40
0.0
  0
LTYPE
  5
15
100
AcDbSymbolTableRecord
100
AcDbLinetypeTableRecord
  2
BYLAYER
 70
0
  3

 72
65
 73
0
 40
0.0
  0
LTYPE
  5
16
100
AcDbSymbolTableRecord
100
AcDbLinetypeTableRecord
  2
CONTINUOUS
 70
64
  3
Solid line
 72
65
 73
0
 40
0.0
  0
LTYPE
  5
1F5
100
AcDbSymbolTableRecord
100
AcDbLinetypeTableRecord
  2
CENTER
 70
64
  3
____ _ ____ _ ____ _ ____ _ ____ _ ____ _ ____
 72
65
 73
4
 40
0.6
 49
0.375
 74
0
 49
-0.075
 74
0
 49
0.075
 74
0
 49
-0.075
 74
0
  0
LTYPE
  5
1F6
100
AcDbSymbolTableRecord
100
AcDbLinetypeTableRecord
  2
HIDDEN
 70
64
  3
- - - - - - - - - - - - - - - - - - - -
 72
65
 73
2
 40
0.2
 49
0.1
 74
0
 49
-0.1
 74
0
  0
LTYPE
  5
1F7
100
AcDbSymbolTableRecord
100
AcDbLinetypeTableRecord
  2
PHANTOM
 70
64
  3
_____ _ _ _____ _ _ _____ _ _ _____
 72
65
 73
6
 40
0.8
 49
0.45
 74
0
 49
-0.05
 74
0
 49
0.1
 74
0
 49
-0.05
 74
0
 49
0.1
 74
0
 49
-0.05
 74
0
  0
LTYPE
  5
1F8
100
AcDbSymbolTableRecord
100
AcDbLinetypeTableRecord
  2
DOT
 70
64
  3
. . . . . . . . . . . . . . . . . . . .
 72
65
 73
2
 40
0.2
 49
0.1
 74
0
 49
-0.1
 74
0
  0
LTYPE
  5
1F9
100
AcDbSymbolTableRecord
100
AcDbLinetypeTableRecord
  2
DASHED
 70
64
  3
- - - - - - - - - - - - - - - - - - - -
 72
65
 73
2
 40
0.2
 49
0.1
 74
0
 49
-0.1
 74
0
  0
ENDTAB
  0
TABLE
  2
LAYER
  5
2
100
AcDbSymbolTable
 70
36
  0
LAYER
  5
10
100
AcDbSymbolTableRecord
100
AcDbLayerTableRecord
  2
0
 70
0
 62
7
  6
CONTINUOUS
370
-3
390
F
  0
LAYER
  5
1FA
100
AcDbSymbolTableRecord
100
AcDbLayerTableRecord
  2
DEFAULT_1
 70
0
 62
7
  6
CENTER
370
-3
390
F
  0
LAYER
  5
1FB
100
AcDbSymbolTableRecord
100
AcDbLayerTableRecord
  2
DEFAULT_2
 70
0
 62
8
  6
HIDDEN
370
-3
390
F
  0
LAYER
  5
1FC
100
AcDbSymbolTableRecord
100
AcDbLayerTableRecord
  2
DEFAULT_3
 70
0
 62
7
  6
PHANTOM
370
-3
390
F
  0
LAYER
  5
1FD
100
AcDbSymbolTableRecord
100
AcDbLayerTableRecord
  2
1_AXIS
 70
0
 62
7
  6
CONTINUOUS
370
-3
390
F
  0
LAYER
  5
1FE
100
AcDbSymbolTableRecord
100
AcDbLayerTableRecord
  2
1_DATUM_PLANE
 70
0
 62
7
  6
CONTINUOUS
370
-3
390
F
  0
LAYER
  5
1FF
100
AcDbSymbolTableRecord
100
AcDbLayerTableRecord
  2
1_DATUM_PLANES
 70
0
 62
7
  6
CONTINUOUS
370
-3
390
F
  0
LAYER
  5
200
100
AcDbSymbolTableRecord
100
AcDbLayerTableRecord
  2
2_FEATURE
 70
0
 62
7
  6
CONTINUOUS
370
-3
390
F
  0
LAYER
  5
201
100
AcDbSymbolTableRecord
100
AcDbLayerTableRecord
  2
3_CURVE
 70
0
 62
7
  6
CONTINUOUS
370
-3
390
F
  0
LAYER
  5
202
100
AcDbSymbolTableRecord
100
AcDbLayerTableRecord
  2
4_QUILT
 70
0
 62
7
  6
CONTINUOUS
370
-3
390
F
  0
LAYER
  5
203
100
AcDbSymbolTableRecord
100
AcDbLayerTableRecord
  2
4_SURFACE
 70
0
 62
7
  6
CONTINUOUS
370
-3
390
F
  0
LAYER
  5
204
100
AcDbSymbolTableRecord
100
AcDbLayerTableRecord
  2
6_DIM
 70
0
 62
7
  6
CONTINUOUS
370
-3
390
F
  0
LAYER
  5
205
100
AcDbSymbolTableRecord
100
AcDbLayerTableRecord
  2
CSYS
 70
0
 62
7
  6
CONTINUOUS
370
-3
390
F
  0
LAYER
  5
206
100
AcDbSymbolTableRecord
100
AcDbLayerTableRecord
  2
PLANES
 70
0
 62
7
  6
CONTINUOUS
370
-3
390
F
  0
ENDTAB
  0
TABLE
  2
STYLE
  5
3
100
AcDbSymbolTable
 70
1
  0
STYLE
  5
11
100
AcDbSymbolTableRecord
100
AcDbTextStyleTableRecord
  2
STANDARD
 70
0
 40
0.0
 41
0.8
 50
0.0
 71
0
 42
0.2
  3
txt
  4

  0
STYLE
  5
207
100
AcDbSymbolTableRecord
100
AcDbTextStyleTableRecord
  2
TEXTSTYLE_1
 70
0
 40
0.0
 41
0.8
 50
0.0
 71
0
 42
0.2
  3
gdt
  4

  0
STYLE
  5
208
100
AcDbSymbolTableRecord
100
AcDbTextStyleTableRecord
  2
TEXTSTYLE_2
 70
0
 40
0.0
 41
0.6
 50
0.0
 71
0
 42
0.2
  3
txt
  4

  0
STYLE
  5
209
100
AcDbSymbolTableRecord
100
AcDbTextStyleTableRecord
  2
TEXTSTYLE_3
 70
0
 40
0.0
 41
1.0
 50
0.0
 71
0
 42
0.2
  3
ftb_____.ttf
  4

  0
STYLE
  5
20A
100
AcDbSymbolTableRecord
100
AcDbTextStyleTableRecord
  2
TEXTSTYLE_4
 70
0
 40
0.0
 41
1.0
 50
0.0
 71
0
 42
0.2
  3
fti_____.ttf
  4

  0
STYLE
  5
20B
100
AcDbSymbolTableRecord
100
AcDbTextStyleTableRecord
  2
TEXTSTYLE_5
 70
0
 40
0.0
 41
1.0
 50
0.0
 71
0
 42
0.2
  3
frutiger light.ttf
  4

  0
STYLE
  5
20C
100
AcDbSymbolTableRecord
100
AcDbTextStyleTableRecord
  2
TEXTSTYLE_6
 70
0
 40
0.0
 41
0.7
 50
0.0
 71
0
 42
0.2
  3
txt
  4

  0
STYLE
  5
20D
100
AcDbSymbolTableRecord
100
AcDbTextStyleTableRecord
  2
TEXTSTYLE_7
 70
0
 40
0.0
 41
0.8
 50
0.0
 71
0
 42
0.2
  3
txt
  4

  0
ENDTAB
  0
TABLE
  2
VIEW
  5
6
100
AcDbSymbolTable
 70
0
  0
ENDTAB
  0
TABLE
  2
UCS
  5
7
100
AcDbSymbolTable
 70
0
  0
ENDTAB
  0
TABLE
  2
APPID
  5
9
100
AcDbSymbolTable
 70
1
  0
APPID
  5
20E
100
AcDbSymbolTableRecord
100
AcDbRegAppTableRecord
  2
ACAD
 70
0
  0
ENDTAB
  0
TABLE
  2
BLOCK_RECORD
  5
1
100
AcDbSymbolTable
 70
0
  0
BLOCK_RECORD
  5
20F
100
AcDbSymbolTableRecord
100
AcDbBlockTableRecord
  2
*Model_Space
  0
BLOCK_RECORD
  5
210
100
AcDbSymbolTableRecord
100
AcDbBlockTableRecord
  2
*Paper_Space
  0
BLOCK_RECORD
  5
211
100
AcDbSymbolTableRecord
100
AcDbBlockTableRecord
  2
UNI_LOGO2_BL1
  0
BLOCK_RECORD
  5
212
100
AcDbSymbolTableRecord
100
AcDbBlockTableRecord
  2
AMMEAAL_LOGO_BL0
  0
BLOCK_RECORD
  5
213
100
AcDbSymbolTableRecord
100
AcDbBlockTableRecord
  2
*T1
  0
ENDTAB
  0
TABLE
  2
DIMSTYLE
  5
A
100
AcDbSymbolTable
 70
1
100
AcDbDimStyleTable
 71
0
  0
DIMSTYLE
105
214
100
AcDbSymbolTableRecord
100
AcDbDimStyleTableRecord
  2
STANDARD
 70
0
  3

  4

 40
1.0
 41
3.5
 42
1.0
 43
0.38
 44
2.0
 45
0.0
 46
0.0
 47
0.01
 48
0.01
140
3.5
141
0.09
142
0.0
143
25.4
144
1.0
145
0.0
146
1.0
147
0.625
 71
1.0
 72
0.0
 73
0
 74
0
 75
0
 76
0
 77
1
 78
0
170
0
171
2
172
0
173
0
174
0
175
0
176
0
177
0
178
0
270
2
271
2
272
2
273
2
274
2
275
0
280
0
281
0
282
0
283
1
284
0
285
0
286
0
287
3
288
0
340
11
278
46
  0
ENDTAB
  0
ENDSEC
  0
SECTION
  2
BLOCKS
  0
BLOCK
  5
20
100
AcDbEntity
  8
0
100
AcDbBlockBegin
  2
*Model_Space
 70
0
 10
0.0
 20
0.0
 30
0.0
  3
*Model_Space
  1

  0
ENDBLK
  5
21
100
AcDbEntity
  8
0
100
AcDbBlockEnd
  0
BLOCK
  5
1C
100
AcDbEntity
  8
0
100
AcDbBlockBegin
  2
*Paper_Space
 70
0
 10
0.0
 20
0.0
 30
0.0
  3
*Paper_Space
  1

  0
ENDBLK
  5
1D
100
AcDbEntity
  8
0
100
AcDbBlockEnd
  0
BLOCK
  5
215
100
AcDbEntity
  8
0
100
AcDbBlockBegin
 62
2
  6
CONTINUOUS
  2
UNI_LOGO2_BL1
 70
64
 10
173.3924355793
 20
35.4837666925
  3
UNI_LOGO2_BL1
  1

  0
TEXT
  5
216
100
AcDbEntity
  8
0
100
AcDbText
 62
7
  6
CONTINUOUS
 10
164.4507205878
 20
30.5765230696
  7
TEXTSTYLE_4
 40
1.0655737705
  1
The brand for plastic modular belts and chains
 41
1.0
 72
0
100
AcDbText
  0
LINE
  5
217
100
AcDbEntity
  8
0
100
AcDbLine
 62
7
  6
CONTINUOUS
 10
149.3705039683
 20
36.0575371843
 11
149.3705039683
 21
33.9263896433
  0
LINE
  5
218
100
AcDbEntity
  8
0
100
AcDbLine
 62
7
  6
CONTINUOUS
 10
149.6595664615
 20
30.9354583476
 11
149.6595664615
 21
31.0322494069
  0
LINE
  5
219
100
AcDbEntity
  8
0
100
AcDbLine
 62
7
  6
CONTINUOUS
 10
149.3705039683
 20
30.9999857205
 11
149.4283164701
 21
30.8064036019
  0
LINE
  5
21A
100
AcDbEntity
  8
0
100
AcDbLine
 62
7
  6
CONTINUOUS
 10
150.7639465913
 20
33.8444224302
 11
150.7639465913
 21
36.0575371843
  0
LINE
  5
21B
100
AcDbEntity
  8
0
100
AcDbLine
 62
7
  6
CONTINUOUS
 10
151.6830039132
 20
32.0001601351
 11
151.6830039132
 21
30.4837666925
  0
LINE
  5
21C
100
AcDbEntity
  8
0
100
AcDbLine
 62
7
  6
CONTINUOUS
 10
151.9720664683
 20
30.4837666925
 11
151.9720664683
 21
31.2258315706
  0
LINE
  5
21D
100
AcDbEntity
  8
0
100
AcDbLine
 62
7
  6
CONTINUOUS
 10
151.9720664683
 20
31.3548863163
 11
151.9720664683
 21
32.0001601351
  0
LINE
  5
21E
100
AcDbEntity
  8
0
100
AcDbLine
 62
7
  6
CONTINUOUS
 10
149.4283164701
 20
31.1935678842
 11
149.3705039683
 21
30.9999857205
  0
LINE
  5
21F
100
AcDbEntity
  8
0
100
AcDbLine
 62
7
  6
CONTINUOUS
 10
149.7751914546
 20
30.7741399155
 11
149.6595664615
 21
30.9354583476
  0
LINE
  5
220
100
AcDbEntity
  8
0
100
AcDbLine
 62
7
  6
CONTINUOUS
 10
150.8736290235
 20
31.2903589434
 11
150.9314414683
 21
31.1935678842
  0
LINE
  5
221
100
AcDbEntity
  8
0
100
AcDbLine
 62
7
  6
CONTINUOUS
 10
151.2205040235
 20
31.1935678842
 11
151.1626914132
 21
31.3226226299
  0
LINE
  5
222
100
AcDbEntity
  8
0
100
AcDbLine
 62
7
  6
CONTINUOUS
 10
152.6491924929
 20
36.0575371843
 11
152.6491924929
 21
34.2542584958
  0
LINE
  5
223
100
AcDbEntity
  8
0
100
AcDbLine
 62
7
  6
CONTINUOUS
 10
152.6491924929
 20
32.9427830859
 11
152.6491924929
 21
32.287045381
  0
LINE
  5
224
100
AcDbEntity
  8
0
100
AcDbLine
 62
7
  6
CONTINUOUS
 10
153.0126914683
 20
31.1290405113
 11
153.0126914683
 21
30.4837666925
  0
LINE
  5
225
100
AcDbEntity
  8
0
100
AcDbLine
 62
7
  6
CONTINUOUS
 10
153.3017538581
 20
30.4837666925
 11
153.3017538581
 21
31.1290405113
  0
LINE
  5
226
100
AcDbEntity
  8
0
100
AcDbLine
 62
7
  6
CONTINUOUS
 10
149.6595664615
 20
31.0322494069
 11
149.7173789683
 21
31.1613041978
  0
LINE
  5
227
100
AcDbEntity
  8
0
100
AcDbLine
 62
7
  6
CONTINUOUS
 10
149.4283164701
 20
30.8064036019
 11
149.5439414683
 21
30.6773488336
  0
LINE
  5
228
100
AcDbEntity
  8
0
100
AcDbLine
 62
7
  6
CONTINUOUS
 10
152.9548788581
 20
31.258095257
 11
153.0126914683
 21
31.1290405113
  0
LINE
  5
229
100
AcDbEntity
  8
0
100
AcDbLine
 62
7
  6
CONTINUOUS
 10
153.7642540786
 20
30.7741399155
 11
153.8220663581
 21
30.6450851472
  0
LINE
  5
22A
100
AcDbEntity
  8
0
100
AcDbLine
 62
7
  6
CONTINUOUS
 10
153.3017538581
 20
31.1290405113
 11
153.2439415786
 21
31.2903589434
  0
LINE
  5
22B
100
AcDbEntity
  8
0
100
AcDbLine
 62
7
  6
CONTINUOUS
 10
153.7642540786
 20
31.3226226299
 11
153.7642540786
 21
31.258095257
  0
LINE
  5
22C
100
AcDbEntity
  8
0
100
AcDbLine
 62
7
  6
CONTINUOUS
 10
153.7642540786
 20
30.8709309748
 11
153.7642540786
 21
30.7741399155
  0
LINE
  5
22D
100
AcDbEntity
  8
0
100
AcDbLine
 62
7
  6
CONTINUOUS
 10
154.0426351159
 20
32.287045381
 11
154.0426351159
 21
36.0575371843
  0
LINE
  5
22E
100
AcDbEntity
  8
0
100
AcDbLine
 62
7
  6
CONTINUOUS
 10
154.0533164683
 20
30.7418762065
 11
154.0533164683
 21
30.8064036019
  0
LINE
  5
22F
100
AcDbEntity
  8
0
100
AcDbLine
 62
7
  6
CONTINUOUS
 10
154.3705039683
 20
36.0575371843
 11
154.3705039683
 21
32.287045381
  0
LINE
  5
230
100
AcDbEntity
  8
0
100
AcDbLine
 62
7
  6
CONTINUOUS
 10
151.1626914132
 20
30.6773488336
 11
151.2205040235
 21
30.8064036019
  0
LINE
  5
231
100
AcDbEntity
  8
0
100
AcDbLine
 62
7
  6
CONTINUOUS
 10
155.5564416889
 20
30.5805577631
 11
155.4986287478
 21
30.7418762065
  0
LINE
  5
232
100
AcDbEntity
  8
0
100
AcDbLine
 62
7
  6
CONTINUOUS
 10
155.2095666889
 20
31.258095257
 11
155.2095666889
 21
31.1613041978
  0
LINE
  5
233
100
AcDbEntity
  8
0
100
AcDbLine
 62
7
  6
CONTINUOUS
 10
155.2095666889
 20
31.0322494069
 11
155.2095666889
 21
30.8386672883
  0
LINE
  5
234
100
AcDbEntity
  8
0
100
AcDbLine
 62
7
  6
CONTINUOUS
 10
155.4986287478
 20
30.7418762065
 11
155.4986287478
 21
31.258095257
  0
LINE
  5
235
100
AcDbEntity
  8
0
100
AcDbLine
 62
7
  6
CONTINUOUS
 10
155.7639465913
 20
32.287045381
 11
155.7639465913
 21
34.0903240696
  0
LINE
  5
236
100
AcDbEntity
  8
0
100
AcDbLine
 62
7
  6
CONTINUOUS
 10
155.7639465913
 20
35.4017994794
 11
155.7639465913
 21
36.0575371843
  0
LINE
  5
237
100
AcDbEntity
  8
0
100
AcDbLine
 62
7
  6
CONTINUOUS
 10
156.0767541889
 20
32.0001601351
 11
156.0767541889
 21
31.838841703
  0
LINE
  5
238
100
AcDbEntity
  8
0
100
AcDbLine
 62
7
  6
CONTINUOUS
 10
156.0767541889
 20
31.5162047484
 11
156.0767541889
 21
30.4837666925
  0
LINE
  5
239
100
AcDbEntity
  8
0
100
AcDbLine
 62
7
  6
CONTINUOUS
 10
156.3658162478
 20
30.4837666925
 11
156.3658162478
 21
31.5162047484
  0
LINE
  5
23A
100
AcDbEntity
  8
0
100
AcDbLine
 62
7
  6
CONTINUOUS
 10
156.3658162478
 20
31.838841703
 11
156.3658162478
 21
32.0001601351
  0
LINE
  5
23B
100
AcDbEntity
  8
0
100
AcDbLine
 62
7
  6
CONTINUOUS
 10
150.9314414683
 20
30.8064036019
 11
150.8736290235
 21
30.7096125201
  0
LINE
  5
23C
100
AcDbEntity
  8
0
100
AcDbLine
 62
7
  6
CONTINUOUS
 10
153.2439415786
 20
31.2903589434
 11
153.1861289683
 21
31.3548863163
  0
LINE
  5
23D
100
AcDbEntity
  8
0
100
AcDbLine
 62
7
  6
CONTINUOUS
 10
154.1111290786
 20
30.6773488336
 11
154.0533164683
 21
30.7418762065
  0
LINE
  5
23E
100
AcDbEntity
  8
0
100
AcDbLine
 62
7
  6
CONTINUOUS
 10
155.2673789683
 20
30.548294071
 11
155.3251912478
 21
30.4837666925
  0
LINE
  5
23F
100
AcDbEntity
  8
0
100
AcDbLine
 62
7
  6
CONTINUOUS
 10
155.2095666889
 20
30.6450851472
 11
155.2673789683
 21
30.548294071
  0
LINE
  5
240
100
AcDbEntity
  8
0
100
AcDbLine
 62
7
  6
CONTINUOUS
 10
155.6142539683
 20
30.4837666925
 11
155.5564416889
 21
30.5805577631
  0
LINE
  5
241
100
AcDbEntity
  8
0
100
AcDbLine
 62
7
  6
CONTINUOUS
 10
155.4986287478
 20
31.258095257
 11
155.4408164683
 21
31.3548863163
  0
LINE
  5
242
100
AcDbEntity
  8
0
100
AcDbLine
 62
7
  6
CONTINUOUS
 10
156.8283164683
 20
31.5162047484
 11
156.8283164683
 21
30.4837666925
  0
LINE
  5
243
100
AcDbEntity
  8
0
100
AcDbLine
 62
7
  6
CONTINUOUS
 10
157.1173791889
 20
30.4837666925
 11
157.1173791889
 21
31.2258315706
  0
LINE
  5
244
100
AcDbEntity
  8
0
100
AcDbLine
 62
7
  6
CONTINUOUS
 10
157.1173791889
 20
31.3548863163
 11
157.1173791889
 21
31.5162047484
  0
LINE
  5
245
100
AcDbEntity
  8
0
100
AcDbLine
 62
7
  6
CONTINUOUS
 10
157.6491924929
 20
34.5001601351
 11
157.6491924929
 21
32.287045381
  0
LINE
  5
246
100
AcDbEntity
  8
0
100
AcDbLine
 62
7
  6
CONTINUOUS
 10
149.5439414683
 20
31.3226226299
 11
149.4283164701
 21
31.1935678842
  0
LINE
  5
247
100
AcDbEntity
  8
0
100
AcDbLine
 62
7
  6
CONTINUOUS
 10
149.7173789683
 20
31.1613041978
 11
149.7751914546
 21
31.2258315706
  0
LINE
  5
248
100
AcDbEntity
  8
0
100
AcDbLine
 62
7
  6
CONTINUOUS
 10
149.5439414683
 20
30.6773488336
 11
149.6595664615
 21
30.6128214495
  0
LINE
  5
249
100
AcDbEntity
  8
0
100
AcDbLine
 62
7
  6
CONTINUOUS
 10
149.9486289546
 20
30.6773488336
 11
149.7751914546
 21
30.7741399155
  0
LINE
  5
24A
100
AcDbEntity
  8
0
100
AcDbLine
 62
7
  6
CONTINUOUS
 10
155.1517537478
 20
31.3226226299
 11
155.2095666889
 21
31.258095257
  0
LINE
  5
24B
100
AcDbEntity
  8
0
100
AcDbLine
 62
7
  6
CONTINUOUS
 10
158.1001912478
 20
31.258095257
 11
158.1580041889
 21
31.0967768249
  0
LINE
  5
24C
100
AcDbEntity
  8
0
100
AcDbLine
 62
7
  6
CONTINUOUS
 10
158.4470662478
 20
31.0967768249
 11
158.3892539683
 21
31.258095257
  0
LINE
  5
24D
100
AcDbEntity
  8
0
100
AcDbLine
 62
7
  6
CONTINUOUS
 10
158.1580041889
 20
31.0967768249
 11
158.1580041889
 21
30.4837666925
  0
LINE
  5
24E
100
AcDbEntity
  8
0
100
AcDbLine
 62
7
  6
CONTINUOUS
 10
158.4470662478
 20
30.4837666925
 11
158.4470662478
 21
31.0967768249
  0
LINE
  5
24F
100
AcDbEntity
  8
0
100
AcDbLine
 62
7
  6
CONTINUOUS
 10
158.9095664683
 20
31.3226226299
 11
158.9095664683
 21
31.258095257
  0
LINE
  5
250
100
AcDbEntity
  8
0
100
AcDbLine
 62
7
  6
CONTINUOUS
 10
159.0426351159
 20
32.287045381
 11
159.0426351159
 21
34.418192922
  0
LINE
  5
251
100
AcDbEntity
  8
0
100
AcDbLine
 62
7
  6
CONTINUOUS
 10
159.3705039683
 20
36.0575371843
 11
159.3705039683
 21
32.287045381
  0
LINE
  5
252
100
AcDbEntity
  8
0
100
AcDbLine
 62
7
  6
CONTINUOUS
 10
154.0533164683
 20
30.8064036019
 11
154.1111290786
 21
30.9031946612
  0
LINE
  5
253
100
AcDbEntity
  8
0
100
AcDbLine
 62
7
  6
CONTINUOUS
 10
149.6595664615
 20
30.6128214495
 11
149.8330039821
 21
30.548294071
  0
LINE
  5
254
100
AcDbEntity
  8
0
100
AcDbLine
 62
7
  6
CONTINUOUS
 10
151.1626914132
 20
31.3226226299
 11
150.9892539132
 21
31.4194136891
  0
LINE
  5
255
100
AcDbEntity
  8
0
100
AcDbLine
 62
7
  6
CONTINUOUS
 10
153.8220663581
 20
30.6450851472
 11
153.9955038581
 21
30.548294071
  0
LINE
  5
256
100
AcDbEntity
  8
0
100
AcDbLine
 62
7
  6
CONTINUOUS
 10
152.8392539683
 20
31.3226226299
 11
152.9548788581
 21
31.258095257
  0
LINE
  5
257
100
AcDbEntity
  8
0
100
AcDbLine
 62
7
  6
CONTINUOUS
 10
153.1861289683
 20
31.3548863163
 11
153.0705040786
 21
31.4194136891
  0
LINE
  5
258
100
AcDbEntity
  8
0
100
AcDbLine
 62
7
  6
CONTINUOUS
 10
158.9095664683
 20
30.7418762065
 11
159.0251916889
 21
30.6128214495
  0
LINE
  5
259
100
AcDbEntity
  8
0
100
AcDbLine
 62
7
  6
CONTINUOUS
 10
159.2564414683
 20
30.6773488336
 11
159.1986291889
 21
30.7418762065
  0
LINE
  5
25A
100
AcDbEntity
  8
0
100
AcDbLine
 62
7
  6
CONTINUOUS
 10
158.9095664683
 20
31.258095257
 11
159.0251916889
 21
31.1290405113
  0
LINE
  5
25B
100
AcDbEntity
  8
0
100
AcDbLine
 62
7
  6
CONTINUOUS
 10
158.3892539683
 20
31.258095257
 11
158.3314416889
 21
31.3548863163
  0
LINE
  5
25C
100
AcDbEntity
  8
0
100
AcDbLine
 62
7
  6
CONTINUOUS
 10
160.7595660273
 20
30.6773488336
 11
160.7595660273
 21
30.7418762065
  0
LINE
  5
25D
100
AcDbEntity
  8
0
100
AcDbLine
 62
7
  6
CONTINUOUS
 10
160.7639465913
 20
32.287045381
 11
160.7639465913
 21
36.0575371843
  0
LINE
  5
25E
100
AcDbEntity
  8
0
100
AcDbLine
 62
7
  6
CONTINUOUS
 10
153.8220663581
 20
31.3871500027
 11
153.7642540786
 21
31.3226226299
  0
LINE
  5
25F
100
AcDbEntity
  8
0
100
AcDbLine
 62
7
  6
CONTINUOUS
 10
150.7001914408
 20
31.3548863163
 11
150.8736290235
 21
31.2903589434
  0
LINE
  5
260
100
AcDbEntity
  8
0
100
AcDbLine
 62
7
  6
CONTINUOUS
 10
155.4408164683
 20
31.3548863163
 11
155.3251912478
 21
31.4194136891
  0
LINE
  5
261
100
AcDbEntity
  8
0
100
AcDbLine
 62
7
  6
CONTINUOUS
 10
159.2564414683
 20
31.1935678842
 11
159.1986291889
 21
31.258095257
  0
LINE
  5
262
100
AcDbEntity
  8
0
100
AcDbLine
 62
7
  6
CONTINUOUS
 10
160.4126916889
 20
30.8064036019
 11
160.4705039683
 21
30.7418762065
  0
LINE
  5
263
100
AcDbEntity
  8
0
100
AcDbLine
 62
7
  6
CONTINUOUS
 10
160.7595660273
 20
30.7418762065
 11
160.6439414683
 21
30.8709309748
  0
LINE
  5
264
100
AcDbEntity
  8
0
100
AcDbLine
 62
7
  6
CONTINUOUS
 10
160.4126916889
 20
31.3226226299
 11
160.4705039683
 21
31.258095257
  0
LINE
  5
265
100
AcDbEntity
  8
0
100
AcDbLine
 62
7
  6
CONTINUOUS
 10
160.7595660273
 20
31.258095257
 11
160.6439414683
 21
31.3871500027
  0
LINE
  5
266
100
AcDbEntity
  8
0
100
AcDbLine
 62
7
  6
CONTINUOUS
 10
154.0533164683
 20
31.258095257
 11
154.1111290786
 21
31.3226226299
  0
LINE
  5
267
100
AcDbEntity
  8
0
100
AcDbLine
 62
7
  6
CONTINUOUS
 10
153.8798789683
 20
30.9999857205
 11
153.7642540786
 21
30.8709309748
  0
LINE
  5
268
100
AcDbEntity
  8
0
100
AcDbLine
 62
7
  6
CONTINUOUS
 10
155.2095666889
 20
30.8386672883
 11
155.1517537478
 21
30.7741399155
  0
LINE
  5
269
100
AcDbEntity
  8
0
100
AcDbLine
 62
7
  6
CONTINUOUS
 10
155.1517537478
 20
30.5805577631
 11
155.2095666889
 21
30.6450851472
  0
LINE
  5
26A
100
AcDbEntity
  8
0
100
AcDbLine
 62
7
  6
CONTINUOUS
 10
153.9955038581
 20
30.548294071
 11
154.1111290786
 21
30.5160303817
  0
LINE
  5
26B
100
AcDbEntity
  8
0
100
AcDbLine
 62
7
  6
CONTINUOUS
 10
150.9892539132
 20
31.4194136891
 11
150.7580039683
 21
31.483941062
  0
LINE
  5
26C
100
AcDbEntity
  8
0
100
AcDbLine
 62
7
  6
CONTINUOUS
 10
154.3423788581
 20
30.6128214495
 11
154.1111290786
 21
30.6773488336
  0
LINE
  5
26D
100
AcDbEntity
  8
0
100
AcDbLine
 62
7
  6
CONTINUOUS
 10
153.0705040786
 20
31.4194136891
 11
152.8970665786
 21
31.483941062
  0
LINE
  5
26E
100
AcDbEntity
  8
0
100
AcDbLine
 62
7
  6
CONTINUOUS
 10
155.3251912478
 20
31.4194136891
 11
155.1517537478
 21
31.483941062
  0
LINE
  5
26F
100
AcDbEntity
  8
0
100
AcDbLine
 62
7
  6
CONTINUOUS
 10
157.9845666889
 20
31.3226226299
 11
158.1001912478
 21
31.258095257
  0
LINE
  5
270
100
AcDbEntity
  8
0
100
AcDbLine
 62
7
  6
CONTINUOUS
 10
158.3314416889
 20
31.3548863163
 11
158.2158164683
 21
31.4194136891
  0
LINE
  5
271
100
AcDbEntity
  8
0
100
AcDbLine
 62
7
  6
CONTINUOUS
 10
149.8330039821
 20
30.548294071
 11
150.0064414821
 21
30.5160303817
  0
LINE
  5
272
100
AcDbEntity
  8
0
100
AcDbLine
 62
7
  6
CONTINUOUS
 10
150.2955039959
 20
30.6128214495
 11
149.9486289546
 21
30.6773488336
  0
LINE
  5
273
100
AcDbEntity
  8
0
100
AcDbLine
 62
7
  6
CONTINUOUS
 10
152.7236290786
 20
31.3548863163
 11
152.8392539683
 21
31.3226226299
  0
LINE
  5
274
100
AcDbEntity
  8
0
100
AcDbLine
 62
7
  6
CONTINUOUS
 10
155.0361291889
 20
31.3548863163
 11
155.1517537478
 21
31.3226226299
  0
LINE
  5
275
100
AcDbEntity
  8
0
100
AcDbLine
 62
7
  6
CONTINUOUS
 10
159.3720666889
 20
30.6450851472
 11
159.2564414683
 21
30.6773488336
  0
LINE
  5
276
100
AcDbEntity
  8
0
100
AcDbLine
 62
7
  6
CONTINUOUS
 10
157.8689414683
 20
31.3548863163
 11
157.9845666889
 21
31.3226226299
  0
LINE
  5
277
100
AcDbEntity
  8
0
100
AcDbLine
 62
7
  6
CONTINUOUS
 10
159.0251916889
 20
30.6128214495
 11
159.1986291889
 21
30.548294071
  0
LINE
  5
278
100
AcDbEntity
  8
0
100
AcDbLine
 62
7
  6
CONTINUOUS
 10
158.2158164683
 20
31.4194136891
 11
158.0423789683
 21
31.483941062
  0
LINE
  5
279
100
AcDbEntity
  8
0
100
AcDbLine
 62
7
  6
CONTINUOUS
 10
159.4298789683
 20
31.1290405113
 11
159.2564414683
 21
31.1935678842
  0
LINE
  5
27A
100
AcDbEntity
  8
0
100
AcDbLine
 62
7
  6
CONTINUOUS
 10
160.2392541889
 20
30.8709309748
 11
160.4126916889
 21
30.8064036019
  0
LINE
  5
27B
100
AcDbEntity
  8
0
100
AcDbLine
 62
7
  6
CONTINUOUS
 10
160.6439414683
 20
31.3871500027
 11
160.4705039683
 21
31.4516773756
  0
LINE
  5
27C
100
AcDbEntity
  8
0
100
AcDbLine
 62
7
  6
CONTINUOUS
 10
159.0251916889
 20
31.1290405113
 11
159.2564414683
 21
31.0322494069
  0
LINE
  5
27D
100
AcDbEntity
  8
0
100
AcDbLine
 62
7
  6
CONTINUOUS
 10
160.6439414683
 20
30.8709309748
 11
160.4126916889
 21
30.967722034
  0
LINE
  5
27E
100
AcDbEntity
  8
0
100
AcDbLine
 62
7
  6
CONTINUOUS
 10
159.1986291889
 20
31.258095257
 11
159.2564414683
 21
31.3226226299
  0
LINE
  5
27F
100
AcDbEntity
  8
0
100
AcDbLine
 62
7
  6
CONTINUOUS
 10
149.6595664615
 20
31.3871500027
 11
149.5439414683
 21
31.3226226299
  0
LINE
  5
280
100
AcDbEntity
  8
0
100
AcDbLine
 62
7
  6
CONTINUOUS
 10
149.7751914546
 20
31.2258315706
 11
149.9486289546
 21
31.3226226299
  0
LINE
  5
281
100
AcDbEntity
  8
0
100
AcDbLine
 62
7
  6
CONTINUOUS
 10
152.0876915235
 20
31.4194136891
 11
151.9720664683
 21
31.3548863163
  0
LINE
  5
282
100
AcDbEntity
  8
0
100
AcDbLine
 62
7
  6
CONTINUOUS
 10
151.9720664683
 20
31.2258315706
 11
152.0876915235
 21
31.2903589434
  0
LINE
  5
283
100
AcDbEntity
  8
0
100
AcDbLine
 62
7
  6
CONTINUOUS
 10
150.9892539132
 20
30.5805577631
 11
151.1626914132
 21
30.6773488336
  0
LINE
  5
284
100
AcDbEntity
  8
0
100
AcDbLine
 62
7
  6
CONTINUOUS
 10
150.0064414821
 20
30.5160303817
 11
150.3533164408
 21
30.4837666925
  0
LINE
  5
285
100
AcDbEntity
  8
0
100
AcDbLine
 62
7
  6
CONTINUOUS
 10
154.1111290786
 20
30.5160303817
 11
154.3423788581
 21
30.4837666925
  0
LINE
  5
286
100
AcDbEntity
  8
0
100
AcDbLine
 62
7
  6
CONTINUOUS
 10
152.4923789683
 20
31.3871500027
 11
152.7236290786
 21
31.3548863163
  0
LINE
  5
287
100
AcDbEntity
  8
0
100
AcDbLine
 62
7
  6
CONTINUOUS
 10
154.8048790786
 20
31.3871500027
 11
155.0361291889
 21
31.3548863163
  0
LINE
  5
288
100
AcDbEntity
  8
0
100
AcDbLine
 62
7
  6
CONTINUOUS
 10
159.2564414683
 20
31.0322494069
 11
160.2392541889
 21
30.8709309748
  0
LINE
  5
289
100
AcDbEntity
  8
0
100
AcDbLine
 62
7
  6
CONTINUOUS
 10
160.4126916889
 20
30.967722034
 11
159.4298789683
 21
31.1290405113
  0
LINE
  5
28A
100
AcDbEntity
  8
0
100
AcDbLine
 62
7
  6
CONTINUOUS
 10
152.8970665786
 20
31.483941062
 11
152.7236290786
 21
31.5162047484
  0
LINE
  5
28B
100
AcDbEntity
  8
0
100
AcDbLine
 62
7
  6
CONTINUOUS
 10
159.1986291889
 20
30.548294071
 11
159.3720666889
 21
30.5160303817
  0
LINE
  5
28C
100
AcDbEntity
  8
0
100
AcDbLine
 62
7
  6
CONTINUOUS
 10
158.0423789683
 20
31.483941062
 11
157.8689414683
 21
31.5162047484
  0
LINE
  5
28D
100
AcDbEntity
  8
0
100
AcDbLine
 62
7
  6
CONTINUOUS
 10
160.2970664683
 20
31.3548863163
 11
160.4126916889
 21
31.3226226299
  0
LINE
  5
28E
100
AcDbEntity
  8
0
100
AcDbLine
 62
7
  6
CONTINUOUS
 10
160.4705039683
 20
30.7418762065
 11
160.4126916889
 21
30.6773488336
  0
LINE
  5
28F
100
AcDbEntity
  8
0
100
AcDbLine
 62
7
  6
CONTINUOUS
 10
159.0251916889
 20
31.4194136891
 11
158.9095664683
 21
31.3226226299
  0
LINE
  5
290
100
AcDbEntity
  8
0
100
AcDbLine
 62
7
  6
CONTINUOUS
 10
153.9376915786
 20
31.4516773756
 11
153.8220663581
 21
31.3871500027
  0
LINE
  5
291
100
AcDbEntity
  8
0
100
AcDbLine
 62
7
  6
CONTINUOUS
 10
153.9955038581
 20
31.0645131385
 11
153.8798789683
 21
30.9999857205
  0
LINE
  5
292
100
AcDbEntity
  8
0
100
AcDbLine
 62
7
  6
CONTINUOUS
 10
154.1111290786
 20
30.9031946612
 11
154.2267539683
 21
30.967722034
  0
LINE
  5
293
100
AcDbEntity
  8
0
100
AcDbLine
 62
7
  6
CONTINUOUS
 10
151.6830039132
 20
30.4837666925
 11
151.9720664683
 21
30.4837666925
  0
LINE
  5
294
100
AcDbEntity
  8
0
100
AcDbLine
 62
7
  6
CONTINUOUS
 10
153.0126914683
 20
30.4837666925
 11
153.3017538581
 21
30.4837666925
  0
LINE
  5
295
100
AcDbEntity
  8
0
100
AcDbLine
 62
7
  6
CONTINUOUS
 10
154.3423788581
 20
30.4837666925
 11
154.6892538581
 21
30.4837666925
  0
LINE
  5
296
100
AcDbEntity
  8
0
100
AcDbLine
 62
7
  6
CONTINUOUS
 10
155.3251912478
 20
30.4837666925
 11
155.6142539683
 21
30.4837666925
  0
LINE
  5
297
100
AcDbEntity
  8
0
100
AcDbLine
 62
7
  6
CONTINUOUS
 10
156.0767541889
 20
30.4837666925
 11
156.3658162478
 21
30.4837666925
  0
LINE
  5
298
100
AcDbEntity
  8
0
100
AcDbLine
 62
7
  6
CONTINUOUS
 10
156.8283164683
 20
30.4837666925
 11
157.1173791889
 21
30.4837666925
  0
LINE
  5
299
100
AcDbEntity
  8
0
100
AcDbLine
 62
7
  6
CONTINUOUS
 10
158.1580041889
 20
30.4837666925
 11
158.4470662478
 21
30.4837666925
  0
LINE
  5
29A
100
AcDbEntity
  8
0
100
AcDbLine
 62
7
  6
CONTINUOUS
 10
159.7189416889
 20
30.4837666925
 11
160.0658166889
 21
30.4837666925
  0
LINE
  5
29B
100
AcDbEntity
  8
0
100
AcDbLine
 62
7
  6
CONTINUOUS
 10
160.0658166889
 20
30.6128214495
 11
159.7189416889
 21
30.6128214495
  0
LINE
  5
29C
100
AcDbEntity
  8
0
100
AcDbLine
 62
7
  6
CONTINUOUS
 10
154.6892538581
 20
30.6128214495
 11
154.3423788581
 21
30.6128214495
  0
LINE
  5
29D
100
AcDbEntity
  8
0
100
AcDbLine
 62
7
  6
CONTINUOUS
 10
159.1986291889
 20
30.7418762065
 11
158.9095664683
 21
30.7418762065
  0
LINE
  5
29E
100
AcDbEntity
  8
0
100
AcDbLine
 62
7
  6
CONTINUOUS
 10
151.2205040235
 20
30.8064036019
 11
150.9314414683
 21
30.8064036019
  0
LINE
  5
29F
100
AcDbEntity
  8
0
100
AcDbLine
 62
7
  6
CONTINUOUS
 10
150.2955039959
 20
31.3871500027
 11
150.7001914408
 21
31.3548863163
  0
LINE
  5
2A0
100
AcDbEntity
  8
0
100
AcDbLine
 62
7
  6
CONTINUOUS
 10
150.7580039683
 20
31.483941062
 11
150.3533164408
 21
31.5162047484
  0
LINE
  5
2A1
100
AcDbEntity
  8
0
100
AcDbLine
 62
7
  6
CONTINUOUS
 10
159.3720666889
 20
30.5160303817
 11
159.7189416889
 21
30.4837666925
  0
LINE
  5
2A2
100
AcDbEntity
  8
0
100
AcDbLine
 62
7
  6
CONTINUOUS
 10
159.7189416889
 20
30.6128214495
 11
159.3720666889
 21
30.6450851472
  0
LINE
  5
2A3
100
AcDbEntity
  8
0
100
AcDbLine
 62
7
  6
CONTINUOUS
 10
155.1517537478
 20
31.483941062
 11
154.8048790786
 21
31.5162047484
  0
LINE
  5
2A4
100
AcDbEntity
  8
0
100
AcDbLine
 62
7
  6
CONTINUOUS
 10
159.9501914683
 20
31.3871500027
 11
160.2970664683
 21
31.3548863163
  0
LINE
  5
2A5
100
AcDbEntity
  8
0
100
AcDbLine
 62
7
  6
CONTINUOUS
 10
160.2970664683
 20
31.483941062
 11
159.9501914683
 21
31.5162047484
  0
LINE
  5
2A6
100
AcDbEntity
  8
0
100
AcDbLine
 62
7
  6
CONTINUOUS
 10
157.6376916889
 20
31.3871500027
 11
157.8689414683
 21
31.3548863163
  0
LINE
  5
2A7
100
AcDbEntity
  8
0
100
AcDbLine
 62
7
  6
CONTINUOUS
 10
160.4705039683
 20
31.4516773756
 11
160.2970664683
 21
31.483941062
  0
LINE
  5
2A8
100
AcDbEntity
  8
0
100
AcDbLine
 62
7
  6
CONTINUOUS
 10
160.6439414683
 20
30.5805577631
 11
160.7595660273
 21
30.6773488336
  0
LINE
  5
2A9
100
AcDbEntity
  8
0
100
AcDbLine
 62
7
  6
CONTINUOUS
 10
155.1517537478
 20
30.7741399155
 11
154.9783162478
 21
30.6773488336
  0
LINE
  5
2AA
100
AcDbEntity
  8
0
100
AcDbLine
 62
7
  6
CONTINUOUS
 10
157.2330037478
 20
31.4194136891
 11
157.1173791889
 21
31.3548863163
  0
LINE
  5
2AB
100
AcDbEntity
  8
0
100
AcDbLine
 62
7
  6
CONTINUOUS
 10
157.1173791889
 20
31.2258315706
 11
157.2330037478
 21
31.2903589434
  0
LINE
  5
2AC
100
AcDbEntity
  8
0
100
AcDbLine
 62
7
  6
CONTINUOUS
 10
149.8330039821
 20
31.4516773756
 11
149.6595664615
 21
31.3871500027
  0
LINE
  5
2AD
100
AcDbEntity
  8
0
100
AcDbLine
 62
7
  6
CONTINUOUS
 10
152.2611288581
 20
31.483941062
 11
152.0876915235
 21
31.4194136891
  0
LINE
  5
2AE
100
AcDbEntity
  8
0
100
AcDbLine
 62
7
  6
CONTINUOUS
 10
152.0876915235
 20
31.2903589434
 11
152.2611288581
 21
31.3548863163
  0
LINE
  5
2AF
100
AcDbEntity
  8
0
100
AcDbLine
 62
7
  6
CONTINUOUS
 10
150.8736290235
 20
30.7096125201
 11
150.7001914408
 21
30.6450851472
  0
LINE
  5
2B0
100
AcDbEntity
  8
0
100
AcDbLine
 62
7
  6
CONTINUOUS
 10
160.2970664683
 20
30.6450851472
 11
160.0658166889
 21
30.6128214495
  0
LINE
  5
2B1
100
AcDbEntity
  8
0
100
AcDbLine
 62
7
  6
CONTINUOUS
 10
154.6892538581
 20
30.4837666925
 11
154.9783162478
 21
30.5160303817
  0
LINE
  5
2B2
100
AcDbEntity
  8
0
100
AcDbLine
 62
7
  6
CONTINUOUS
 10
160.0658166889
 20
30.4837666925
 11
160.4126916889
 21
30.5160303817
  0
LINE
  5
2B3
100
AcDbEntity
  8
0
100
AcDbLine
 62
7
  6
CONTINUOUS
 10
150.3533164408
 20
30.4837666925
 11
150.7580039683
 21
30.5160303817
  0
LINE
  5
2B4
100
AcDbEntity
  8
0
100
AcDbLine
 62
7
  6
CONTINUOUS
 10
150.7001914408
 20
30.6450851472
 11
150.2955039959
 21
30.6128214495
  0
LINE
  5
2B5
100
AcDbEntity
  8
0
100
AcDbLine
 62
7
  6
CONTINUOUS
 10
154.5736289683
 20
31.0322494069
 11
155.2095666889
 21
31.0322494069
  0
LINE
  5
2B6
100
AcDbEntity
  8
0
100
AcDbLine
 62
7
  6
CONTINUOUS
 10
155.2095666889
 20
31.1613041978
 11
154.5736289683
 21
31.1613041978
  0
LINE
  5
2B7
100
AcDbEntity
  8
0
100
AcDbLine
 62
7
  6
CONTINUOUS
 10
150.9314414683
 20
31.1935678842
 11
151.2205040235
 21
31.1935678842
  0
LINE
  5
2B8
100
AcDbEntity
  8
0
100
AcDbLine
 62
7
  6
CONTINUOUS
 10
153.7642540786
 20
31.258095257
 11
154.0533164683
 21
31.258095257
  0
LINE
  5
2B9
100
AcDbEntity
  8
0
100
AcDbLine
 62
7
  6
CONTINUOUS
 10
160.4705039683
 20
31.258095257
 11
160.7595660273
 21
31.258095257
  0
LINE
  5
2BA
100
AcDbEntity
  8
0
100
AcDbLine
 62
7
  6
CONTINUOUS
 10
154.4580040786
 20
31.3871500027
 11
154.8048790786
 21
31.3871500027
  0
LINE
  5
2BB
100
AcDbEntity
  8
0
100
AcDbLine
 62
7
  6
CONTINUOUS
 10
159.6033164683
 20
31.3871500027
 11
159.9501914683
 21
31.3871500027
  0
LINE
  5
2BC
100
AcDbEntity
  8
0
100
AcDbLine
 62
7
  6
CONTINUOUS
 10
159.9501914683
 20
31.5162047484
 11
159.6033164683
 21
31.5162047484
  0
LINE
  5
2BD
100
AcDbEntity
  8
0
100
AcDbLine
 62
7
  6
CONTINUOUS
 10
157.8689414683
 20
31.5162047484
 11
157.6376916889
 21
31.5162047484
  0
LINE
  5
2BE
100
AcDbEntity
  8
0
100
AcDbLine
 62
7
  6
CONTINUOUS
 10
157.1173791889
 20
31.5162047484
 11
156.8283164683
 21
31.5162047484
  0
LINE
  5
2BF
100
AcDbEntity
  8
0
100
AcDbLine
 62
7
  6
CONTINUOUS
 10
156.3658162478
 20
31.5162047484
 11
156.0767541889
 21
31.5162047484
  0
LINE
  5
2C0
100
AcDbEntity
  8
0
100
AcDbLine
 62
7
  6
CONTINUOUS
 10
154.8048790786
 20
31.5162047484
 11
154.4580040786
 21
31.5162047484
  0
LINE
  5
2C1
100
AcDbEntity
  8
0
100
AcDbLine
 62
7
  6
CONTINUOUS
 10
152.7236290786
 20
31.5162047484
 11
152.4923789683
 21
31.5162047484
  0
LINE
  5
2C2
100
AcDbEntity
  8
0
100
AcDbLine
 62
7
  6
CONTINUOUS
 10
156.0767541889
 20
31.838841703
 11
156.3658162478
 21
31.838841703
  0
LINE
  5
2C3
100
AcDbEntity
  8
0
100
AcDbLine
 62
7
  6
CONTINUOUS
 10
156.3658162478
 20
32.0001601351
 11
156.0767541889
 21
32.0001601351
  0
LINE
  5
2C4
100
AcDbEntity
  8
0
100
AcDbLine
 62
7
  6
CONTINUOUS
 10
151.9720664683
 20
32.0001601351
 11
151.6830039132
 21
32.0001601351
  0
LINE
  5
2C5
100
AcDbEntity
  8
0
100
AcDbLine
 62
7
  6
CONTINUOUS
 10
151.0098482306
 20
32.287045381
 11
151.4224195792
 21
32.287045381
  0
LINE
  5
2C6
100
AcDbEntity
  8
0
100
AcDbLine
 62
7
  6
CONTINUOUS
 10
152.6491924929
 20
32.287045381
 11
154.0426351159
 21
32.287045381
  0
LINE
  5
2C7
100
AcDbEntity
  8
0
100
AcDbLine
 62
7
  6
CONTINUOUS
 10
154.3705039683
 20
32.287045381
 11
155.7639465913
 21
32.287045381
  0
LINE
  5
2C8
100
AcDbEntity
  8
0
100
AcDbLine
 62
7
  6
CONTINUOUS
 10
157.6491924929
 20
32.287045381
 11
159.0426351159
 21
32.287045381
  0
LINE
  5
2C9
100
AcDbEntity
  8
0
100
AcDbLine
 62
7
  6
CONTINUOUS
 10
159.3705039683
 20
32.287045381
 11
160.7639465913
 21
32.287045381
  0
LINE
  5
2CA
100
AcDbEntity
  8
0
100
AcDbLine
 62
7
  6
CONTINUOUS
 10
157.4064412478
 20
31.483941062
 11
157.2330037478
 21
31.4194136891
  0
LINE
  5
2CB
100
AcDbEntity
  8
0
100
AcDbLine
 62
7
  6
CONTINUOUS
 10
154.9783162478
 20
30.5160303817
 11
155.1517537478
 21
30.5805577631
  0
LINE
  5
2CC
100
AcDbEntity
  8
0
100
AcDbLine
 62
7
  6
CONTINUOUS
 10
160.4126916889
 20
30.5160303817
 11
160.6439414683
 21
30.5805577631
  0
LINE
  5
2CD
100
AcDbEntity
  8
0
100
AcDbLine
 62
7
  6
CONTINUOUS
 10
160.4126916889
 20
30.6773488336
 11
160.2970664683
 21
30.6450851472
  0
LINE
  5
2CE
100
AcDbEntity
  8
0
100
AcDbLine
 62
7
  6
CONTINUOUS
 10
159.3720666889
 20
31.3548863163
 11
159.6033164683
 21
31.3871500027
  0
LINE
  5
2CF
100
AcDbEntity
  8
0
100
AcDbLine
 62
7
  6
CONTINUOUS
 10
157.4064412478
 20
31.3548863163
 11
157.6376916889
 21
31.3871500027
  0
LINE
  5
2D0
100
AcDbEntity
  8
0
100
AcDbLine
 62
7
  6
CONTINUOUS
 10
154.3423788581
 20
30.9999857205
 11
154.5736289683
 21
31.0322494069
  0
LINE
  5
2D1
100
AcDbEntity
  8
0
100
AcDbLine
 62
7
  6
CONTINUOUS
 10
157.6376916889
 20
31.5162047484
 11
157.4064412478
 21
31.483941062
  0
LINE
  5
2D2
100
AcDbEntity
  8
0
100
AcDbLine
 62
7
  6
CONTINUOUS
 10
154.2267539683
 20
31.3548863163
 11
154.4580040786
 21
31.3871500027
  0
LINE
  5
2D3
100
AcDbEntity
  8
0
100
AcDbLine
 62
7
  6
CONTINUOUS
 10
159.6033164683
 20
31.5162047484
 11
159.2564414683
 21
31.483941062
  0
LINE
  5
2D4
100
AcDbEntity
  8
0
100
AcDbLine
 62
7
  6
CONTINUOUS
 10
154.5736289683
 20
31.1613041978
 11
154.2267539683
 21
31.1290405113
  0
LINE
  5
2D5
100
AcDbEntity
  8
0
100
AcDbLine
 62
7
  6
CONTINUOUS
 10
150.3533164408
 20
31.5162047484
 11
150.0064414821
 21
31.483941062
  0
LINE
  5
2D6
100
AcDbEntity
  8
0
100
AcDbLine
 62
7
  6
CONTINUOUS
 10
154.4580040786
 20
31.5162047484
 11
154.0533164683
 21
31.483941062
  0
LINE
  5
2D7
100
AcDbEntity
  8
0
100
AcDbLine
 62
7
  6
CONTINUOUS
 10
151.8295203618
 20
33.4345863646
 11
151.1737826569
 21
33.4345863646
  0
LINE
  5
2D8
100
AcDbEntity
  8
0
100
AcDbLine
 62
7
  6
CONTINUOUS
 10
157.2330037478
 20
31.2903589434
 11
157.4064412478
 21
31.3548863163
  0
LINE
  5
2D9
100
AcDbEntity
  8
0
100
AcDbLine
 62
7
  6
CONTINUOUS
 10
159.2564414683
 20
31.3226226299
 11
159.3720666889
 21
31.3548863163
  0
LINE
  5
2DA
100
AcDbEntity
  8
0
100
AcDbLine
 62
7
  6
CONTINUOUS
 10
159.2564414683
 20
31.483941062
 11
159.0251916889
 21
31.4194136891
  0
LINE
  5
2DB
100
AcDbEntity
  8
0
100
AcDbLine
 62
7
  6
CONTINUOUS
 10
154.9783162478
 20
30.6773488336
 11
154.6892538581
 21
30.6128214495
  0
LINE
  5
2DC
100
AcDbEntity
  8
0
100
AcDbLine
 62
7
  6
CONTINUOUS
 10
152.2611288581
 20
31.3548863163
 11
152.4923789683
 21
31.3871500027
  0
LINE
  5
2DD
100
AcDbEntity
  8
0
100
AcDbLine
 62
7
  6
CONTINUOUS
 10
152.4923789683
 20
31.5162047484
 11
152.2611288581
 21
31.483941062
  0
LINE
  5
2DE
100
AcDbEntity
  8
0
100
AcDbLine
 62
7
  6
CONTINUOUS
 10
150.0642539683
 20
31.3548863163
 11
150.2955039959
 21
31.3871500027
  0
LINE
  5
2DF
100
AcDbEntity
  8
0
100
AcDbLine
 62
7
  6
CONTINUOUS
 10
156.5836187224
 20
34.9099962007
 11
157.2393564274
 21
34.9099962007
  0
LINE
  5
2E0
100
AcDbEntity
  8
0
100
AcDbLine
 62
7
  6
CONTINUOUS
 10
154.2267539683
 20
30.967722034
 11
154.3423788581
 21
30.9999857205
  0
LINE
  5
2E1
100
AcDbEntity
  8
0
100
AcDbLine
 62
7
  6
CONTINUOUS
 10
154.2267539683
 20
31.1290405113
 11
153.9955038581
 21
31.0645131385
  0
LINE
  5
2E2
100
AcDbEntity
  8
0
100
AcDbLine
 62
7
  6
CONTINUOUS
 10
154.1111290786
 20
31.3226226299
 11
154.2267539683
 21
31.3548863163
  0
LINE
  5
2E3
100
AcDbEntity
  8
0
100
AcDbLine
 62
7
  6
CONTINUOUS
 10
150.7580039683
 20
30.5160303817
 11
150.9892539132
 21
30.5805577631
  0
LINE
  5
2E4
100
AcDbEntity
  8
0
100
AcDbLine
 62
7
  6
CONTINUOUS
 10
154.0533164683
 20
31.483941062
 11
153.9376915786
 21
31.4516773756
  0
LINE
  5
2E5
100
AcDbEntity
  8
0
100
AcDbLine
 62
7
  6
CONTINUOUS
 10
150.0064414821
 20
31.483941062
 11
149.8330039821
 21
31.4516773756
  0
LINE
  5
2E6
100
AcDbEntity
  8
0
100
AcDbLine
 62
7
  6
CONTINUOUS
 10
160.7639465913
 20
36.0575371843
 11
159.3705039683
 21
36.0575371843
  0
LINE
  5
2E7
100
AcDbEntity
  8
0
100
AcDbLine
 62
7
  6
CONTINUOUS
 10
157.4032908536
 20
36.0575371843
 11
156.990719505
 21
36.0575371843
  0
LINE
  5
2E8
100
AcDbEntity
  8
0
100
AcDbLine
 62
7
  6
CONTINUOUS
 10
155.7639465913
 20
36.0575371843
 11
154.3705039683
 21
36.0575371843
  0
LINE
  5
2E9
100
AcDbEntity
  8
0
100
AcDbLine
 62
7
  6
CONTINUOUS
 10
154.0426351159
 20
36.0575371843
 11
152.6491924929
 21
36.0575371843
  0
LINE
  5
2EA
100
AcDbEntity
  8
0
100
AcDbLine
 62
7
  6
CONTINUOUS
 10
150.7639465913
 20
36.0575371843
 11
149.3705039683
 21
36.0575371843
  0
LINE
  5
2EB
100
AcDbEntity
  8
0
100
AcDbLine
 62
7
  6
CONTINUOUS
 10
149.9486289546
 20
31.3226226299
 11
150.0642539683
 21
31.3548863163
  0
CIRCLE
  5
2EC
100
AcDbEntity
  8
0
100
AcDbCircle
 62
7
  6
CONTINUOUS
 10
160.0672252798
 20
38.3936027581
 40
2.0901639344
  0
ARC
  5
2ED
100
AcDbEntity
  8
0
100
AcDbCircle
 62
7
  6
CONTINUOUS
 10
151.0098482306
 20
33.9263896433
 40
1.6393442623
100
AcDbArc
 50
180.0
 51
270.0
  0
ARC
  5
2EE
100
AcDbEntity
  8
0
100
AcDbCircle
 62
7
  6
CONTINUOUS
 10
157.4032908536
 20
34.418192922
 40
1.6393442623
100
AcDbArc
 50
0.0
 51
90.0
  0
ARC
  5
2EF
100
AcDbEntity
  8
0
100
AcDbCircle
 62
7
  6
CONTINUOUS
 10
151.4224195792
 20
33.7624552171
 40
1.4754098361
100
AcDbArc
 50
270.0
 51
326.2510114041
  0
ARC
  5
2F0
100
AcDbEntity
  8
0
100
AcDbCircle
 62
7
  6
CONTINUOUS
 10
156.990719505
 20
34.5821273482
 40
1.4754098361
100
AcDbArc
 50
90.0
 51
146.2510114041
  0
ARC
  5
2F1
100
AcDbEntity
  8
0
100
AcDbCircle
 62
7
  6
CONTINUOUS
 10
151.8295203618
 20
34.2542584958
 40
0.8196721311
100
AcDbArc
 50
270.0
 51
360.0
  0
ARC
  5
2F2
100
AcDbEntity
  8
0
100
AcDbCircle
 62
7
  6
CONTINUOUS
 10
156.5836187224
 20
34.0903240696
 40
0.8196721311
100
AcDbArc
 50
90.0
 51
180.0
  0
ARC
  5
2F3
100
AcDbEntity
  8
0
100
AcDbCircle
 62
7
  6
CONTINUOUS
 10
151.1737826569
 20
33.8444224302
 40
0.4098360656
100
AcDbArc
 50
180.0
 51
270.0
  0
ARC
  5
2F4
100
AcDbEntity
  8
0
100
AcDbCircle
 62
7
  6
CONTINUOUS
 10
157.2393564274
 20
34.5001601351
 40
0.4098360656
100
AcDbArc
 50
0.0
 51
90.0
  0
SOLID
  5
2F5
100
AcDbEntity
  8
0
100
AcDbTrace
 62
7
  6
CONTINUOUS
 10
156.0767541889
 20
31.8388420633
 11
156.0767541889
 21
32.0001605469
 12
156.3658162478
 22
31.8388420633
 13
156.3658162478
 23
32.0001605469
  0
LWPOLYLINE
  5
2F6
100
AcDbEntity
  8
0
100
AcDbPolyline
 62
7
  6
CONTINUOUS
 90
13
 70
0
 10
150.3533164408
 20
31.5162050961
 10
150.7580039683
 20
31.4839407928
 10
150.9892539132
 20
31.4194137026
 10
151.1626914132
 20
31.3226223092
 10
151.2205040235
 20
31.1935681288
 10
150.9314414683
 20
31.1935681288
 10
150.8736290235
 20
31.2903595223
 10
150.7001914408
 20
31.3548866125
 10
150.2955039959
 20
31.3871493993
 10
149.6595664615
 20
31.3871493993
 10
149.8330039821
 20
31.4516780059
 10
150.0064414821
 20
31.4839407928
 10
150.3533164408
 20
31.5162050961
  0
HATCH
  5
2F7
100
AcDbEntity
  8
0
100
AcDbHatch
 62
7
  6
CONTINUOUS
 10
0.0
 20
0.0
 30
0.0
210
0.0
220
0.0
230
1.0
  2
SOLID
 70
1
 71
1
 91
1
 92
1
 93
12
 72
1
 10
150.3533164408
 20
31.5162050961
 11
150.7580039683
 21
31.4839407928
 72
1
 10
150.7580039683
 20
31.4839407928
 11
150.9892539132
 21
31.4194137026
 72
1
 10
150.9892539132
 20
31.4194137026
 11
151.1626914132
 21
31.3226223092
 72
1
 10
151.1626914132
 20
31.3226223092
 11
151.2205040235
 21
31.1935681288
 72
1
 10
151.2205040235
 20
31.1935681288
 11
150.9314414683
 21
31.1935681288
 72
1
 10
150.9314414683
 20
31.1935681288
 11
150.8736290235
 21
31.2903595223
 72
1
 10
150.8736290235
 20
31.2903595223
 11
150.7001914408
 21
31.3548866125
 72
1
 10
150.7001914408
 20
31.3548866125
 11
150.2955039959
 21
31.3871493993
 72
1
 10
150.2955039959
 20
31.3871493993
 11
149.6595664615
 21
31.3871493993
 72
1
 10
149.6595664615
 20
31.3871493993
 11
149.8330039821
 21
31.4516780059
 72
1
 10
149.8330039821
 20
31.4516780059
 11
150.0064414821
 21
31.4839407928
 72
1
 10
150.0064414821
 20
31.4839407928
 11
150.3533164408
 21
31.5162050961
 97
1
330
2F6
 75
0
 76
1
 98
1
 10
0.0
 20
0.0
  0
LWPOLYLINE
  5
2F8
100
AcDbEntity
  8
0
100
AcDbPolyline
 62
7
  6
CONTINUOUS
 90
25
 70
0
 10
152.2611288581
 20
31.4839407928
 10
152.4923789683
 20
31.5162050961
 10
152.7236290786
 20
31.5162050961
 10
152.8970665786
 20
31.4839407928
 10
153.0705040786
 20
31.4194137026
 10
153.1861289683
 20
31.3548866125
 10
153.2439415786
 20
31.2903595223
 10
153.3017538581
 20
31.1290410387
 10
153.3017538581
 20
30.4837671043
 10
153.0126914683
 20
30.4837671043
 10
153.0126914683
 20
31.1290410387
 10
152.9548788581
 20
31.258095219
 10
152.8392539683
 20
31.3226223092
 10
152.7236290786
 20
31.3548866125
 10
152.4923789683
 20
31.3871493993
 10
152.2611288581
 20
31.3548866125
 10
152.0876915235
 20
31.2903595223
 10
151.9720664683
 20
31.2258309157
 10
151.9720664683
 20
30.4837671043
 10
151.6830039132
 20
30.4837671043
 10
151.6830039132
 20
32.0001605469
 10
151.9720664683
 20
32.0001605469
 10
151.9720664683
 20
31.3548866125
 10
152.0876915235
 20
31.4194137026
 10
152.2611288581
 20
31.4839407928
  0
HATCH
  5
2F9
100
AcDbEntity
  8
0
100
AcDbHatch
 62
7
  6
CONTINUOUS
 10
0.0
 20
0.0
 30
0.0
210
0.0
220
0.0
230
1.0
  2
SOLID
 70
1
 71
1
 91
1
 92
1
 93
24
 72
1
 10
152.2611288581
 20
31.4839407928
 11
152.4923789683
 21
31.5162050961
 72
1
 10
152.4923789683
 20
31.5162050961
 11
152.7236290786
 21
31.5162050961
 72
1
 10
152.7236290786
 20
31.5162050961
 11
152.8970665786
 21
31.4839407928
 72
1
 10
152.8970665786
 20
31.4839407928
 11
153.0705040786
 21
31.4194137026
 72
1
 10
153.0705040786
 20
31.4194137026
 11
153.1861289683
 21
31.3548866125
 72
1
 10
153.1861289683
 20
31.3548866125
 11
153.2439415786
 21
31.2903595223
 72
1
 10
153.2439415786
 20
31.2903595223
 11
153.3017538581
 21
31.1290410387
 72
1
 10
153.3017538581
 20
31.1290410387
 11
153.3017538581
 21
30.4837671043
 72
1
 10
153.3017538581
 20
30.4837671043
 11
153.0126914683
 21
30.4837671043
 72
1
 10
153.0126914683
 20
30.4837671043
 11
153.0126914683
 21
31.1290410387
 72
1
 10
153.0126914683
 20
31.1290410387
 11
152.9548788581
 21
31.258095219
 72
1
 10
152.9548788581
 20
31.258095219
 11
152.8392539683
 21
31.3226223092
 72
1
 10
152.8392539683
 20
31.3226223092
 11
152.7236290786
 21
31.3548866125
 72
1
 10
152.7236290786
 20
31.3548866125
 11
152.4923789683
 21
31.3871493993
 72
1
 10
152.4923789683
 20
31.3871493993
 11
152.2611288581
 21
31.3548866125
 72
1
 10
152.2611288581
 20
31.3548866125
 11
152.0876915235
 21
31.2903595223
 72
1
 10
152.0876915235
 20
31.2903595223
 11
151.9720664683
 21
31.2258309157
 72
1
 10
151.9720664683
 20
31.2258309157
 11
151.9720664683
 21
30.4837671043
 72
1
 10
151.9720664683
 20
30.4837671043
 11
151.6830039132
 21
30.4837671043
 72
1
 10
151.6830039132
 20
30.4837671043
 11
151.6830039132
 21
32.0001605469
 72
1
 10
151.6830039132
 20
32.0001605469
 11
151.9720664683
 21
32.0001605469
 72
1
 10
151.9720664683
 20
32.0001605469
 11
151.9720664683
 21
31.3548866125
 72
1
 10
151.9720664683
 20
31.3548866125
 11
152.0876915235
 21
31.4194137026
 72
1
 10
152.0876915235
 20
31.4194137026
 11
152.2611288581
 21
31.4839407928
 97
1
330
2F8
 75
0
 76
1
 98
1
 10
0.0
 20
0.0
  0
LWPOLYLINE
  5
2FA
100
AcDbEntity
  8
0
100
AcDbPolyline
 62
7
  6
CONTINUOUS
 90
20
 70
0
 10
154.0533164683
 20
31.4839407928
 10
154.4580040786
 20
31.5162050961
 10
154.8048790786
 20
31.5162050961
 10
155.1517537478
 20
31.4839407928
 10
155.3251912478
 20
31.4194137026
 10
155.4408164683
 20
31.3548866125
 10
155.4986287478
 20
31.258095219
 10
155.4986287478
 20
30.7418754649
 10
155.2095666889
 20
30.8386672883
 10
155.2095666889
 20
31.0322496452
 10
155.2095666889
 20
31.1613038256
 10
155.2095666889
 20
31.258095219
 10
155.1517537478
 20
31.3226223092
 10
155.0361291889
 20
31.3548866125
 10
154.8048790786
 20
31.3871493993
 10
154.4580040786
 20
31.3871493993
 10
153.7642540786
 20
31.3226223092
 10
153.8220663581
 20
31.3871493993
 10
153.9376915786
 20
31.4516780059
 10
154.0533164683
 20
31.4839407928
  0
HATCH
  5
2FB
100
AcDbEntity
  8
0
100
AcDbHatch
 62
7
  6
CONTINUOUS
 10
0.0
 20
0.0
 30
0.0
210
0.0
220
0.0
230
1.0
  2
SOLID
 70
1
 71
1
 91
1
 92
1
 93
19
 72
1
 10
154.0533164683
 20
31.4839407928
 11
154.4580040786
 21
31.5162050961
 72
1
 10
154.4580040786
 20
31.5162050961
 11
154.8048790786
 21
31.5162050961
 72
1
 10
154.8048790786
 20
31.5162050961
 11
155.1517537478
 21
31.4839407928
 72
1
 10
155.1517537478
 20
31.4839407928
 11
155.3251912478
 21
31.4194137026
 72
1
 10
155.3251912478
 20
31.4194137026
 11
155.4408164683
 21
31.3548866125
 72
1
 10
155.4408164683
 20
31.3548866125
 11
155.4986287478
 21
31.258095219
 72
1
 10
155.4986287478
 20
31.258095219
 11
155.4986287478
 21
30.7418754649
 72
1
 10
155.4986287478
 20
30.7418754649
 11
155.2095666889
 21
30.8386672883
 72
1
 10
155.2095666889
 20
30.8386672883
 11
155.2095666889
 21
31.0322496452
 72
1
 10
155.2095666889
 20
31.0322496452
 11
155.2095666889
 21
31.1613038256
 72
1
 10
155.2095666889
 20
31.1613038256
 11
155.2095666889
 21
31.258095219
 72
1
 10
155.2095666889
 20
31.258095219
 11
155.1517537478
 21
31.3226223092
 72
1
 10
155.1517537478
 20
31.3226223092
 11
155.0361291889
 21
31.3548866125
 72
1
 10
155.0361291889
 20
31.3548866125
 11
154.8048790786
 21
31.3871493993
 72
1
 10
154.8048790786
 20
31.3871493993
 11
154.4580040786
 21
31.3871493993
 72
1
 10
154.4580040786
 20
31.3871493993
 11
153.7642540786
 21
31.3226223092
 72
1
 10
153.7642540786
 20
31.3226223092
 11
153.8220663581
 21
31.3871493993
 72
1
 10
153.8220663581
 20
31.3871493993
 11
153.9376915786
 21
31.4516780059
 72
1
 10
153.9376915786
 20
31.4516780059
 11
154.0533164683
 21
31.4839407928
 97
1
330
2FA
 75
0
 76
1
 98
1
 10
0.0
 20
0.0
  0
LWPOLYLINE
  5
2FC
100
AcDbEntity
  8
0
100
AcDbPolyline
 62
7
  6
CONTINUOUS
 90
25
 70
0
 10
157.4064412478
 20
31.4839407928
 10
157.6376916889
 20
31.5162050961
 10
157.8689414683
 20
31.5162050961
 10
158.0423789683
 20
31.4839407928
 10
158.2158164683
 20
31.4194137026
 10
158.3314416889
 20
31.3548866125
 10
158.3892539683
 20
31.258095219
 10
158.4470662478
 20
31.0967767354
 10
158.4470662478
 20
30.4837671043
 10
158.1580041889
 20
30.4837671043
 10
158.1580041889
 20
31.0967767354
 10
158.1001912478
 20
31.258095219
 10
157.9845666889
 20
31.3226223092
 10
157.8689414683
 20
31.3548866125
 10
157.6376916889
 20
31.3871493993
 10
157.4064412478
 20
31.3548866125
 10
157.2330037478
 20
31.2903595223
 10
157.1173791889
 20
31.2258309157
 10
157.1173791889
 20
30.4837671043
 10
156.8283164683
 20
30.4837671043
 10
156.8283164683
 20
31.5162050961
 10
157.1173791889
 20
31.5162050961
 10
157.1173791889
 20
31.3548866125
 10
157.2330037478
 20
31.4194137026
 10
157.4064412478
 20
31.4839407928
  0
HATCH
  5
2FD
100
AcDbEntity
  8
0
100
AcDbHatch
 62
7
  6
CONTINUOUS
 10
0.0
 20
0.0
 30
0.0
210
0.0
220
0.0
230
1.0
  2
SOLID
 70
1
 71
1
 91
1
 92
1
 93
24
 72
1
 10
157.4064412478
 20
31.4839407928
 11
157.6376916889
 21
31.5162050961
 72
1
 10
157.6376916889
 20
31.5162050961
 11
157.8689414683
 21
31.5162050961
 72
1
 10
157.8689414683
 20
31.5162050961
 11
158.0423789683
 21
31.4839407928
 72
1
 10
158.0423789683
 20
31.4839407928
 11
158.2158164683
 21
31.4194137026
 72
1
 10
158.2158164683
 20
31.4194137026
 11
158.3314416889
 21
31.3548866125
 72
1
 10
158.3314416889
 20
31.3548866125
 11
158.3892539683
 21
31.258095219
 72
1
 10
158.3892539683
 20
31.258095219
 11
158.4470662478
 21
31.0967767354
 72
1
 10
158.4470662478
 20
31.0967767354
 11
158.4470662478
 21
30.4837671043
 72
1
 10
158.4470662478
 20
30.4837671043
 11
158.1580041889
 21
30.4837671043
 72
1
 10
158.1580041889
 20
30.4837671043
 11
158.1580041889
 21
31.0967767354
 72
1
 10
158.1580041889
 20
31.0967767354
 11
158.1001912478
 21
31.258095219
 72
1
 10
158.1001912478
 20
31.258095219
 11
157.9845666889
 21
31.3226223092
 72
1
 10
157.9845666889
 20
31.3226223092
 11
157.8689414683
 21
31.3548866125
 72
1
 10
157.8689414683
 20
31.3548866125
 11
157.6376916889
 21
31.3871493993
 72
1
 10
157.6376916889
 20
31.3871493993
 11
157.4064412478
 21
31.3548866125
 72
1
 10
157.4064412478
 20
31.3548866125
 11
157.2330037478
 21
31.2903595223
 72
1
 10
157.2330037478
 20
31.2903595223
 11
157.1173791889
 21
31.2258309157
 72
1
 10
157.1173791889
 20
31.2258309157
 11
157.1173791889
 21
30.4837671043
 72
1
 10
157.1173791889
 20
30.4837671043
 11
156.8283164683
 21
30.4837671043
 72
1
 10
156.8283164683
 20
30.4837671043
 11
156.8283164683
 21
31.5162050961
 72
1
 10
156.8283164683
 20
31.5162050961
 11
157.1173791889
 21
31.5162050961
 72
1
 10
157.1173791889
 20
31.5162050961
 11
157.1173791889
 21
31.3548866125
 72
1
 10
157.1173791889
 20
31.3548866125
 11
157.2330037478
 21
31.4194137026
 72
1
 10
157.2330037478
 20
31.4194137026
 11
157.4064412478
 21
31.4839407928
 97
1
330
2FC
 75
0
 76
1
 98
1
 10
0.0
 20
0.0
  0
LWPOLYLINE
  5
2FE
100
AcDbEntity
  8
0
100
AcDbPolyline
 62
7
  6
CONTINUOUS
 90
6
 70
0
 10
159.2564414683
 20
31.4839407928
 10
159.6033164683
 20
31.5162050961
 10
159.9501914683
 20
31.5162050961
 10
160.2970664683
 20
31.4839407928
 10
159.0251916889
 20
31.4194137026
 10
159.2564414683
 20
31.4839407928
  0
HATCH
  5
2FF
100
AcDbEntity
  8
0
100
AcDbHatch
 62
7
  6
CONTINUOUS
 10
0.0
 20
0.0
 30
0.0
210
0.0
220
0.0
230
1.0
  2
SOLID
 70
1
 71
1
 91
1
 92
1
 93
5
 72
1
 10
159.2564414683
 20
31.4839407928
 11
159.6033164683
 21
31.5162050961
 72
1
 10
159.6033164683
 20
31.5162050961
 11
159.9501914683
 21
31.5162050961
 72
1
 10
159.9501914683
 20
31.5162050961
 11
160.2970664683
 21
31.4839407928
 72
1
 10
160.2970664683
 20
31.4839407928
 11
159.0251916889
 21
31.4194137026
 72
1
 10
159.0251916889
 20
31.4194137026
 11
159.2564414683
 21
31.4839407928
 97
1
330
2FE
 75
0
 76
1
 98
1
 10
0.0
 20
0.0
  0
LWPOLYLINE
  5
300
100
AcDbEntity
  8
0
100
AcDbPolyline
 62
7
  6
CONTINUOUS
 90
12
 70
0
 10
160.4705039683
 20
31.4516780059
 10
160.6439414683
 20
31.3871493993
 10
160.7595660273
 20
31.258095219
 10
160.4705039683
 20
31.258095219
 10
160.4126916889
 20
31.3226223092
 10
160.2970664683
 20
31.3548866125
 10
159.9501914683
 20
31.3871493993
 10
159.6033164683
 20
31.3871493993
 10
158.9095664683
 20
31.3226223092
 10
159.0251916889
 20
31.4194137026
 10
160.2970664683
 20
31.4839407928
 10
160.4705039683
 20
31.4516780059
  0
HATCH
  5
301
100
AcDbEntity
  8
0
100
AcDbHatch
 62
7
  6
CONTINUOUS
 10
0.0
 20
0.0
 30
0.0
210
0.0
220
0.0
230
1.0
  2
SOLID
 70
1
 71
1
 91
1
 92
1
 93
11
 72
1
 10
160.4705039683
 20
31.4516780059
 11
160.6439414683
 21
31.3871493993
 72
1
 10
160.6439414683
 20
31.3871493993
 11
160.7595660273
 21
31.258095219
 72
1
 10
160.7595660273
 20
31.258095219
 11
160.4705039683
 21
31.258095219
 72
1
 10
160.4705039683
 20
31.258095219
 11
160.4126916889
 21
31.3226223092
 72
1
 10
160.4126916889
 20
31.3226223092
 11
160.2970664683
 21
31.3548866125
 72
1
 10
160.2970664683
 20
31.3548866125
 11
159.9501914683
 21
31.3871493993
 72
1
 10
159.9501914683
 20
31.3871493993
 11
159.6033164683
 21
31.3871493993
 72
1
 10
159.6033164683
 20
31.3871493993
 11
158.9095664683
 21
31.3226223092
 72
1
 10
158.9095664683
 20
31.3226223092
 11
159.0251916889
 21
31.4194137026
 72
1
 10
159.0251916889
 20
31.4194137026
 11
160.2970664683
 21
31.4839407928
 72
1
 10
160.2970664683
 20
31.4839407928
 11
160.4705039683
 21
31.4516780059
 97
1
330
300
 75
0
 76
1
 98
1
 10
0.0
 20
0.0
  0
LWPOLYLINE
  5
302
100
AcDbEntity
  8
0
100
AcDbPolyline
 62
7
  6
CONTINUOUS
 90
7
 70
0
 10
150.0642539683
 20
31.3548866125
 10
149.9486289546
 20
31.3226223092
 10
149.4283164701
 20
31.1935681288
 10
149.5439414683
 20
31.3226223092
 10
149.6595664615
 20
31.3871493993
 10
150.2955039959
 20
31.3871493993
 10
150.0642539683
 20
31.3548866125
  0
HATCH
  5
303
100
AcDbEntity
  8
0
100
AcDbHatch
 62
7
  6
CONTINUOUS
 10
0.0
 20
0.0
 30
0.0
210
0.0
220
0.0
230
1.0
  2
SOLID
 70
1
 71
1
 91
1
 92
1
 93
6
 72
1
 10
150.0642539683
 20
31.3548866125
 11
149.9486289546
 21
31.3226223092
 72
1
 10
149.9486289546
 20
31.3226223092
 11
149.4283164701
 21
31.1935681288
 72
1
 10
149.4283164701
 20
31.1935681288
 11
149.5439414683
 21
31.3226223092
 72
1
 10
149.5439414683
 20
31.3226223092
 11
149.6595664615
 21
31.3871493993
 72
1
 10
149.6595664615
 20
31.3871493993
 11
150.2955039959
 21
31.3871493993
 72
1
 10
150.2955039959
 20
31.3871493993
 11
150.0642539683
 21
31.3548866125
 97
1
330
302
 75
0
 76
1
 98
1
 10
0.0
 20
0.0
  0
LWPOLYLINE
  5
304
100
AcDbEntity
  8
0
100
AcDbPolyline
 62
7
  6
CONTINUOUS
 90
7
 70
0
 10
154.2267539683
 20
31.3548866125
 10
154.1111290786
 20
31.3226223092
 10
154.0533164683
 20
31.258095219
 10
153.7642540786
 20
31.258095219
 10
153.7642540786
 20
31.3226223092
 10
154.4580040786
 20
31.3871493993
 10
154.2267539683
 20
31.3548866125
  0
HATCH
  5
305
100
AcDbEntity
  8
0
100
AcDbHatch
 62
7
  6
CONTINUOUS
 10
0.0
 20
0.0
 30
0.0
210
0.0
220
0.0
230
1.0
  2
SOLID
 70
1
 71
1
 91
1
 92
1
 93
6
 72
1
 10
154.2267539683
 20
31.3548866125
 11
154.1111290786
 21
31.3226223092
 72
1
 10
154.1111290786
 20
31.3226223092
 11
154.0533164683
 21
31.258095219
 72
1
 10
154.0533164683
 20
31.258095219
 11
153.7642540786
 21
31.258095219
 72
1
 10
153.7642540786
 20
31.258095219
 11
153.7642540786
 21
31.3226223092
 72
1
 10
153.7642540786
 20
31.3226223092
 11
154.4580040786
 21
31.3871493993
 72
1
 10
154.4580040786
 20
31.3871493993
 11
154.2267539683
 21
31.3548866125
 97
1
330
304
 75
0
 76
1
 98
1
 10
0.0
 20
0.0
  0
LWPOLYLINE
  5
306
100
AcDbEntity
  8
0
100
AcDbPolyline
 62
7
  6
CONTINUOUS
 90
8
 70
0
 10
159.3720666889
 20
31.3548866125
 10
159.2564414683
 20
31.3226223092
 10
159.1986291889
 20
31.258095219
 10
159.0251916889
 20
31.1290410387
 10
158.9095664683
 20
31.258095219
 10
158.9095664683
 20
31.3226223092
 10
159.6033164683
 20
31.3871493993
 10
159.3720666889
 20
31.3548866125
  0
HATCH
  5
307
100
AcDbEntity
  8
0
100
AcDbHatch
 62
7
  6
CONTINUOUS
 10
0.0
 20
0.0
 30
0.0
210
0.0
220
0.0
230
1.0
  2
SOLID
 70
1
 71
1
 91
1
 92
1
 93
7
 72
1
 10
159.3720666889
 20
31.3548866125
 11
159.2564414683
 21
31.3226223092
 72
1
 10
159.2564414683
 20
31.3226223092
 11
159.1986291889
 21
31.258095219
 72
1
 10
159.1986291889
 20
31.258095219
 11
159.0251916889
 21
31.1290410387
 72
1
 10
159.0251916889
 20
31.1290410387
 11
158.9095664683
 21
31.258095219
 72
1
 10
158.9095664683
 20
31.258095219
 11
158.9095664683
 21
31.3226223092
 72
1
 10
158.9095664683
 20
31.3226223092
 11
159.6033164683
 21
31.3871493993
 72
1
 10
159.6033164683
 20
31.3871493993
 11
159.3720666889
 21
31.3548866125
 97
1
330
306
 75
0
 76
1
 98
1
 10
0.0
 20
0.0
  0
LWPOLYLINE
  5
308
100
AcDbEntity
  8
0
100
AcDbPolyline
 62
7
  6
CONTINUOUS
 90
6
 70
0
 10
149.7751914546
 20
31.2258309157
 10
149.7173789683
 20
31.1613038256
 10
149.3705039683
 20
30.999985342
 10
149.4283164701
 20
31.1935681288
 10
149.9486289546
 20
31.3226223092
 10
149.7751914546
 20
31.2258309157
  0
HATCH
  5
309
100
AcDbEntity
  8
0
100
AcDbHatch
 62
7
  6
CONTINUOUS
 10
0.0
 20
0.0
 30
0.0
210
0.0
220
0.0
230
1.0
  2
SOLID
 70
1
 71
1
 91
1
 92
1
 93
5
 72
1
 10
149.7751914546
 20
31.2258309157
 11
149.7173789683
 21
31.1613038256
 72
1
 10
149.7173789683
 20
31.1613038256
 11
149.3705039683
 21
30.999985342
 72
1
 10
149.3705039683
 20
30.999985342
 11
149.4283164701
 21
31.1935681288
 72
1
 10
149.4283164701
 20
31.1935681288
 11
149.9486289546
 21
31.3226223092
 72
1
 10
149.9486289546
 20
31.3226223092
 11
149.7751914546
 21
31.2258309157
 97
1
330
308
 75
0
 76
1
 98
1
 10
0.0
 20
0.0
  0
LWPOLYLINE
  5
30A
100
AcDbEntity
  8
0
100
AcDbPolyline
 62
7
  6
CONTINUOUS
 90
7
 70
0
 10
154.2267539683
 20
31.1290410387
 10
154.5736289683
 20
31.1613038256
 10
155.2095666889
 20
31.1613038256
 10
155.2095666889
 20
31.0322496452
 10
154.5736289683
 20
31.0322496452
 10
153.9955038581
 20
31.0645131385
 10
154.2267539683
 20
31.1290410387
  0
HATCH
  5
30B
100
AcDbEntity
  8
0
100
AcDbHatch
 62
7
  6
CONTINUOUS
 10
0.0
 20
0.0
 30
0.0
210
0.0
220
0.0
230
1.0
  2
SOLID
 70
1
 71
1
 91
1
 92
1
 93
6
 72
1
 10
154.2267539683
 20
31.1290410387
 11
154.5736289683
 21
31.1613038256
 72
1
 10
154.5736289683
 20
31.1613038256
 11
155.2095666889
 21
31.1613038256
 72
1
 10
155.2095666889
 20
31.1613038256
 11
155.2095666889
 21
31.0322496452
 72
1
 10
155.2095666889
 20
31.0322496452
 11
154.5736289683
 21
31.0322496452
 72
1
 10
154.5736289683
 20
31.0322496452
 11
153.9955038581
 21
31.0645131385
 72
1
 10
153.9955038581
 20
31.0645131385
 11
154.2267539683
 21
31.1290410387
 97
1
330
30A
 75
0
 76
1
 98
1
 10
0.0
 20
0.0
  0
LWPOLYLINE
  5
30C
100
AcDbEntity
  8
0
100
AcDbPolyline
 62
7
  6
CONTINUOUS
 90
24
 70
0
 10
159.2564414683
 20
31.1935681288
 10
159.4298789683
 20
31.1290410387
 10
160.4126916889
 20
30.9677225551
 10
160.6439414683
 20
30.8709311616
 10
160.7595660273
 20
30.7418754649
 10
160.7595660273
 20
30.6773483748
 10
160.6439414683
 20
30.5805584977
 10
160.4126916889
 20
30.5160298911
 10
160.0658166889
 20
30.4837671043
 10
159.7189416889
 20
30.4837671043
 10
159.3720666889
 20
30.5160298911
 10
159.1986291889
 20
30.5482941944
 10
159.0251916889
 20
30.6128212846
 10
159.7189416889
 20
30.6128212846
 10
160.0658166889
 20
30.6128212846
 10
160.2970664683
 20
30.6450855879
 10
160.4126916889
 20
30.6773483748
 10
160.4705039683
 20
30.7418754649
 10
160.4126916889
 20
30.8064040715
 10
160.2392541889
 20
30.8709311616
 10
159.2564414683
 20
31.0322496452
 10
159.0251916889
 20
31.1290410387
 10
159.1986291889
 20
31.258095219
 10
159.2564414683
 20
31.1935681288
  0
HATCH
  5
30D
100
AcDbEntity
  8
0
100
AcDbHatch
 62
7
  6
CONTINUOUS
 10
0.0
 20
0.0
 30
0.0
210
0.0
220
0.0
230
1.0
  2
SOLID
 70
1
 71
1
 91
1
 92
1
 93
23
 72
1
 10
159.2564414683
 20
31.1935681288
 11
159.4298789683
 21
31.1290410387
 72
1
 10
159.4298789683
 20
31.1290410387
 11
160.4126916889
 21
30.9677225551
 72
1
 10
160.4126916889
 20
30.9677225551
 11
160.6439414683
 21
30.8709311616
 72
1
 10
160.6439414683
 20
30.8709311616
 11
160.7595660273
 21
30.7418754649
 72
1
 10
160.7595660273
 20
30.7418754649
 11
160.7595660273
 21
30.6773483748
 72
1
 10
160.7595660273
 20
30.6773483748
 11
160.6439414683
 21
30.5805584977
 72
1
 10
160.6439414683
 20
30.5805584977
 11
160.4126916889
 21
30.5160298911
 72
1
 10
160.4126916889
 20
30.5160298911
 11
160.0658166889
 21
30.4837671043
 72
1
 10
160.0658166889
 20
30.4837671043
 11
159.7189416889
 21
30.4837671043
 72
1
 10
159.7189416889
 20
30.4837671043
 11
159.3720666889
 21
30.5160298911
 72
1
 10
159.3720666889
 20
30.5160298911
 11
159.1986291889
 21
30.5482941944
 72
1
 10
159.1986291889
 20
30.5482941944
 11
159.0251916889
 21
30.6128212846
 72
1
 10
159.0251916889
 20
30.6128212846
 11
159.7189416889
 21
30.6128212846
 72
1
 10
159.7189416889
 20
30.6128212846
 11
160.0658166889
 21
30.6128212846
 72
1
 10
160.0658166889
 20
30.6128212846
 11
160.2970664683
 21
30.6450855879
 72
1
 10
160.2970664683
 20
30.6450855879
 11
160.4126916889
 21
30.6773483748
 72
1
 10
160.4126916889
 20
30.6773483748
 11
160.4705039683
 21
30.7418754649
 72
1
 10
160.4705039683
 20
30.7418754649
 11
160.4126916889
 21
30.8064040715
 72
1
 10
160.4126916889
 20
30.8064040715
 11
160.2392541889
 21
30.8709311616
 72
1
 10
160.2392541889
 20
30.8709311616
 11
159.2564414683
 21
31.0322496452
 72
1
 10
159.2564414683
 20
31.0322496452
 11
159.0251916889
 21
31.1290410387
 72
1
 10
159.0251916889
 20
31.1290410387
 11
159.1986291889
 21
31.258095219
 72
1
 10
159.1986291889
 20
31.258095219
 11
159.2564414683
 21
31.1935681288
 97
1
330
30C
 75
0
 76
1
 98
1
 10
0.0
 20
0.0
  0
LWPOLYLINE
  5
30E
100
AcDbEntity
  8
0
100
AcDbPolyline
 62
7
  6
CONTINUOUS
 90
12
 70
0
 10
149.6595664615
 20
31.0322496452
 10
149.6595664615
 20
30.9354583476
 10
149.7751914546
 20
30.7741397682
 10
149.9486289546
 20
30.6773483748
 10
150.2955039959
 20
30.6128212846
 10
149.8330039821
 20
30.5482941944
 10
149.6595664615
 20
30.6128212846
 10
149.5439414683
 20
30.6773483748
 10
149.4283164701
 20
30.8064040715
 10
149.3705039683
 20
30.999985342
 10
149.7173789683
 20
31.1613038256
 10
149.6595664615
 20
31.0322496452
  0
HATCH
  5
30F
100
AcDbEntity
  8
0
100
AcDbHatch
 62
7
  6
CONTINUOUS
 10
0.0
 20
0.0
 30
0.0
210
0.0
220
0.0
230
1.0
  2
SOLID
 70
1
 71
1
 91
1
 92
1
 93
11
 72
1
 10
149.6595664615
 20
31.0322496452
 11
149.6595664615
 21
30.9354583476
 72
1
 10
149.6595664615
 20
30.9354583476
 11
149.7751914546
 21
30.7741397682
 72
1
 10
149.7751914546
 20
30.7741397682
 11
149.9486289546
 21
30.6773483748
 72
1
 10
149.9486289546
 20
30.6773483748
 11
150.2955039959
 21
30.6128212846
 72
1
 10
150.2955039959
 20
30.6128212846
 11
149.8330039821
 21
30.5482941944
 72
1
 10
149.8330039821
 20
30.5482941944
 11
149.6595664615
 21
30.6128212846
 72
1
 10
149.6595664615
 20
30.6128212846
 11
149.5439414683
 21
30.6773483748
 72
1
 10
149.5439414683
 20
30.6773483748
 11
149.4283164701
 21
30.8064040715
 72
1
 10
149.4283164701
 20
30.8064040715
 11
149.3705039683
 21
30.999985342
 72
1
 10
149.3705039683
 20
30.999985342
 11
149.7173789683
 21
31.1613038256
 72
1
 10
149.7173789683
 20
31.1613038256
 11
149.6595664615
 21
31.0322496452
 97
1
330
30E
 75
0
 76
1
 98
1
 10
0.0
 20
0.0
  0
LWPOLYLINE
  5
310
100
AcDbEntity
  8
0
100
AcDbPolyline
 62
7
  6
CONTINUOUS
 90
6
 70
0
 10
153.8798789683
 20
30.999985342
 10
153.9955038581
 20
31.0645131385
 10
154.5736289683
 20
31.0322496452
 10
154.3423788581
 20
30.999985342
 10
153.7642540786
 20
30.8709311616
 10
153.8798789683
 20
30.999985342
  0
HATCH
  5
311
100
AcDbEntity
  8
0
100
AcDbHatch
 62
7
  6
CONTINUOUS
 10
0.0
 20
0.0
 30
0.0
210
0.0
220
0.0
230
1.0
  2
SOLID
 70
1
 71
1
 91
1
 92
1
 93
5
 72
1
 10
153.8798789683
 20
30.999985342
 11
153.9955038581
 21
31.0645131385
 72
1
 10
153.9955038581
 20
31.0645131385
 11
154.5736289683
 21
31.0322496452
 72
1
 10
154.5736289683
 20
31.0322496452
 11
154.3423788581
 21
30.999985342
 72
1
 10
154.3423788581
 20
30.999985342
 11
153.7642540786
 21
30.8709311616
 72
1
 10
153.7642540786
 20
30.8709311616
 11
153.8798789683
 21
30.999985342
 97
1
330
310
 75
0
 76
1
 98
1
 10
0.0
 20
0.0
  0
LWPOLYLINE
  5
312
100
AcDbEntity
  8
0
100
AcDbPolyline
 62
7
  6
CONTINUOUS
 90
9
 70
0
 10
154.1111290786
 20
30.9031946612
 10
154.0533164683
 20
30.8064040715
 10
154.0533164683
 20
30.7418754649
 10
153.8220663581
 20
30.6450855879
 10
153.7642540786
 20
30.7741397682
 10
153.7642540786
 20
30.8709311616
 10
154.3423788581
 20
30.999985342
 10
154.2267539683
 20
30.9677225551
 10
154.1111290786
 20
30.9031946612
  0
HATCH
  5
313
100
AcDbEntity
  8
0
100
AcDbHatch
 62
7
  6
CONTINUOUS
 10
0.0
 20
0.0
 30
0.0
210
0.0
220
0.0
230
1.0
  2
SOLID
 70
1
 71
1
 91
1
 92
1
 93
8
 72
1
 10
154.1111290786
 20
30.9031946612
 11
154.0533164683
 21
30.8064040715
 72
1
 10
154.0533164683
 20
30.8064040715
 11
154.0533164683
 21
30.7418754649
 72
1
 10
154.0533164683
 20
30.7418754649
 11
153.8220663581
 21
30.6450855879
 72
1
 10
153.8220663581
 20
30.6450855879
 11
153.7642540786
 21
30.7741397682
 72
1
 10
153.7642540786
 20
30.7741397682
 11
153.7642540786
 21
30.8709311616
 72
1
 10
153.7642540786
 20
30.8709311616
 11
154.3423788581
 21
30.999985342
 72
1
 10
154.3423788581
 20
30.999985342
 11
154.2267539683
 21
30.9677225551
 72
1
 10
154.2267539683
 20
30.9677225551
 11
154.1111290786
 21
30.9031946612
 97
1
330
312
 75
0
 76
1
 98
1
 10
0.0
 20
0.0
  0
LWPOLYLINE
  5
314
100
AcDbEntity
  8
0
100
AcDbPolyline
 62
7
  6
CONTINUOUS
 90
10
 70
0
 10
155.1517537478
 20
30.7741397682
 10
155.2095666889
 20
30.8386672883
 10
155.4986287478
 20
30.7418754649
 10
155.5564416889
 20
30.5805584977
 10
155.6142539683
 20
30.4837671043
 10
155.3251912478
 20
30.4837671043
 10
155.2673789683
 20
30.5482941944
 10
155.2095666889
 20
30.6450855879
 10
154.9783162478
 20
30.6773483748
 10
155.1517537478
 20
30.7741397682
  0
HATCH
  5
315
100
AcDbEntity
  8
0
100
AcDbHatch
 62
7
  6
CONTINUOUS
 10
0.0
 20
0.0
 30
0.0
210
0.0
220
0.0
230
1.0
  2
SOLID
 70
1
 71
1
 91
1
 92
1
 93
9
 72
1
 10
155.1517537478
 20
30.7741397682
 11
155.2095666889
 21
30.8386672883
 72
1
 10
155.2095666889
 20
30.8386672883
 11
155.4986287478
 21
30.7418754649
 72
1
 10
155.4986287478
 20
30.7418754649
 11
155.5564416889
 21
30.5805584977
 72
1
 10
155.5564416889
 20
30.5805584977
 11
155.6142539683
 21
30.4837671043
 72
1
 10
155.6142539683
 20
30.4837671043
 11
155.3251912478
 21
30.4837671043
 72
1
 10
155.3251912478
 20
30.4837671043
 11
155.2673789683
 21
30.5482941944
 72
1
 10
155.2673789683
 20
30.5482941944
 11
155.2095666889
 21
30.6450855879
 72
1
 10
155.2095666889
 20
30.6450855879
 11
154.9783162478
 21
30.6773483748
 72
1
 10
154.9783162478
 20
30.6773483748
 11
155.1517537478
 21
30.7741397682
 97
1
330
314
 75
0
 76
1
 98
1
 10
0.0
 20
0.0
  0
LWPOLYLINE
  5
316
100
AcDbEntity
  8
0
100
AcDbPolyline
 62
7
  6
CONTINUOUS
 90
12
 70
0
 10
150.8736290235
 20
30.7096125201
 10
150.9314414683
 20
30.8064040715
 10
151.2205040235
 20
30.8064040715
 10
151.1626914132
 20
30.6773483748
 10
150.9892539132
 20
30.5805584977
 10
150.7580039683
 20
30.5160298911
 10
150.3533164408
 20
30.4837671043
 10
150.0064414821
 20
30.5160298911
 10
149.8330039821
 20
30.5482941944
 10
150.2955039959
 20
30.6128212846
 10
150.7001914408
 20
30.6450855879
 10
150.8736290235
 20
30.7096125201
  0
HATCH
  5
317
100
AcDbEntity
  8
0
100
AcDbHatch
 62
7
  6
CONTINUOUS
 10
0.0
 20
0.0
 30
0.0
210
0.0
220
0.0
230
1.0
  2
SOLID
 70
1
 71
1
 91
1
 92
1
 93
11
 72
1
 10
150.8736290235
 20
30.7096125201
 11
150.9314414683
 21
30.8064040715
 72
1
 10
150.9314414683
 20
30.8064040715
 11
151.2205040235
 21
30.8064040715
 72
1
 10
151.2205040235
 20
30.8064040715
 11
151.1626914132
 21
30.6773483748
 72
1
 10
151.1626914132
 20
30.6773483748
 11
150.9892539132
 21
30.5805584977
 72
1
 10
150.9892539132
 20
30.5805584977
 11
150.7580039683
 21
30.5160298911
 72
1
 10
150.7580039683
 20
30.5160298911
 11
150.3533164408
 21
30.4837671043
 72
1
 10
150.3533164408
 20
30.4837671043
 11
150.0064414821
 21
30.5160298911
 72
1
 10
150.0064414821
 20
30.5160298911
 11
149.8330039821
 21
30.5482941944
 72
1
 10
149.8330039821
 20
30.5482941944
 11
150.2955039959
 21
30.6128212846
 72
1
 10
150.2955039959
 20
30.6128212846
 11
150.7001914408
 21
30.6450855879
 72
1
 10
150.7001914408
 20
30.6450855879
 11
150.8736290235
 21
30.7096125201
 97
1
330
316
 75
0
 76
1
 98
1
 10
0.0
 20
0.0
  0
LWPOLYLINE
  5
318
100
AcDbEntity
  8
0
100
AcDbPolyline
 62
7
  6
CONTINUOUS
 90
6
 70
0
 10
154.1111290786
 20
30.6773483748
 10
154.3423788581
 20
30.6128212846
 10
153.9955038581
 20
30.5482941944
 10
153.8220663581
 20
30.6450855879
 10
154.0533164683
 20
30.7418754649
 10
154.1111290786
 20
30.6773483748
  0
HATCH
  5
319
100
AcDbEntity
  8
0
100
AcDbHatch
 62
7
  6
CONTINUOUS
 10
0.0
 20
0.0
 30
0.0
210
0.0
220
0.0
230
1.0
  2
SOLID
 70
1
 71
1
 91
1
 92
1
 93
5
 72
1
 10
154.1111290786
 20
30.6773483748
 11
154.3423788581
 21
30.6128212846
 72
1
 10
154.3423788581
 20
30.6128212846
 11
153.9955038581
 21
30.5482941944
 72
1
 10
153.9955038581
 20
30.5482941944
 11
153.8220663581
 21
30.6450855879
 72
1
 10
153.8220663581
 20
30.6450855879
 11
154.0533164683
 21
30.7418754649
 72
1
 10
154.0533164683
 20
30.7418754649
 11
154.1111290786
 21
30.6773483748
 97
1
330
318
 75
0
 76
1
 98
1
 10
0.0
 20
0.0
  0
LWPOLYLINE
  5
31A
100
AcDbEntity
  8
0
100
AcDbPolyline
 62
7
  6
CONTINUOUS
 90
11
 70
0
 10
154.6892538581
 20
30.6128212846
 10
154.9783162478
 20
30.6773483748
 10
155.2095666889
 20
30.6450855879
 10
155.1517537478
 20
30.5805584977
 10
154.9783162478
 20
30.5160298911
 10
154.6892538581
 20
30.4837671043
 10
154.3423788581
 20
30.4837671043
 10
154.1111290786
 20
30.5160298911
 10
153.9955038581
 20
30.5482941944
 10
154.3423788581
 20
30.6128212846
 10
154.6892538581
 20
30.6128212846
  0
HATCH
  5
31B
100
AcDbEntity
  8
0
100
AcDbHatch
 62
7
  6
CONTINUOUS
 10
0.0
 20
0.0
 30
0.0
210
0.0
220
0.0
230
1.0
  2
SOLID
 70
1
 71
1
 91
1
 92
1
 93
10
 72
1
 10
154.6892538581
 20
30.6128212846
 11
154.9783162478
 21
30.6773483748
 72
1
 10
154.9783162478
 20
30.6773483748
 11
155.2095666889
 21
30.6450855879
 72
1
 10
155.2095666889
 20
30.6450855879
 11
155.1517537478
 21
30.5805584977
 72
1
 10
155.1517537478
 20
30.5805584977
 11
154.9783162478
 21
30.5160298911
 72
1
 10
154.9783162478
 20
30.5160298911
 11
154.6892538581
 21
30.4837671043
 72
1
 10
154.6892538581
 20
30.4837671043
 11
154.3423788581
 21
30.4837671043
 72
1
 10
154.3423788581
 20
30.4837671043
 11
154.1111290786
 21
30.5160298911
 72
1
 10
154.1111290786
 20
30.5160298911
 11
153.9955038581
 21
30.5482941944
 72
1
 10
153.9955038581
 20
30.5482941944
 11
154.3423788581
 21
30.6128212846
 72
1
 10
154.3423788581
 20
30.6128212846
 11
154.6892538581
 21
30.6128212846
 97
1
330
31A
 75
0
 76
1
 98
1
 10
0.0
 20
0.0
  0
LWPOLYLINE
  5
31C
100
AcDbEntity
  8
0
100
AcDbPolyline
 62
7
  6
CONTINUOUS
 90
7
 70
0
 10
159.3720666889
 20
30.6450855879
 10
159.7189416889
 20
30.6128212846
 10
159.0251916889
 20
30.6128212846
 10
158.9095664683
 20
30.7418754649
 10
159.1986291889
 20
30.7418754649
 10
159.2564414683
 20
30.6773483748
 10
159.3720666889
 20
30.6450855879
  0
HATCH
  5
31D
100
AcDbEntity
  8
0
100
AcDbHatch
 62
7
  6
CONTINUOUS
 10
0.0
 20
0.0
 30
0.0
210
0.0
220
0.0
230
1.0
  2
SOLID
 70
1
 71
1
 91
1
 92
1
 93
6
 72
1
 10
159.3720666889
 20
30.6450855879
 11
159.7189416889
 21
30.6128212846
 72
1
 10
159.7189416889
 20
30.6128212846
 11
159.0251916889
 21
30.6128212846
 72
1
 10
159.0251916889
 20
30.6128212846
 11
158.9095664683
 21
30.7418754649
 72
1
 10
158.9095664683
 20
30.7418754649
 11
159.1986291889
 21
30.7418754649
 72
1
 10
159.1986291889
 20
30.7418754649
 11
159.2564414683
 21
30.6773483748
 72
1
 10
159.2564414683
 20
30.6773483748
 11
159.3720666889
 21
30.6450855879
 97
1
330
31C
 75
0
 76
1
 98
1
 10
0.0
 20
0.0
  0
SOLID
  5
31E
100
AcDbEntity
  8
0
100
AcDbTrace
 62
7
  6
CONTINUOUS
 10
156.0767541889
 20
30.4837671043
 11
156.0767541889
 21
31.5162050961
 12
156.3658162478
 22
30.4837671043
 13
156.3658162478
 23
31.5162050961
  0
ENDBLK
  5
31F
100
AcDbEntity
  8
0
  6
BYBLOCK
 62
0
100
AcDbBlockEnd
  0
BLOCK
  5
320
100
AcDbEntity
  8
0
100
AcDbBlockBegin
 62
2
  6
CONTINUOUS
  2
AMMEAAL_LOGO_BL0
 70
64
 10
31.7740840678
 20
19.9150776578
  3
AMMEAAL_LOGO_BL0
  1

  0
TEXT
  5
321
100
AcDbEntity
  8
0
100
AcDbText
 62
7
  6
CONTINUOUS
 10
18.0387879101
 20
19.2884917655
  7
TEXTSTYLE_3
 40
2.7338706658
  1
Ammeraal Beltech
 41
1.0
 51
15.0
 72
0
100
AcDbText
  0
TEXT
  5
322
100
AcDbEntity
  8
0
100
AcDbText
 62
7
  6
CONTINUOUS
 10
28.8395887358
 20
17.0149550926
  7
TEXTSTYLE_4
 40
1.0935482663
  1
Innovation & Service in Belting
 41
1.0
 72
0
100
AcDbText
  0
LINE
  5
323
100
AcDbEntity
  8
0
100
AcDbLine
 62
7
  6
CONTINUOUS
 10
12.0142472588
 20
20.055085074
 11
12.7923992521
 21
23.7160023717
  0
LINE
  5
324
100
AcDbEntity
  8
0
100
AcDbLine
 62
7
  6
CONTINUOUS
 10
22.8875675419
 20
27.3793962833
 11
13.2802169951
 21
24.257778862
  0
LINE
  5
325
100
AcDbEntity
  8
0
100
AcDbLine
 62
7
  6
CONTINUOUS
 10
12.2395305911
 20
19.361734271
 11
19.7466058522
 21
12.602333345
  0
LINE
  5
326
100
AcDbEntity
  8
0
100
AcDbLine
 62
7
  6
CONTINUOUS
 10
12.5020650018
 20
20.5968615644
 11
23.310334367
 21
24.1086811633
  0
LINE
  5
327
100
AcDbEntity
  8
0
100
AcDbLine
 62
7
  6
CONTINUOUS
 10
23.3061292298
 20
13.7588925996
 11
14.860669561
 21
21.3632186413
  0
LINE
  5
328
100
AcDbEntity
  8
0
100
AcDbLine
 62
7
  6
CONTINUOUS
 10
23.8259519496
 20
26.5344711676
 11
22.8493924124
 21
21.9401197651
  0
LINE
  5
329
100
AcDbEntity
  8
0
100
AcDbLine
 62
7
  6
CONTINUOUS
 10
22.1495904647
 20
18.6478104513
 11
21.4631422532
 21
15.4183255269
  0
LINE
  5
32A
100
AcDbEntity
  8
0
100
AcDbLine
 62
7
  6
CONTINUOUS
 10
24.5070480481
 20
14.1490947773
 11
25.4632795838
 21
18.6478104513
  0
LINE
  5
32B
100
AcDbEntity
  8
0
100
AcDbLine
 62
7
  6
CONTINUOUS
 10
26.1630815315
 20
21.9401197651
 11
26.6073233338
 21
24.0301131245
  0
LINE
  5
32C
100
AcDbEntity
  8
0
100
AcDbLine
 62
7
  6
CONTINUOUS
 10
20.4597069275
 20
12.4507590323
 11
24.0192303051
 21
13.6073182869
  0
LINE
  5
32D
100
AcDbEntity
  8
0
100
AcDbLine
 62
7
  6
CONTINUOUS
 10
23.6006686173
 20
27.2278219706
 11
26.3820400015
 21
24.7234639276
  0
ARC
  5
32E
100
AcDbEntity
  8
0
100
AcDbCircle
 62
7
  6
CONTINUOUS
 10
13.5055003274
 20
23.564428059
 40
0.7290321776
100
AcDbArc
 50
108.0
 51
168.0
  0
ARC
  5
32F
100
AcDbEntity
  8
0
100
AcDbCircle
 62
7
  6
CONTINUOUS
 10
23.1128508743
 20
26.6860454803
 40
0.7290321776
100
AcDbArc
 50
348.0
 51
108.0
  0
ARC
  5
330
100
AcDbEntity
  8
0
100
AcDbCircle
 62
7
  6
CONTINUOUS
 10
25.8942222585
 20
24.1816874372
 40
0.7290321776
100
AcDbArc
 50
348.0
 51
48.0
  0
ARC
  5
331
100
AcDbEntity
  8
0
100
AcDbCircle
 62
7
  6
CONTINUOUS
 10
20.2344235952
 20
13.1441098354
 40
0.7290321776
100
AcDbArc
 50
228.0
 51
288.0
  0
ARC
  5
332
100
AcDbEntity
  8
0
100
AcDbCircle
 62
7
  6
CONTINUOUS
 10
12.7273483341
 20
19.9035107613
 40
0.7290321776
100
AcDbArc
 50
108.0
 51
228.0
  0
ARC
  5
333
100
AcDbEntity
  8
0
100
AcDbCircle
 62
7
  6
CONTINUOUS
 10
23.7939469728
 20
14.30066909
 40
0.7290321776
100
AcDbArc
 50
228.0
 51
348.0
  0
ENDBLK
  5
334
100
AcDbEntity
  8
0
  6
BYBLOCK
 62
0
100
AcDbBlockEnd
  0
BLOCK
  5
335
100
AcDbEntity
  8
0
100
AcDbBlockBegin
  2
*T1
 70
1
 10
0.0
 20
0.0
  3
*T1
  1

  0
LINE
  5
336
100
AcDbEntity
  8
0
100
AcDbLine
 62
2
  6
CONTINUOUS
 10
0.0
 20
0.0
 11
190.0
 21
0.0
  0
LINE
  5
337
100
AcDbEntity
  8
0
100
AcDbLine
 62
2
  6
CONTINUOUS
 10
0.0
 20
0.0
 11
0.0
 21
-20.0
  0
LINE
  5
338
100
AcDbEntity
  8
0
100
AcDbLine
 62
2
  6
CONTINUOUS
 10
0.0
 20
-20.0
 11
190.0
 21
-20.0
  0
LINE
  5
339
100
AcDbEntity
  8
0
100
AcDbLine
 62
2
  6
CONTINUOUS
 10
85.0
 20
0.0
 11
85.0
 21
-20.0
  0
LINE
  5
33A
100
AcDbEntity
  8
0
100
AcDbLine
 62
2
  6
CONTINUOUS
 10
105.0
 20
0.0
 11
105.0
 21
-20.0
  0
LINE
  5
33B
100
AcDbEntity
  8
0
100
AcDbLine
 62
2
  6
CONTINUOUS
 10
190.0
 20
0.0
 11
190.0
 21
-20.0
  0
MTEXT
  5
33C
100
AcDbEntity
  8
0
100
AcDbMText
 62
5
  6
CONTINUOUS
  7
TEXTSTYLE_5
 71
1
 72
1
 10
3.0
 20
-5.177
 30
0.0
 11
1.0
 21
0.0
 31
0.0
 44
1.08
  3
                                                                     Ammeraal Beltech Modular A/S\P\H1.5;                                                                      Hjulmagervej 21,  7100 Vejle,  DK\P\H1.495;                                
  1
                                      tel: \H1.51;+45 75723100     fax: +45 75723348\P\H1.5;                                                                      admin@unichains.dk  www.unichains.com
 40
1.52
 41
161.0496183206
  0
MTEXT
  5
33D
100
AcDbEntity
  8
0
100
AcDbMText
 62
5
  6
CONTINUOUS
  7
TEXTSTYLE_6
 71
2
 72
1
 10
95.0
 20
-11.25
 30
0.0
 11
1.0
 21
0.0
 31
0.0
 44
0.9
  1
1:1
 40
5.0
 41
21.0
  0
MTEXT
  5
33E
100
AcDbEntity
  8
0
100
AcDbMText
 62
5
  6
CONTINUOUS
  7
TEXTSTYLE_7
 71
1
 72
1
 10
108.0
 20
-8.75
 30
0.0
 11
1.0
 21
0.0
 31
0.0
 44
0.9
  1
uni 1701
 40
7.5
 41
66.25
  0
ENDBLK
  5
33F
100
AcDbEntity
  8
0
  6
BYBLOCK
 62
0
100
AcDbBlockEnd
  0
ENDSEC
  0
SECTION
  2
ENTITIES
  0
MTEXT
  5
340
100
AcDbEntity
  8
0
100
AcDbMText
 62
2
  6
CONTINUOUS
  7
TEXTSTYLE_2
 71
1
 72
1
 10
96.0
 20
28.436
 30
0.0
 11
1.0
 21
0.0
 31
0.0
 44
0.9
  1
\Q0.000019;Scale :
 40
2.8
 41
11.76
  0
MTEXT
  5
341
100
AcDbEntity
  8
0
100
AcDbMText
 62
2
  6
CONTINUOUS
  7
TEXTSTYLE_2
 71
1
 72
1
 10
116.0
 20
28.436
 30
0.0
 11
1.0
 21
0.0
 31
0.0
 44
0.9
  1
\Q0.000019;Chain type:
 40
2.8
 41
18.48
  0
INSERT
  5
342
100
AcDbEntity
  8
0
100
AcDbBlockReference
 62
2
  6
CONTINUOUS
  2
AMMEAAL_LOGO_BL0
 10
31.7740840678
 20
19.9150776578
  0
INSERT
  5
343
100
AcDbEntity
  8
0
100
AcDbBlockReference
 62
2
  6
CONTINUOUS
  2
UNI_LOGO2_BL1
 10
173.3924355793
 20
35.4837666925
  0
ACAD_TABLE
  5
344
100
AcDbEntity
  8
0
 62
2
  6
CONTINUOUS
100
AcDbBlockReference
  2
*T1
 10
10.0
 20
30.0
 30
0.0
100
AcDbTable
342
       74A
343
213
 11
1.0
 21
0.0
 31
0.0
 90
22
 91
1
 92
3
 93
0
 94
0
 95
0
 96
0
141
20.0
142
85.0
142
20.0
142
85.0
171
1
172
0
173
0
174
0
175
1
176
1
 91
57
178
0
145
0.0
  7
TEXTSTYLE_5
301
CELL_VALUE
 90
4
  2
                                                                     Ammeraal Beltech Modular A/S\P\H1.5;                                                                      Hjulmagervej 21,  7100 Vejle,  DK\P\H1.495;                                
  1
                                      tel: \H1.51;+45 75723100     fax: +45 75723348\P\H1.5;                                                                      admin@unichains.dk  www.unichains.com
304
ACVALUE_END
170
4
140
1.52
 64
5
171
1
172
0
173
0
174
0
175
1
176
1
 91
57
178
0
145
0.0
  7
TEXTSTYLE_6
301
CELL_VALUE
 90
4
  1
1:1
304
ACVALUE_END
170
8
140
5.0
 64
5
171
1
172
0
173
0
174
0
175
1
176
1
 91
57
178
0
145
0.0
  7
TEXTSTYLE_7
301
CELL_VALUE
 90
4
  1
uni 1701
304
ACVALUE_END
170
7
140
7.5
 64
5
  0
LINE
  5
345
100
AcDbEntity
  8
0
100
AcDbLine
 62
7
  6
CONTINUOUS
 10
210.0
 20
0.0
 11
0.0
 21
0.0
  0
LINE
  5
346
100
AcDbEntity
  8
0
100
AcDbLine
 62
7
  6
CONTINUOUS
 10
10.0
 20
10.0
 11
200.0
 21
10.0
  0
LINE
  5
347
100
AcDbEntity
  8
0
100
AcDbLine
 62
7
  6
CONTINUOUS
 10
10.0
 20
30.0
 11
200.0
 21
30.0
  0
LINE
  5
348
100
AcDbEntity
  8
0
100
AcDbLine
 62
7
  6
CONTINUOUS
 10
0.0
 20
0.0
 11
0.0
 21
297.0
  0
LINE
  5
349
100
AcDbEntity
  8
0
100
AcDbLine
 62
7
  6
CONTINUOUS
 10
10.0
 20
10.0
 11
10.0
 21
287.0
  0
LINE
  5
34A
100
AcDbEntity
  8
0
100
AcDbLine
 62
7
  6
CONTINUOUS
 10
200.0
 20
287.0
 11
200.0
 21
10.0
  0
LINE
  5
34B
100
AcDbEntity
  8
0
100
AcDbLine
 62
7
  6
CONTINUOUS
 10
210.0
 20
0.0
 11
210.0
 21
297.0
  0
LINE
  5
34C
100
AcDbEntity
  8
0
100
AcDbLine
 62
7
  6
CONTINUOUS
 10
10.0
 20
287.0
 11
200.0
 21
287.0
  0
LINE
  5
34D
100
AcDbEntity
  8
0
100
AcDbLine
 62
7
  6
CONTINUOUS
 10
0.0
 20
297.0
 11
210.0
 21
297.0
  0
LINE
  5
34E
100
AcDbEntity
  8
2_FEATURE
100
AcDbLine
 62
7
  6
CONTINUOUS
 10
35.1508125
 20
128.2053208023
 11
35.1508125
 21
134.5785694564
  0
LINE
  5
34F
100
AcDbEntity
  8
0
100
AcDbLine
 62
7
  6
CONTINUOUS
 10
41.9328125
 20
127.6610422614
 11
41.9328125
 21
148.7777440458
  0
LINE
  5
350
100
AcDbEntity
  8
0
100
AcDbLine
 62
7
  6
CONTINUOUS
 10
45.4328125
 20
127.7950168577
 11
45.4328125
 21
138.5785694564
  0
LINE
  5
351
100
AcDbEntity
  8
0
100
AcDbLine
 62
7
  6
CONTINUOUS
 10
46.5247232028
 20
137.5785694564
 11
46.5247232028
 21
128.0875934487
  0
LINE
  5
352
100
AcDbEntity
  8
DEFAULT_1
100
AcDbLine
 62
2
  6
CENTER
 10
33.1508125
 20
87.6835694564
 11
103.1148125
 21
87.6835694564
  0
LINE
  5
353
100
AcDbEntity
  8
2_FEATURE
100
AcDbLine
 62
7
  6
CONTINUOUS
 10
50.1358125
 20
133.7502878402
 11
50.1358125
 21
143.0785694564
  0
LINE
  5
354
100
AcDbEntity
  8
0
100
AcDbLine
 62
7
  6
CONTINUOUS
 10
53.8731616305
 20
106.1759033301
 11
42.3347362886
 21
126.1610422614
  0
LINE
  5
355
100
AcDbEntity
  8
0
100
AcDbLine
 62
7
  6
CONTINUOUS
 10
57.3934589838
 20
107.0785694564
 11
45.4328125
 21
127.7950168577
  0
LINE
  5
356
100
AcDbEntity
  8
0
100
AcDbLine
 62
7
  6
CONTINUOUS
 10
56.0563440897
 20
111.5783417941
 11
46.5247232028
 21
128.0875934487
  0
LINE
  5
357
100
AcDbEntity
  8
2_FEATURE
100
AcDbLine
 62
7
  6
CONTINUOUS
 10
46.3546349843
 20
118.8500395291
 11
37.6508125
 21
123.8751937834
  0
LINE
  5
358
100
AcDbEntity
  8
2_FEATURE
100
AcDbLine
 62
7
  6
CONTINUOUS
 10
52.9773679338
 20
128.8285694564
 11
50.1358125
 21
133.7502878402
  0
LINE
  5
359
100
AcDbEntity
  8
0
100
AcDbLine
 62
7
  6
CONTINUOUS
 10
66.1078125
 20
110.6606396543
 11
66.1078125
 21
111.2964992585
  0
LINE
  5
35A
100
AcDbEntity
  8
0
100
AcDbLine
 62
7
  6
CONTINUOUS
 10
66.4078125
 20
112.0862133522
 11
66.4078125
 21
109.8709255606
  0
LINE
  5
35B
100
AcDbEntity
  8
0
100
AcDbLine
 62
7
  6
CONTINUOUS
 10
67.7578125
 20
109.3492561968
 11
67.7578125
 21
109.6117561968
  0
LINE
  5
35C
100
AcDbEntity
  8
0
100
AcDbLine
 62
7
  6
CONTINUOUS
 10
67.7578125
 20
112.3242558631
 11
67.7578125
 21
112.5430065306
  0
LINE
  5
35D
100
AcDbEntity
  8
DEFAULT_1
100
AcDbLine
 62
2
  6
CENTER
 10
68.1358125
 20
67.5785694564
 11
68.1358125
 21
152.0785694564
  0
LINE
  5
35E
100
AcDbEntity
  8
0
100
AcDbLine
 62
7
  6
CONTINUOUS
 10
68.3961103857
 20
111.9742561968
 11
68.3961103857
 21
111.75550603
  0
LINE
  5
35F
100
AcDbEntity
  8
0
100
AcDbLine
 62
7
  6
CONTINUOUS
 10
67.7578125
 20
111.3180061968
 11
67.8216422852
 21
111.62425603
  0
LINE
  5
360
100
AcDbEntity
  8
0
100
AcDbLine
 62
7
  6
CONTINUOUS
 10
68.0769614428
 20
111.5805061968
 11
68.0131316409
 21
111.2742563637
  0
LINE
  5
361
100
AcDbEntity
  8
0
100
AcDbLine
 62
7
  6
CONTINUOUS
 10
67.8216422852
 20
111.62425603
 11
67.9493018612
 21
111.7992563637
  0
LINE
  5
362
100
AcDbEntity
  8
0
100
AcDbLine
 62
7
  6
CONTINUOUS
 10
69.4173869491
 20
111.0117563637
 11
69.4812167287
 21
111.09925603
  0
LINE
  5
363
100
AcDbEntity
  8
0
100
AcDbLine
 62
7
  6
CONTINUOUS
 10
68.2046210021
 20
111.7117561968
 11
68.0769614428
 21
111.5805061968
  0
LINE
  5
364
100
AcDbEntity
  8
0
100
AcDbLine
 62
7
  6
CONTINUOUS
 10
69.6727060676
 20
110.9242561968
 11
69.5450465083
 21
110.7930061968
  0
LINE
  5
365
100
AcDbEntity
  8
0
100
AcDbLine
 62
7
  6
CONTINUOUS
 10
67.9493018612
 20
111.7992563637
 11
68.1407912225
 21
111.9305063637
  0
LINE
  5
366
100
AcDbEntity
  8
0
100
AcDbLine
 62
7
  6
CONTINUOUS
 10
69.2258976102
 20
110.8805063637
 11
69.4173869491
 21
111.0117563637
  0
LINE
  5
367
100
AcDbEntity
  8
0
100
AcDbLine
 62
7
  6
CONTINUOUS
 10
69.5450465083
 20
110.7930061968
 11
69.4173869491
 21
110.70550603
  0
LINE
  5
368
100
AcDbEntity
  8
0
100
AcDbLine
 62
7
  6
CONTINUOUS
 10
69.0982380509
 20
110.83675603
 11
69.2258976102
 21
110.8805063637
  0
LINE
  5
369
100
AcDbEntity
  8
0
100
AcDbLine
 62
7
  6
CONTINUOUS
 10
69.4173869491
 20
110.70550603
 11
69.1620678306
 21
110.6180063637
  0
LINE
  5
36A
100
AcDbEntity
  8
0
100
AcDbLine
 62
7
  6
CONTINUOUS
 10
69.8003656268
 20
109.9617563637
 11
68.2046210021
 21
109.4805061968
  0
LINE
  5
36B
100
AcDbEntity
  8
0
100
AcDbLine
 62
7
  6
CONTINUOUS
 10
67.7578125
 20
109.6117561968
 11
69.8003656268
 21
110.2242563637
  0
LINE
  5
36C
100
AcDbEntity
  8
DEFAULT_1
100
AcDbLine
 62
2
  6
CENTER
 10
61.9510877123
 20
109.8285694564
 11
74.776330503
 21
109.8285694564
  0
LINE
  5
36D
100
AcDbEntity
  8
0
100
AcDbLine
 62
7
  6
CONTINUOUS
 10
68.79464205
 20
109.0383422411
 11
67.7578125
 21
109.3492561968
  0
LINE
  5
36E
100
AcDbEntity
  8
0
100
AcDbLine
 62
7
  6
CONTINUOUS
 10
68.2046210021
 20
109.4805061968
 11
69.14617496
 21
109.1965491073
  0
LINE
  5
36F
100
AcDbEntity
  8
0
100
AcDbLine
 62
7
  6
CONTINUOUS
 10
67.8854720704
 20
110.9242561968
 11
67.8216422852
 21
111.0555061968
  0
LINE
  5
370
100
AcDbEntity
  8
0
100
AcDbLine
 62
7
  6
CONTINUOUS
 10
68.0131316409
 20
111.2742563637
 11
68.0769614428
 21
111.09925603
  0
LINE
  5
371
100
AcDbEntity
  8
0
100
AcDbLine
 62
7
  6
CONTINUOUS
 10
67.8216422852
 20
111.0555061968
 11
67.7578125
 21
111.3180061968
  0
LINE
  5
372
100
AcDbEntity
  8
0
100
AcDbLine
 62
7
  6
CONTINUOUS
 10
68.7790890634
 20
110.7930061968
 11
68.7790890634
 21
111.9742561968
  0
LINE
  5
373
100
AcDbEntity
  8
0
100
AcDbLine
 62
7
  6
CONTINUOUS
 10
69.0344082713
 20
111.75550603
 11
69.0344082713
 21
110.83675603
  0
LINE
  5
374
100
AcDbEntity
  8
0
100
AcDbLine
 62
7
  6
CONTINUOUS
 10
69.8003656268
 20
110.2242563637
 11
69.8003656268
 21
109.9617563637
  0
LINE
  5
375
100
AcDbEntity
  8
0
100
AcDbLine
 62
7
  6
CONTINUOUS
 10
69.8003656268
 20
111.3180061968
 11
69.7365358472
 21
111.0555061968
  0
LINE
  5
376
100
AcDbEntity
  8
0
100
AcDbLine
 62
7
  6
CONTINUOUS
 10
69.4812167287
 20
111.09925603
 11
69.5450465083
 21
111.2742563637
  0
LINE
  5
377
100
AcDbEntity
  8
0
100
AcDbLine
 62
7
  6
CONTINUOUS
 10
69.7365358472
 20
111.0555061968
 11
69.6727060676
 21
110.9242561968
  0
LINE
  5
378
100
AcDbEntity
  8
0
100
AcDbLine
 62
7
  6
CONTINUOUS
 10
83.2882570662
 20
128.8285694564
 11
86.1298125
 21
133.7502878402
  0
LINE
  5
379
100
AcDbEntity
  8
0
100
AcDbLine
 62
7
  6
CONTINUOUS
 10
98.6148125
 20
123.8751937834
 11
89.9109900157
 21
118.8500395291
  0
LINE
  5
37A
100
AcDbEntity
  8
0
100
AcDbLine
 62
7
  6
CONTINUOUS
 10
68.3961103857
 20
111.75550603
 11
68.2046210021
 21
111.7117561968
  0
LINE
  5
37B
100
AcDbEntity
  8
0
100
AcDbLine
 62
7
  6
CONTINUOUS
 10
68.1407912225
 20
111.9305063637
 11
68.3961103857
 21
111.9742561968
  0
LINE
  5
37C
100
AcDbEntity
  8
0
100
AcDbLine
 62
7
  6
CONTINUOUS
 10
69.1620678306
 20
110.6180063637
 11
68.7790890634
 21
110.57425603
  0
LINE
  5
37D
100
AcDbEntity
  8
0
100
AcDbLine
 62
7
  6
CONTINUOUS
 10
68.6514295042
 20
110.7930061968
 11
68.7790890634
 21
110.7930061968
  0
LINE
  5
37E
100
AcDbEntity
  8
0
100
AcDbLine
 62
7
  6
CONTINUOUS
 10
69.0344082713
 20
110.83675603
 11
69.0982380509
 21
110.83675603
  0
LINE
  5
37F
100
AcDbEntity
  8
0
100
AcDbLine
 62
7
  6
CONTINUOUS
 10
69.1620678306
 20
111.75550603
 11
69.0344082713
 21
111.75550603
  0
LINE
  5
380
100
AcDbEntity
  8
0
100
AcDbLine
 62
7
  6
CONTINUOUS
 10
68.7790890634
 20
111.9742561968
 11
69.0344082713
 21
111.9742561968
  0
LINE
  5
381
100
AcDbEntity
  8
0
100
AcDbLine
 62
7
  6
CONTINUOUS
 10
69.6793014573
 20
112.3242558631
 11
67.7578125
 21
112.3242558631
  0
LINE
  5
382
100
AcDbEntity
  8
0
100
AcDbLine
 62
7
  6
CONTINUOUS
 10
67.7578125
 20
112.5430065306
 11
69.457590459
 21
112.5430065306
  0
LINE
  5
383
100
AcDbEntity
  8
0
100
AcDbLine
 62
7
  6
CONTINUOUS
 10
68.7790890634
 20
110.57425603
 11
68.3961103857
 21
110.6180063637
  0
LINE
  5
384
100
AcDbEntity
  8
0
100
AcDbLine
 62
7
  6
CONTINUOUS
 10
69.0344082713
 20
111.9742561968
 11
69.2897273898
 21
111.9305063637
  0
LINE
  5
385
100
AcDbEntity
  8
0
100
AcDbLine
 62
7
  6
CONTINUOUS
 10
68.4599401653
 20
110.83675603
 11
68.6514295042
 21
110.7930061968
  0
LINE
  5
386
100
AcDbEntity
  8
0
100
AcDbLine
 62
7
  6
CONTINUOUS
 10
68.3961103857
 20
110.6180063637
 11
68.1407912225
 21
110.70550603
  0
LINE
  5
387
100
AcDbEntity
  8
0
100
AcDbLine
 62
7
  6
CONTINUOUS
 10
68.332280606
 20
110.8805063637
 11
68.4599401653
 21
110.83675603
  0
LINE
  5
388
100
AcDbEntity
  8
0
100
AcDbLine
 62
7
  6
CONTINUOUS
 10
69.3535571694
 20
111.6680063637
 11
69.1620678306
 21
111.75550603
  0
LINE
  5
389
100
AcDbEntity
  8
0
100
AcDbLine
 62
7
  6
CONTINUOUS
 10
69.2897273898
 20
111.9305063637
 11
69.5450465083
 21
111.7992563637
  0
LINE
  5
38A
100
AcDbEntity
  8
0
100
AcDbLine
 62
7
  6
CONTINUOUS
 10
68.1407912225
 20
110.70550603
 11
68.0131316409
 21
110.7930061968
  0
LINE
  5
38B
100
AcDbEntity
  8
0
100
AcDbLine
 62
7
  6
CONTINUOUS
 10
68.1407912225
 20
111.0117563637
 11
68.332280606
 21
110.8805063637
  0
LINE
  5
38C
100
AcDbEntity
  8
0
100
AcDbLine
 62
7
  6
CONTINUOUS
 10
68.0131316409
 20
110.7930061968
 11
67.8854720704
 21
110.9242561968
  0
LINE
  5
38D
100
AcDbEntity
  8
0
100
AcDbLine
 62
7
  6
CONTINUOUS
 10
69.4812167287
 20
111.5367563637
 11
69.3535571694
 21
111.6680063637
  0
LINE
  5
38E
100
AcDbEntity
  8
0
100
AcDbLine
 62
7
  6
CONTINUOUS
 10
69.5450465083
 20
111.7992563637
 11
69.7365358472
 21
111.5805061968
  0
LINE
  5
38F
100
AcDbEntity
  8
0
100
AcDbLine
 62
7
  6
CONTINUOUS
 10
68.0769614428
 20
111.09925603
 11
68.1407912225
 21
111.0117563637
  0
LINE
  5
390
100
AcDbEntity
  8
0
100
AcDbLine
 62
7
  6
CONTINUOUS
 10
69.5450465083
 20
111.2742563637
 11
69.4812167287
 21
111.5367563637
  0
LINE
  5
391
100
AcDbEntity
  8
0
100
AcDbLine
 62
7
  6
CONTINUOUS
 10
69.7365358472
 20
111.5805061968
 11
69.8003656268
 21
111.3180061968
  0
LINE
  5
392
100
AcDbEntity
  8
0
100
AcDbLine
 62
7
  6
CONTINUOUS
 10
80.2092809103
 20
111.5783417941
 11
89.7409017972
 21
128.0875934487
  0
LINE
  5
393
100
AcDbEntity
  8
0
100
AcDbLine
 62
7
  6
CONTINUOUS
 10
78.8721660162
 20
107.0785694564
 11
90.8328125
 21
127.7950168577
  0
LINE
  5
394
100
AcDbEntity
  8
0
100
AcDbLine
 62
7
  6
CONTINUOUS
 10
82.3924633695
 20
106.1759033301
 11
93.9308887114
 21
126.1610422614
  0
LINE
  5
395
100
AcDbEntity
  8
0
100
AcDbLine
 62
7
  6
CONTINUOUS
 10
86.1298125
 20
133.7502878402
 11
86.1298125
 21
143.0785694564
  0
LINE
  5
396
100
AcDbEntity
  8
0
100
AcDbLine
 62
7
  6
CONTINUOUS
 10
89.7409017972
 20
137.5785694564
 11
89.7409017972
 21
128.0875934487
  0
LINE
  5
397
100
AcDbEntity
  8
0
100
AcDbLine
 62
7
  6
CONTINUOUS
 10
90.8328125
 20
127.7950168577
 11
90.8328125
 21
138.5785694564
  0
LINE
  5
398
100
AcDbEntity
  8
0
100
AcDbLine
 62
7
  6
CONTINUOUS
 10
46.5247232028
 20
128.0875934487
 11
45.4328125
 21
127.7950168577
  0
LINE
  5
399
100
AcDbEntity
  8
0
100
AcDbLine
 62
7
  6
CONTINUOUS
 10
89.7409017972
 20
128.0875934487
 11
90.8328125
 21
127.7950168577
  0
LINE
  5
39A
100
AcDbEntity
  8
0
100
AcDbLine
 62
7
  6
CONTINUOUS
 10
94.3328125
 20
127.6610422614
 11
94.3328125
 21
148.7777440458
  0
LINE
  5
39B
100
AcDbEntity
  8
0
100
AcDbLine
 62
7
  6
CONTINUOUS
 10
99.1148125
 20
136.5785694564
 11
95.6328125
 21
136.5785694564
  0
LINE
  5
39C
100
AcDbEntity
  8
2_FEATURE
100
AcDbLine
 62
7
  6
CONTINUOUS
 10
37.1508125
 20
136.5785694564
 11
40.6328125
 21
136.5785694564
  0
LINE
  5
39D
100
AcDbEntity
  8
1_AXIS
100
AcDbLine
 62
2
  6
CENTER
 10
30.3966648433
 20
137.5785694564
 11
105.9006648433
 21
137.5785694564
  0
LINE
  5
39E
100
AcDbEntity
  8
0
100
AcDbLine
 62
7
  6
CONTINUOUS
 10
101.1148125
 20
128.2053208023
 11
101.1148125
 21
134.5785694564
  0
LINE
  5
39F
100
AcDbEntity
  8
0
100
AcDbLine
 62
7
  6
CONTINUOUS
 10
42.4328125
 20
141.5785694564
 11
41.9328125
 21
141.5785694564
  0
LINE
  5
3A0
100
AcDbEntity
  8
0
100
AcDbLine
 62
7
  6
CONTINUOUS
 10
93.8328125
 20
141.5785694564
 11
94.3328125
 21
141.5785694564
  0
LINE
  5
3A1
100
AcDbEntity
  8
2_FEATURE
100
AcDbLine
 62
7
  6
CONTINUOUS
 10
35.1508125
 20
178.5013973342
 11
35.1508125
 21
175.1057153965
  0
LINE
  5
3A2
100
AcDbEntity
  8
0
100
AcDbLine
 62
7
  6
CONTINUOUS
 10
41.9328125
 20
179.805701098
 11
41.9328125
 21
196.645087442
  0
LINE
  5
3A3
100
AcDbEntity
  8
0
100
AcDbLine
 62
7
  6
CONTINUOUS
 10
43.2109561365
 20
185.8739752283
 11
43.2109561365
 21
184.8339752283
  0
LINE
  5
3A4
100
AcDbEntity
  8
0
100
AcDbLine
 62
7
  6
CONTINUOUS
 10
43.3841612172
 20
185.8739752283
 11
43.3841612172
 21
184.8339752283
  0
LINE
  5
3A5
100
AcDbEntity
  8
0
100
AcDbLine
 62
7
  6
CONTINUOUS
 10
43.5509561365
 20
184.7939752283
 11
43.5509561365
 21
185.8739752283
  0
LINE
  5
3A6
100
AcDbEntity
  8
0
100
AcDbLine
 62
7
  6
CONTINUOUS
 10
44.0109561365
 20
185.8739752283
 11
44.0109561365
 21
184.9939752283
  0
LINE
  5
3A7
100
AcDbEntity
  8
0
100
AcDbLine
 62
7
  6
CONTINUOUS
 10
44.0109561365
 20
184.3539752283
 11
44.0109561365
 21
184.0339752283
  0
LINE
  5
3A8
100
AcDbEntity
  8
0
100
AcDbLine
 62
7
  6
CONTINUOUS
 10
44.1841612172
 20
185.8739752283
 11
44.1841612172
 21
184.9939752283
  0
LINE
  5
3A9
100
AcDbEntity
  8
0
100
AcDbLine
 62
7
  6
CONTINUOUS
 10
44.1841612172
 20
184.3539752283
 11
44.1841612172
 21
184.0339752283
  0
LINE
  5
3AA
100
AcDbEntity
  8
0
100
AcDbLine
 62
7
  6
CONTINUOUS
 10
44.3509561365
 20
184.0339752283
 11
44.3509561365
 21
185.8739752283
  0
LINE
  5
3AB
100
AcDbEntity
  8
0
100
AcDbLine
 62
7
  6
CONTINUOUS
 10
44.4309561365
 20
185.8739752283
 11
44.4309561365
 21
184.0339752283
  0
LINE
  5
3AC
100
AcDbEntity
  8
0
100
AcDbLine
 62
7
  6
CONTINUOUS
 10
44.6041612172
 20
185.8739752283
 11
44.6041612172
 21
184.0339752283
  0
LINE
  5
3AD
100
AcDbEntity
  8
0
100
AcDbLine
 62
7
  6
CONTINUOUS
 10
44.7709561365
 20
184.0339752283
 11
44.7709561365
 21
184.9139752283
  0
LINE
  5
3AE
100
AcDbEntity
  8
0
100
AcDbLine
 62
7
  6
CONTINUOUS
 10
44.7709561365
 20
185.5539752283
 11
44.7709561365
 21
185.8739752283
  0
LINE
  5
3AF
100
AcDbEntity
  8
0
100
AcDbLine
 62
7
  6
CONTINUOUS
 10
46.5247232028
 20
198.8057153965
 11
45.4328125
 21
195.8057153965
  0
LINE
  5
3B0
100
AcDbEntity
  8
0
100
AcDbLine
 62
7
  6
CONTINUOUS
 10
45.2309561365
 20
185.1139752283
 11
45.2309561365
 21
184.0339752283
  0
LINE
  5
3B1
100
AcDbEntity
  8
0
100
AcDbLine
 62
7
  6
CONTINUOUS
 10
45.4041612172
 20
185.1139752283
 11
45.4041612172
 21
184.0339752283
  0
LINE
  5
3B2
100
AcDbEntity
  8
0
100
AcDbLine
 62
7
  6
CONTINUOUS
 10
45.5709561365
 20
184.0339752283
 11
45.5709561365
 21
185.0739752283
  0
LINE
  5
3B3
100
AcDbEntity
  8
0
100
AcDbLine
 62
7
  6
CONTINUOUS
 10
45.6509561365
 20
185.8739752283
 11
45.6509561365
 21
184.0339752283
  0
LINE
  5
3B4
100
AcDbEntity
  8
0
100
AcDbLine
 62
7
  6
CONTINUOUS
 10
45.8241612172
 20
185.8739752283
 11
45.8241612172
 21
184.0339752283
  0
LINE
  5
3B5
100
AcDbEntity
  8
0
100
AcDbLine
 62
7
  6
CONTINUOUS
 10
45.9909561365
 20
184.0339752283
 11
45.9909561365
 21
185.8739752283
  0
LINE
  5
3B6
100
AcDbEntity
  8
0
100
AcDbLine
 62
7
  6
CONTINUOUS
 10
47.1339248831
 20
184.4807837304
 11
47.1339248831
 21
184.5765283998
  0
LINE
  5
3B7
100
AcDbEntity
  8
0
100
AcDbLine
 62
7
  6
CONTINUOUS
 10
46.9909561365
 20
184.54461351
 11
47.0195498873
 21
184.3531241711
  0
LINE
  5
3B8
100
AcDbEntity
  8
0
100
AcDbLine
 62
7
  6
CONTINUOUS
 10
48.1347061092
 20
185.5339752283
 11
48.1347061092
 21
184.0339752283
  0
LINE
  5
3B9
100
AcDbEntity
  8
0
100
AcDbLine
 62
7
  6
CONTINUOUS
 10
48.2776748865
 20
184.0339752283
 11
48.2776748865
 21
184.7680177834
  0
LINE
  5
3BA
100
AcDbEntity
  8
0
100
AcDbLine
 62
7
  6
CONTINUOUS
 10
48.2776748865
 20
184.8956773427
 11
48.2776748865
 21
185.5339752283
  0
LINE
  5
3BB
100
AcDbEntity
  8
0
100
AcDbLine
 62
7
  6
CONTINUOUS
 10
48.30791119
 20
184.8956773427
 11
48.30791119
 21
184.8017659918
  0
LINE
  5
3BC
100
AcDbEntity
  8
0
100
AcDbLine
 62
7
  6
CONTINUOUS
 10
48.7923623865
 20
184.672273114
 11
48.7923623865
 21
184.0339752283
  0
LINE
  5
3BD
100
AcDbEntity
  8
0
100
AcDbLine
 62
7
  6
CONTINUOUS
 10
48.9353310819
 20
184.0339752283
 11
48.9353310819
 21
184.672273114
  0
LINE
  5
3BE
100
AcDbEntity
  8
0
100
AcDbLine
 62
7
  6
CONTINUOUS
 10
49.164081191
 20
184.8637624529
 11
49.164081191
 21
184.7999326732
  0
LINE
  5
3BF
100
AcDbEntity
  8
0
100
AcDbLine
 62
7
  6
CONTINUOUS
 10
49.164081191
 20
184.4169539508
 11
49.164081191
 21
184.3212092813
  0
LINE
  5
3C0
100
AcDbEntity
  8
0
100
AcDbLine
 62
7
  6
CONTINUOUS
 10
49.3070498865
 20
184.2892943692
 11
49.3070498865
 21
184.3531241711
  0
LINE
  5
3C1
100
AcDbEntity
  8
0
100
AcDbLine
 62
7
  6
CONTINUOUS
 10
47.0195498873
 20
184.7361028936
 11
46.9909561365
 21
184.54461351
  0
LINE
  5
3C2
100
AcDbEntity
  8
0
100
AcDbLine
 62
7
  6
CONTINUOUS
 10
47.1339248831
 20
184.5765283998
 11
47.1625186365
 21
184.7041880038
  0
LINE
  5
3C3
100
AcDbEntity
  8
0
100
AcDbLine
 62
7
  6
CONTINUOUS
 10
47.8773623592
 20
184.2254645895
 11
47.9059561637
 21
184.3531241711
  0
LINE
  5
3C4
100
AcDbEntity
  8
0
100
AcDbLine
 62
7
  6
CONTINUOUS
 10
47.7629873865
 20
184.3531241711
 11
47.7343936637
 21
184.2573794794
  0
LINE
  5
3C5
100
AcDbEntity
  8
0
100
AcDbLine
 62
7
  6
CONTINUOUS
 10
47.0767373865
 20
184.8637624529
 11
47.0195498873
 21
184.7361028936
  0
LINE
  5
3C6
100
AcDbEntity
  8
0
100
AcDbLine
 62
7
  6
CONTINUOUS
 10
47.0195498873
 20
184.3531241711
 11
47.0767373865
 21
184.2254645895
  0
LINE
  5
3C7
100
AcDbEntity
  8
0
100
AcDbLine
 62
7
  6
CONTINUOUS
 10
47.2229913025
 20
184.2856276404
 11
47.2499424672
 21
184.2254645895
  0
LINE
  5
3C8
100
AcDbEntity
  8
0
100
AcDbLine
 62
7
  6
CONTINUOUS
 10
47.1911123797
 20
184.3212092813
 11
47.1339248831
 21
184.4807837304
  0
LINE
  5
3C9
100
AcDbEntity
  8
0
100
AcDbLine
 62
7
  6
CONTINUOUS
 10
47.7343936637
 20
184.831847563
 11
47.7629873865
 21
184.7361028936
  0
LINE
  5
3CA
100
AcDbEntity
  8
0
100
AcDbLine
 62
7
  6
CONTINUOUS
 10
47.9059561637
 20
184.7361028936
 11
47.8773623592
 21
184.8637624529
  0
LINE
  5
3CB
100
AcDbEntity
  8
0
100
AcDbLine
 62
7
  6
CONTINUOUS
 10
48.7637685819
 20
184.7999326732
 11
48.7923623865
 21
184.672273114
  0
LINE
  5
3CC
100
AcDbEntity
  8
0
100
AcDbLine
 62
7
  6
CONTINUOUS
 10
49.164081191
 20
184.3212092813
 11
49.1926748319
 21
184.1935496997
  0
LINE
  5
3CD
100
AcDbEntity
  8
0
100
AcDbLine
 62
7
  6
CONTINUOUS
 10
49.3620297519
 20
184.2107391832
 11
49.3658799127
 21
184.1935496997
  0
LINE
  5
3CE
100
AcDbEntity
  8
0
100
AcDbLine
 62
7
  6
CONTINUOUS
 10
48.9353310819
 20
184.672273114
 11
48.906737441
 21
184.831847563
  0
LINE
  5
3CF
100
AcDbEntity
  8
0
100
AcDbLine
 62
7
  6
CONTINUOUS
 10
49.8789249956
 20
184.7999326732
 11
49.8789249956
 21
184.7041880038
  0
LINE
  5
3D0
100
AcDbEntity
  8
0
100
AcDbLine
 62
7
  6
CONTINUOUS
 10
49.8789249956
 20
184.5765283998
 11
49.8789249956
 21
184.385039061
  0
LINE
  5
3D1
100
AcDbEntity
  8
0
100
AcDbLine
 62
7
  6
CONTINUOUS
 10
50.0218935274
 20
184.2892943692
 11
50.0218935274
 21
184.7999326732
  0
LINE
  5
3D2
100
AcDbEntity
  8
2_FEATURE
100
AcDbLine
 62
7
  6
CONTINUOUS
 10
50.1328125
 20
178.8057153965
 11
50.1328125
 21
181.1057153965
  0
LINE
  5
3D3
100
AcDbEntity
  8
2_FEATURE
100
AcDbLine
 62
7
  6
CONTINUOUS
 10
50.1328125
 20
191.5057153965
 11
50.1328125
 21
193.8057153965
  0
LINE
  5
3D4
100
AcDbEntity
  8
0
100
AcDbLine
 62
7
  6
CONTINUOUS
 10
50.3078312456
 20
185.5339752283
 11
50.3078312456
 21
185.3744007793
  0
LINE
  5
3D5
100
AcDbEntity
  8
0
100
AcDbLine
 62
7
  6
CONTINUOUS
 10
50.3078312456
 20
185.0552517917
 11
50.3078312456
 21
184.0339752283
  0
LINE
  5
3D6
100
AcDbEntity
  8
0
100
AcDbLine
 62
7
  6
CONTINUOUS
 10
50.4507997774
 20
184.0339752283
 11
50.4507997774
 21
185.0552517917
  0
LINE
  5
3D7
100
AcDbEntity
  8
0
100
AcDbLine
 62
7
  6
CONTINUOUS
 10
50.4507997774
 20
185.3744007793
 11
50.4507997774
 21
185.5339752283
  0
LINE
  5
3D8
100
AcDbEntity
  8
0
100
AcDbLine
 62
7
  6
CONTINUOUS
 10
50.6795498865
 20
185.0552517917
 11
50.6795498865
 21
184.0339752283
  0
LINE
  5
3D9
100
AcDbEntity
  8
0
100
AcDbLine
 62
7
  6
CONTINUOUS
 10
50.8225187456
 20
184.0339752283
 11
50.8225187456
 21
184.7680177834
  0
LINE
  5
3DA
100
AcDbEntity
  8
0
100
AcDbLine
 62
7
  6
CONTINUOUS
 10
50.8225187456
 20
184.8956773427
 11
50.8225187456
 21
185.0552517917
  0
LINE
  5
3DB
100
AcDbEntity
  8
0
100
AcDbLine
 62
7
  6
CONTINUOUS
 10
50.8527549672
 20
184.8956773427
 11
50.8527549672
 21
184.8017660453
  0
LINE
  5
3DC
100
AcDbEntity
  8
0
100
AcDbLine
 62
7
  6
CONTINUOUS
 10
51.3372062456
 20
184.6403582242
 11
51.3372062456
 21
184.0339752283
  0
LINE
  5
3DD
100
AcDbEntity
  8
0
100
AcDbLine
 62
7
  6
CONTINUOUS
 10
51.4801747774
 20
184.0339752283
 11
51.4801747774
 21
184.6403582242
  0
LINE
  5
3DE
100
AcDbEntity
  8
0
100
AcDbLine
 62
7
  6
CONTINUOUS
 10
51.7089248865
 20
184.8637624529
 11
51.7089248865
 21
184.7999326732
  0
LINE
  5
3DF
100
AcDbEntity
  8
0
100
AcDbLine
 62
7
  6
CONTINUOUS
 10
49.3070498865
 20
184.3531241711
 11
49.335643691
 21
184.4488688406
  0
LINE
  5
3E0
100
AcDbEntity
  8
0
100
AcDbLine
 62
7
  6
CONTINUOUS
 10
47.1625186365
 20
184.7041880038
 11
47.1911123797
 21
184.7680177834
  0
LINE
  5
3E1
100
AcDbEntity
  8
0
100
AcDbLine
 62
7
  6
CONTINUOUS
 10
47.2499424672
 20
184.8637624529
 11
47.2229913056
 21
184.8035994196
  0
LINE
  5
3E2
100
AcDbEntity
  8
0
100
AcDbLine
 62
7
  6
CONTINUOUS
 10
49.1926748319
 20
184.9275922325
 11
49.164081191
 21
184.8637624529
  0
LINE
  5
3E3
100
AcDbEntity
  8
0
100
AcDbLine
 62
7
  6
CONTINUOUS
 10
49.3070498865
 20
184.7999326732
 11
49.335643691
 21
184.8637624529
  0
LINE
  5
3E4
100
AcDbEntity
  8
0
100
AcDbLine
 62
7
  6
CONTINUOUS
 10
49.3658799127
 20
184.9275922325
 11
49.3378337966
 21
184.8649846963
  0
LINE
  5
3E5
100
AcDbEntity
  8
0
100
AcDbLine
 62
7
  6
CONTINUOUS
 10
49.2212686365
 20
184.54461351
 11
49.164081191
 21
184.4169539508
  0
LINE
  5
3E6
100
AcDbEntity
  8
0
100
AcDbLine
 62
7
  6
CONTINUOUS
 10
49.3944737172
 20
184.54461351
 11
49.3675225753
 21
184.4844504641
  0
LINE
  5
3E7
100
AcDbEntity
  8
0
100
AcDbLine
 62
7
  6
CONTINUOUS
 10
47.0767373865
 20
184.2254645895
 11
47.1339248831
 21
184.1616347987
  0
LINE
  5
3E8
100
AcDbEntity
  8
0
100
AcDbLine
 62
7
  6
CONTINUOUS
 10
47.2499424672
 20
184.2254645895
 11
47.3071299638
 21
184.1616347987
  0
LINE
  5
3E9
100
AcDbEntity
  8
0
100
AcDbLine
 62
7
  6
CONTINUOUS
 10
47.2768936297
 20
184.2254645895
 11
47.1911123797
 21
184.3212092813
  0
LINE
  5
3EA
100
AcDbEntity
  8
0
100
AcDbLine
 62
7
  6
CONTINUOUS
 10
48.906737441
 20
184.831847563
 11
48.8781436365
 21
184.8956773427
  0
LINE
  5
3EB
100
AcDbEntity
  8
0
100
AcDbLine
 62
7
  6
CONTINUOUS
 10
49.335643691
 20
184.2254645895
 11
49.3070498865
 21
184.2892943692
  0
LINE
  5
3EC
100
AcDbEntity
  8
0
100
AcDbLine
 62
7
  6
CONTINUOUS
 10
49.9075186365
 20
184.0978050135
 11
49.9361122774
 21
184.0339752283
  0
LINE
  5
3ED
100
AcDbEntity
  8
0
100
AcDbLine
 62
7
  6
CONTINUOUS
 10
49.8503310274
 20
184.8637624529
 11
49.8789249956
 21
184.7999326732
  0
LINE
  5
3EE
100
AcDbEntity
  8
0
100
AcDbLine
 62
7
  6
CONTINUOUS
 10
49.8789249956
 20
184.1935496997
 11
49.9075186365
 21
184.0978050135
  0
LINE
  5
3EF
100
AcDbEntity
  8
0
100
AcDbLine
 62
7
  6
CONTINUOUS
 10
50.0790811365
 20
184.0339752283
 11
50.0504874956
 21
184.1297199089
  0
LINE
  5
3F0
100
AcDbEntity
  8
0
100
AcDbLine
 62
7
  6
CONTINUOUS
 10
50.0218935274
 20
184.7999326732
 11
49.9932998865
 21
184.8956773427
  0
LINE
  5
3F1
100
AcDbEntity
  8
0
100
AcDbLine
 62
7
  6
CONTINUOUS
 10
51.4515811365
 20
184.7999326732
 11
51.4229874956
 21
184.8956773427
  0
LINE
  5
3F2
100
AcDbEntity
  8
0
100
AcDbLine
 62
7
  6
CONTINUOUS
 10
50.0504874956
 20
184.1297199089
 11
50.0218935274
 21
184.2892943692
  0
LINE
  5
3F3
100
AcDbEntity
  8
0
100
AcDbLine
 62
7
  6
CONTINUOUS
 10
51.3086122774
 20
184.7999326732
 11
51.3372062456
 21
184.6403582242
  0
LINE
  5
3F4
100
AcDbEntity
  8
0
100
AcDbLine
 62
7
  6
CONTINUOUS
 10
51.4801747774
 20
184.6403582242
 11
51.4515811365
 21
184.7999326732
  0
LINE
  5
3F5
100
AcDbEntity
  8
0
100
AcDbLine
 62
7
  6
CONTINUOUS
 10
52.6239246683
 20
184.2254645895
 11
52.6239246683
 21
184.2892943692
  0
LINE
  5
3F6
100
AcDbEntity
  8
0
100
AcDbLine
 62
7
  6
CONTINUOUS
 10
49.8789249956
 20
184.385039061
 11
49.8503310274
 21
184.3212092813
  0
LINE
  5
3F7
100
AcDbEntity
  8
0
100
AcDbLine
 62
7
  6
CONTINUOUS
 10
49.8503310274
 20
184.1297199089
 11
49.8789249956
 21
184.1935496997
  0
LINE
  5
3F8
100
AcDbEntity
  8
0
100
AcDbLine
 62
7
  6
CONTINUOUS
 10
51.8518937456
 20
184.7999326732
 11
51.8804873865
 21
184.8637624529
  0
LINE
  5
3F9
100
AcDbEntity
  8
0
100
AcDbLine
 62
7
  6
CONTINUOUS
 10
47.1339248831
 20
184.9275922325
 11
47.0767373865
 21
184.8637624529
  0
LINE
  5
3FA
100
AcDbEntity
  8
0
100
AcDbLine
 62
7
  6
CONTINUOUS
 10
47.3071299638
 20
184.9275922325
 11
47.2499424672
 21
184.8637624529
  0
LINE
  5
3FB
100
AcDbEntity
  8
0
100
AcDbLine
 62
7
  6
CONTINUOUS
 10
47.1911123797
 20
184.7680177834
 11
47.2768936297
 21
184.8637624529
  0
LINE
  5
3FC
100
AcDbEntity
  8
0
100
AcDbLine
 62
7
  6
CONTINUOUS
 10
48.3348624137
 20
184.9595071223
 11
48.2776748865
 21
184.8956773427
  0
LINE
  5
3FD
100
AcDbEntity
  8
0
100
AcDbLine
 62
7
  6
CONTINUOUS
 10
47.1339248831
 20
184.1616347987
 11
47.2197061433
 21
184.0978050135
  0
LINE
  5
3FE
100
AcDbEntity
  8
0
100
AcDbLine
 62
7
  6
CONTINUOUS
 10
47.3071299638
 20
184.1616347987
 11
47.3929112241
 21
184.0978050135
  0
LINE
  5
3FF
100
AcDbEntity
  8
0
100
AcDbLine
 62
7
  6
CONTINUOUS
 10
47.8773623592
 20
184.8637624529
 11
47.7915811092
 21
184.9595071223
  0
LINE
  5
400
100
AcDbEntity
  8
0
100
AcDbLine
 62
7
  6
CONTINUOUS
 10
49.1926748319
 20
184.1935496997
 11
49.2784560819
 21
184.0978050135
  0
LINE
  5
401
100
AcDbEntity
  8
0
100
AcDbLine
 62
7
  6
CONTINUOUS
 10
48.7065811365
 20
184.8637624529
 11
48.7637685819
 21
184.7999326732
  0
LINE
  5
402
100
AcDbEntity
  8
0
100
AcDbLine
 62
7
  6
CONTINUOUS
 10
49.3658799127
 20
184.1935496997
 11
49.4516611627
 21
184.0978050135
  0
LINE
  5
403
100
AcDbEntity
  8
0
100
AcDbLine
 62
7
  6
CONTINUOUS
 10
48.8797862172
 20
184.8637624529
 11
48.9050949327
 21
184.8355141246
  0
LINE
  5
404
100
AcDbEntity
  8
0
100
AcDbLine
 62
7
  6
CONTINUOUS
 10
48.8781436365
 20
184.8956773427
 11
48.820956191
 21
184.9595071223
  0
LINE
  5
405
100
AcDbEntity
  8
0
100
AcDbLine
 62
7
  6
CONTINUOUS
 10
49.9932998865
 20
184.8956773427
 11
49.9361122774
 21
184.9595071223
  0
LINE
  5
406
100
AcDbEntity
  8
0
100
AcDbLine
 62
7
  6
CONTINUOUS
 10
51.7089248865
 20
184.2892943692
 11
51.7661124956
 21
184.1616347987
  0
LINE
  5
407
100
AcDbEntity
  8
0
100
AcDbLine
 62
7
  6
CONTINUOUS
 10
51.8804873865
 20
184.2254645895
 11
51.8518937456
 21
184.2892943692
  0
LINE
  5
408
100
AcDbEntity
  8
0
100
AcDbLine
 62
7
  6
CONTINUOUS
 10
51.9208025624
 20
184.2029657578
 11
51.9393175763
 21
184.1616347987
  0
LINE
  5
409
100
AcDbEntity
  8
0
100
AcDbLine
 62
7
  6
CONTINUOUS
 10
51.7089248865
 20
184.7999326732
 11
51.7661124956
 21
184.672273114
  0
LINE
  5
40A
100
AcDbEntity
  8
0
100
AcDbLine
 62
7
  6
CONTINUOUS
 10
51.8804873865
 20
184.7361028936
 11
51.8518937456
 21
184.7999326732
  0
LINE
  5
40B
100
AcDbEntity
  8
0
100
AcDbLine
 62
7
  6
CONTINUOUS
 10
51.9258420077
 20
184.7023545456
 11
51.9393175763
 21
184.672273114
  0
LINE
  5
40C
100
AcDbEntity
  8
0
100
AcDbLine
 62
7
  6
CONTINUOUS
 10
52.4523624956
 20
184.3531241711
 11
52.4809561365
 21
184.2892943692
  0
LINE
  5
40D
100
AcDbEntity
  8
0
100
AcDbLine
 62
7
  6
CONTINUOUS
 10
52.6239246683
 20
184.2892943692
 11
52.5667373865
 21
184.4169539508
  0
LINE
  5
40E
100
AcDbEntity
  8
0
100
AcDbLine
 62
7
  6
CONTINUOUS
 10
52.4523624956
 20
184.8637624529
 11
52.4809561365
 21
184.7999326732
  0
LINE
  5
40F
100
AcDbEntity
  8
0
100
AcDbLine
 62
7
  6
CONTINUOUS
 10
52.6239246683
 20
184.7999326732
 11
52.5667373865
 21
184.9275922325
  0
LINE
  5
410
100
AcDbEntity
  8
2_FEATURE
100
AcDbLine
 62
7
  6
CONTINUOUS
 10
53.3774125146
 20
184.1737232983
 11
53.3473598552
 21
184.0812050671
  0
LINE
  5
411
100
AcDbEntity
  8
0
100
AcDbLine
 62
7
  6
CONTINUOUS
 10
52.4809561365
 20
184.2892943692
 11
52.4523624956
 21
184.2254645895
  0
LINE
  5
412
100
AcDbEntity
  8
0
100
AcDbLine
 62
7
  6
CONTINUOUS
 10
51.7661124956
 20
184.9595071223
 11
51.7089248865
 21
184.8637624529
  0
LINE
  5
413
100
AcDbEntity
  8
0
100
AcDbLine
 62
7
  6
CONTINUOUS
 10
51.9393175763
 20
184.9595071223
 11
51.8829512576
 21
184.8651374741
  0
LINE
  5
414
100
AcDbEntity
  8
0
100
AcDbLine
 62
7
  6
CONTINUOUS
 10
52.5667373865
 20
184.1297199089
 11
52.6239246683
 21
184.2254645895
  0
LINE
  5
415
100
AcDbEntity
  8
0
100
AcDbLine
 62
7
  6
CONTINUOUS
 10
48.2776748865
 20
184.7680177834
 11
48.3348624137
 21
184.831847563
  0
LINE
  5
416
100
AcDbEntity
  8
0
100
AcDbLine
 62
7
  6
CONTINUOUS
 10
48.5080674945
 20
184.9595071223
 11
48.4609587623
 21
184.9069267759
  0
LINE
  5
417
100
AcDbEntity
  8
0
100
AcDbLine
 62
7
  6
CONTINUOUS
 10
47.7915811092
 20
184.1297199089
 11
47.8773623592
 21
184.2254645895
  0
LINE
  5
418
100
AcDbEntity
  8
0
100
AcDbLine
 62
7
  6
CONTINUOUS
 10
49.249862441
 20
184.9914220121
 11
49.1926748319
 21
184.9275922325
  0
LINE
  5
419
100
AcDbEntity
  8
0
100
AcDbLine
 62
7
  6
CONTINUOUS
 10
49.4230675218
 20
184.9914220121
 11
49.3658799127
 21
184.9275922325
  0
LINE
  5
41A
100
AcDbEntity
  8
0
100
AcDbLine
 62
7
  6
CONTINUOUS
 10
49.2784560819
 20
184.6084433344
 11
49.2212686365
 21
184.54461351
  0
LINE
  5
41B
100
AcDbEntity
  8
0
100
AcDbLine
 62
7
  6
CONTINUOUS
 10
49.4516611627
 20
184.6084433344
 11
49.3944737172
 21
184.54461351
  0
LINE
  5
41C
100
AcDbEntity
  8
0
100
AcDbLine
 62
7
  6
CONTINUOUS
 10
49.335643691
 20
184.4488688406
 11
49.3928311365
 21
184.5126986202
  0
LINE
  5
41D
100
AcDbEntity
  8
0
100
AcDbLine
 62
7
  6
CONTINUOUS
 10
49.8503310274
 20
184.3212092813
 11
49.7645497774
 21
184.2254645895
  0
LINE
  5
41E
100
AcDbEntity
  8
0
100
AcDbLine
 62
7
  6
CONTINUOUS
 10
50.0218935274
 20
184.3193759158
 11
49.9377548582
 21
184.2254645895
  0
LINE
  5
41F
100
AcDbEntity
  8
0
100
AcDbLine
 62
7
  6
CONTINUOUS
 10
50.8797060274
 20
184.9595071223
 11
50.8225187456
 21
184.8956773427
  0
LINE
  5
420
100
AcDbEntity
  8
0
100
AcDbLine
 62
7
  6
CONTINUOUS
 10
50.8225187456
 20
184.7680177834
 11
50.8797060274
 21
184.831847563
  0
LINE
  5
421
100
AcDbEntity
  8
0
100
AcDbLine
 62
7
  6
CONTINUOUS
 10
51.0529111082
 20
184.9595071223
 11
51.0058025991
 21
184.9069267992
  0
LINE
  5
422
100
AcDbEntity
  8
0
100
AcDbLine
 62
7
  6
CONTINUOUS
 10
99.8148125
 20
173.8057153965
 11
59.5852128252
 21
173.8057153965
  0
LINE
  5
423
100
AcDbEntity
  8
2_FEATURE
100
AcDbLine
 62
7
  6
CONTINUOUS
 10
36.4508125
 20
173.8057153965
 11
59.5852128281
 21
173.8057153965
  0
LINE
  5
424
100
AcDbEntity
  8
0
100
AcDbLine
 62
7
  6
CONTINUOUS
 10
47.6486123728
 20
184.8956773427
 11
47.7343936637
 21
184.831847563
  0
LINE
  5
425
100
AcDbEntity
  8
0
100
AcDbLine
 62
7
  6
CONTINUOUS
 10
47.8218174536
 20
184.8956773427
 11
47.8798932156
 21
184.8524632216
  0
LINE
  5
426
100
AcDbEntity
  8
0
100
AcDbLine
 62
7
  6
CONTINUOUS
 10
48.820956191
 20
184.9595071223
 11
48.735174941
 21
185.0233369019
  0
LINE
  5
427
100
AcDbEntity
  8
0
100
AcDbLine
 62
7
  6
CONTINUOUS
 10
49.9361122774
 20
184.9595071223
 11
49.8503310274
 21
185.0233369019
  0
LINE
  5
428
100
AcDbEntity
  8
0
100
AcDbLine
 62
7
  6
CONTINUOUS
 10
51.7661124956
 20
184.1616347987
 11
51.8518937456
 21
184.0978050135
  0
LINE
  5
429
100
AcDbEntity
  8
0
100
AcDbLine
 62
7
  6
CONTINUOUS
 10
51.7661124956
 20
184.672273114
 11
51.8804873865
 21
184.5765283998
  0
LINE
  5
42A
100
AcDbEntity
  8
0
100
AcDbLine
 62
7
  6
CONTINUOUS
 10
51.9393175763
 20
184.672273114
 11
52.0536924672
 21
184.5765283998
  0
LINE
  5
42B
100
AcDbEntity
  8
0
100
AcDbLine
 62
7
  6
CONTINUOUS
 10
51.2514249956
 20
184.8637624529
 11
51.3086122774
 21
184.7999326732
  0
LINE
  5
42C
100
AcDbEntity
  8
0
100
AcDbLine
 62
7
  6
CONTINUOUS
 10
51.4246300763
 20
184.8637624529
 11
51.4364630256
 21
184.8505550661
  0
LINE
  5
42D
100
AcDbEntity
  8
0
100
AcDbLine
 62
7
  6
CONTINUOUS
 10
51.4229874956
 20
184.8956773427
 11
51.3657998865
 21
184.9595071223
  0
LWPOLYLINE
  5
42E
100
AcDbEntity
  8
2_FEATURE
100
AcDbPolyline
 62
7
  6
CONTINUOUS
 90
36
 70
0
 10
53.3473598983
 20
188.5302255985
 10
53.3771240909
 20
188.4386273141
 10
53.4089764432
 20
188.3329182907
 10
53.4392159092
 20
188.223951886
 10
53.4677714675
 20
188.1118746418
 10
53.4945868954
 20
187.9968203922
 10
53.5196122351
 20
187.8789292856
 10
53.5428008958
 20
187.7583596335
 10
53.5641147212
 20
187.6352639021
 10
53.5835170734
 20
187.5098095295
 10
53.6009785216
 20
187.3821590024
 10
53.6164698821
 20
187.2524822852
 10
53.6299649086
 20
187.1209679847
 10
53.6414404109
 20
186.9877806244
 10
53.6508675057
 20
186.8532001604
 10
53.6582252186
 20
186.7174784096
 10
53.6634951195
 20
186.5809020525
 10
53.6666659813
 20
186.4437553734
 10
53.66772946
 20
186.3063217715
 10
53.6666845807
 20
186.1688868724
 10
53.6635322809
 20
186.0317363679
 10
53.6582808456
 20
185.8951537011
 10
53.6509414868
 20
185.7594232277
 10
53.6415325616
 20
185.6248316941
 10
53.6300750411
 20
185.4916310409
 10
53.6165977371
 20
185.3601013232
 10
53.6011238477
 20
185.230407251
 10
53.5836795827
 20
185.1027375984
 10
53.5642941166
 20
184.9772624992
 10
53.5429968725
 20
184.8541446148
 10
53.5198244603
 20
184.7335515344
 10
53.4948150378
 20
184.6156358673
 10
53.4680151732
 20
184.5005561128
 10
53.4394748478
 20
184.3884526254
 10
53.4092502852
 20
184.2794594503
 10
53.3774125146
 20
184.1737232983
  0
LINE
  5
42F
100
AcDbEntity
  8
0
100
AcDbLine
 62
7
  6
CONTINUOUS
 10
47.2197061433
 20
184.9914220121
 11
47.1339248831
 21
184.9275922325
  0
LINE
  5
430
100
AcDbEntity
  8
0
100
AcDbLine
 62
7
  6
CONTINUOUS
 10
47.3929112241
 20
184.9914220121
 11
47.3071299638
 21
184.9275922325
  0
LINE
  5
431
100
AcDbEntity
  8
0
100
AcDbLine
 62
7
  6
CONTINUOUS
 10
48.4206435819
 20
185.0233369019
 11
48.3348624137
 21
184.9595071223
  0
LINE
  5
432
100
AcDbEntity
  8
0
100
AcDbLine
 62
7
  6
CONTINUOUS
 10
48.3348624137
 20
184.831847563
 11
48.4206435819
 21
184.8956773427
  0
LINE
  5
433
100
AcDbEntity
  8
0
100
AcDbLine
 62
7
  6
CONTINUOUS
 10
48.5938486627
 20
185.0233369019
 11
48.5080674945
 21
184.9595071223
  0
LINE
  5
434
100
AcDbEntity
  8
0
100
AcDbLine
 62
7
  6
CONTINUOUS
 10
47.7343936637
 20
184.2573794794
 11
47.6486123728
 21
184.1935496997
  0
LINE
  5
435
100
AcDbEntity
  8
0
100
AcDbLine
 62
7
  6
CONTINUOUS
 10
47.8798932151
 20
184.2367638204
 11
47.8218174536
 21
184.1935496997
  0
LINE
  5
436
100
AcDbEntity
  8
0
100
AcDbLine
 62
7
  6
CONTINUOUS
 10
50.9654872774
 20
185.0233369019
 11
50.8797060274
 21
184.9595071223
  0
LINE
  5
437
100
AcDbEntity
  8
0
100
AcDbLine
 62
7
  6
CONTINUOUS
 10
49.7645497774
 20
184.0658901209
 11
49.8503310274
 21
184.1297199089
  0
LINE
  5
438
100
AcDbEntity
  8
0
100
AcDbLine
 62
7
  6
CONTINUOUS
 10
50.8797060274
 20
184.831847563
 11
50.9654872774
 21
184.8956773427
  0
LINE
  5
439
100
AcDbEntity
  8
0
100
AcDbLine
 62
7
  6
CONTINUOUS
 10
51.1386923582
 20
185.0233369019
 11
51.0529111082
 21
184.9595071223
  0
LINE
  5
43A
100
AcDbEntity
  8
0
100
AcDbLine
 62
7
  6
CONTINUOUS
 10
47.2197061433
 20
184.0978050135
 11
47.3054873933
 21
184.0658901209
  0
LINE
  5
43B
100
AcDbEntity
  8
0
100
AcDbLine
 62
7
  6
CONTINUOUS
 10
47.3929112241
 20
184.0978050135
 11
47.4786924741
 21
184.0658901209
  0
LINE
  5
43C
100
AcDbEntity
  8
0
100
AcDbLine
 62
7
  6
CONTINUOUS
 10
47.4484561501
 20
184.1616347987
 11
47.2768936297
 21
184.2254645895
  0
LINE
  5
43D
100
AcDbEntity
  8
0
100
AcDbLine
 62
7
  6
CONTINUOUS
 10
49.2784560819
 20
184.0978050135
 11
49.335643691
 21
184.0658901209
  0
LINE
  5
43E
100
AcDbEntity
  8
0
100
AcDbLine
 62
7
  6
CONTINUOUS
 10
47.7915811092
 20
184.9595071223
 11
47.6772061365
 21
185.0233369019
  0
LINE
  5
43F
100
AcDbEntity
  8
0
100
AcDbLine
 62
7
  6
CONTINUOUS
 10
49.4516611627
 20
184.0978050135
 11
49.5088487718
 21
184.0658901209
  0
LINE
  5
440
100
AcDbEntity
  8
0
100
AcDbLine
 62
7
  6
CONTINUOUS
 10
49.4500185819
 20
184.1616347987
 11
49.335643691
 21
184.2254645895
  0
LINE
  5
441
100
AcDbEntity
  8
0
100
AcDbLine
 62
7
  6
CONTINUOUS
 10
48.649393691
 20
184.8956773427
 11
48.7065811365
 21
184.8637624529
  0
LINE
  5
442
100
AcDbEntity
  8
0
100
AcDbLine
 62
7
  6
CONTINUOUS
 10
48.8225987718
 20
184.8956773427
 11
48.8797862172
 21
184.8637624529
  0
LINE
  5
443
100
AcDbEntity
  8
0
100
AcDbLine
 62
7
  6
CONTINUOUS
 10
49.7931437456
 20
184.8956773427
 11
49.8503310274
 21
184.8637624529
  0
LINE
  5
444
100
AcDbEntity
  8
0
100
AcDbLine
 62
7
  6
CONTINUOUS
 10
49.9663488263
 20
184.8956773427
 11
49.9986900985
 21
184.877628432
  0
LINE
  5
445
100
AcDbEntity
  8
0
100
AcDbLine
 62
7
  6
CONTINUOUS
 10
51.9376749956
 20
184.1935496997
 11
51.8804873865
 21
184.2254645895
  0
LINE
  5
446
100
AcDbEntity
  8
0
100
AcDbLine
 62
7
  6
CONTINUOUS
 10
51.1942373865
 20
184.8956773427
 11
51.2514249956
 21
184.8637624529
  0
LINE
  5
447
100
AcDbEntity
  8
0
100
AcDbLine
 62
7
  6
CONTINUOUS
 10
51.3674424672
 20
184.8956773427
 11
51.4246300763
 21
184.8637624529
  0
LINE
  5
448
100
AcDbEntity
  8
0
100
AcDbLine
 62
7
  6
CONTINUOUS
 10
51.9393175763
 20
184.1616347987
 11
52.0250988263
 21
184.0978050135
  0
LINE
  5
449
100
AcDbEntity
  8
0
100
AcDbLine
 62
7
  6
CONTINUOUS
 10
51.3657998865
 20
184.9595071223
 11
51.2800186365
 21
185.0233369019
  0
LINE
  5
44A
100
AcDbEntity
  8
0
100
AcDbLine
 62
7
  6
CONTINUOUS
 10
51.9662686365
 20
184.672273114
 11
51.8804873865
 21
184.7361028936
  0
LINE
  5
44B
100
AcDbEntity
  8
0
100
AcDbLine
 62
7
  6
CONTINUOUS
 10
52.3665812456
 20
184.4169539508
 11
52.4523624956
 21
184.3531241711
  0
LINE
  5
44C
100
AcDbEntity
  8
0
100
AcDbLine
 62
7
  6
CONTINUOUS
 10
52.5397863263
 20
184.4169539508
 11
52.5802128359
 21
184.3868726078
  0
LINE
  5
44D
100
AcDbEntity
  8
0
100
AcDbLine
 62
7
  6
CONTINUOUS
 10
52.5667373865
 20
184.9275922325
 11
52.4809561365
 21
184.9914220121
  0
LINE
  5
44E
100
AcDbEntity
  8
0
100
AcDbLine
 62
7
  6
CONTINUOUS
 10
52.5667373865
 20
184.4169539508
 11
52.4523624956
 21
184.5126986202
  0
LINE
  5
44F
100
AcDbEntity
  8
0
100
AcDbLine
 62
7
  6
CONTINUOUS
 10
47.2768936297
 20
184.8637624529
 11
47.3340811365
 21
184.8956773427
  0
LINE
  5
450
100
AcDbEntity
  8
0
100
AcDbLine
 62
7
  6
CONTINUOUS
 10
49.3070498865
 20
185.0233369019
 11
49.249862441
 21
184.9914220121
  0
LINE
  5
451
100
AcDbEntity
  8
0
100
AcDbLine
 62
7
  6
CONTINUOUS
 10
47.6772061365
 20
184.0658901209
 11
47.7915811092
 21
184.1297199089
  0
LINE
  5
452
100
AcDbEntity
  8
0
100
AcDbLine
 62
7
  6
CONTINUOUS
 10
49.4802549672
 20
185.0233369019
 11
49.4230675218
 21
184.9914220121
  0
LINE
  5
453
100
AcDbEntity
  8
0
100
AcDbLine
 62
7
  6
CONTINUOUS
 10
49.335643691
 20
184.8637624529
 11
49.3928311365
 21
184.8956773427
  0
LINE
  5
454
100
AcDbEntity
  8
0
100
AcDbLine
 62
7
  6
CONTINUOUS
 10
49.3928311365
 20
184.672273114
 11
49.2784560819
 21
184.6084433344
  0
LINE
  5
455
100
AcDbEntity
  8
0
100
AcDbLine
 62
7
  6
CONTINUOUS
 10
49.5660362172
 20
184.672273114
 11
49.4516611627
 21
184.6084433344
  0
LINE
  5
456
100
AcDbEntity
  8
0
100
AcDbLine
 62
7
  6
CONTINUOUS
 10
49.3928311365
 20
184.5126986202
 11
49.4500185819
 21
184.54461351
  0
LINE
  5
457
100
AcDbEntity
  8
0
100
AcDbLine
 62
7
  6
CONTINUOUS
 10
51.8804873865
 20
185.0233369019
 11
51.7661124956
 21
184.9595071223
  0
LINE
  5
458
100
AcDbEntity
  8
0
100
AcDbLine
 62
7
  6
CONTINUOUS
 10
49.335643691
 20
184.0658901209
 11
49.4500185819
 21
184.0339752283
  0
LINE
  5
459
100
AcDbEntity
  8
0
100
AcDbLine
 62
7
  6
CONTINUOUS
 10
49.5088487718
 20
184.0658901209
 11
49.6216997377
 21
184.0344004607
  0
LINE
  5
45A
100
AcDbEntity
  8
0
100
AcDbLine
 62
7
  6
CONTINUOUS
 10
48.735174941
 20
185.0233369019
 11
48.649393691
 21
185.0552517917
  0
LINE
  5
45B
100
AcDbEntity
  8
0
100
AcDbLine
 62
7
  6
CONTINUOUS
 10
51.8518937456
 20
184.0978050135
 11
51.9376749956
 21
184.0658901209
  0
LINE
  5
45C
100
AcDbEntity
  8
0
100
AcDbLine
 62
7
  6
CONTINUOUS
 10
52.0250988263
 20
184.0978050135
 11
52.1108800763
 21
184.0658901209
  0
LINE
  5
45D
100
AcDbEntity
  8
0
100
AcDbLine
 62
7
  6
CONTINUOUS
 10
51.2800186365
 20
185.0233369019
 11
51.1942373865
 21
185.0552517917
  0
LINE
  5
45E
100
AcDbEntity
  8
0
100
AcDbLine
 62
7
  6
CONTINUOUS
 10
52.3951748865
 20
184.8956773427
 11
52.4523624956
 21
184.8637624529
  0
LINE
  5
45F
100
AcDbEntity
  8
0
100
AcDbLine
 62
7
  6
CONTINUOUS
 10
52.5683799672
 20
184.8956773427
 11
52.5852522547
 21
184.886261366
  0
LINE
  5
460
100
AcDbEntity
  8
0
100
AcDbLine
 62
7
  6
CONTINUOUS
 10
52.0536924672
 20
185.0233369019
 11
51.9393175763
 21
184.9595071223
  0
LINE
  5
461
100
AcDbEntity
  8
0
100
AcDbLine
 62
7
  6
CONTINUOUS
 10
51.8804873865
 20
184.8637624529
 11
51.9376749956
 21
184.8956773427
  0
LINE
  5
462
100
AcDbEntity
  8
0
100
AcDbLine
 62
7
  6
CONTINUOUS
 10
52.4523624956
 20
184.2254645895
 11
52.3951748865
 21
184.1935496997
  0
LINE
  5
463
100
AcDbEntity
  8
0
100
AcDbLine
 62
7
  6
CONTINUOUS
 10
52.6231032215
 20
184.2240892984
 11
52.5683799672
 21
184.1935496997
  0
LINE
  5
464
100
AcDbEntity
  8
0
100
AcDbLine
 62
7
  6
CONTINUOUS
 10
52.4523624956
 20
184.0658901209
 11
52.5667373865
 21
184.1297199089
  0
LINE
  5
465
100
AcDbEntity
  8
0
100
AcDbLine
 62
7
  6
CONTINUOUS
 10
49.7645497774
 20
184.2254645895
 11
49.6215810819
 21
184.1616347987
  0
LINE
  5
466
100
AcDbEntity
  8
0
100
AcDbLine
 62
7
  6
CONTINUOUS
 10
49.9377548582
 20
184.2254645895
 11
49.7947861627
 21
184.1616347987
  0
LINE
  5
467
100
AcDbEntity
  8
0
100
AcDbLine
 62
7
  6
CONTINUOUS
 10
47.3054873933
 20
185.0233369019
 11
47.2197061433
 21
184.9914220121
  0
LINE
  5
468
100
AcDbEntity
  8
0
100
AcDbLine
 62
7
  6
CONTINUOUS
 10
47.4786924741
 20
185.0233369019
 11
47.3929112241
 21
184.9914220121
  0
LWPOLYLINE
  5
469
100
AcDbEntity
  8
2_FEATURE
100
AcDbPolyline
 62
7
  6
CONTINUOUS
 90
66
 70
0
 10
36.4856620878
 20
179.8056900789
 10
36.4744560705
 20
179.8056060014
 10
36.462956642
 20
179.8054546538
 10
36.4511072145
 20
179.8052257964
 10
36.4388344346
 20
179.8049066663
 10
36.4261280736
 20
179.8044840868
 10
36.4129462986
 20
179.8039424158
 10
36.39930098
 20
179.8032667638
 10
36.385174955
 20
179.8024400836
 10
36.3706099973
 20
179.8014482883
 10
36.3556796528
 20
179.8002809902
 10
36.3402765699
 20
179.7989134193
 10
36.3244012262
 20
179.7973270032
 10
36.307827277
 20
179.7954758479
 10
36.2904066848
 20
179.7933120972
 10
36.2719353087
 20
179.7907701267
 10
36.2521553536
 20
179.7877613435
 10
36.2311086186
 20
179.7842296322
 10
36.2086781368
 20
179.7800855618
 10
36.1851010439
 20
179.7753005513
 10
36.1605087766
 20
179.7698336352
 10
36.1351074567
 20
179.7636683424
 10
36.1091261228
 20
179.7568076227
 10
36.0826277367
 20
179.7492217504
 10
36.0557478405
 20
179.7409070747
 10
36.0285035002
 20
179.7318290249
 10
36.0009484163
 20
179.7219654709
 10
35.9731190074
 20
179.7112898831
 10
35.945058458
 20
179.6997792761
 10
35.9168100893
 20
179.6874120857
 10
35.8884172359
 20
179.6741681101
 10
35.8599311121
 20
179.660032514
 10
35.8314079199
 20
179.6449954755
 10
35.8028812481
 20
179.6290371807
 10
35.7744026394
 20
179.6121488547
 10
35.7459816925
 20
179.5942971072
 10
35.7176408603
 20
179.5754536226
 10
35.6894081523
 20
179.5555917566
 10
35.6613135981
 20
179.5346844545
 10
35.6333892357
 20
179.5127041671
 10
35.6056700707
 20
179.4896235571
 10
35.5781942897
 20
179.4654157678
 10
35.5510036338
 20
179.4400548971
 10
35.5241407296
 20
179.4135134984
 10
35.4976530603
 20
179.3857662678
 10
35.4715881345
 20
179.3567850525
 10
35.4459982659
 20
179.3265435552
 10
35.4209396251
 20
179.2950165182
 10
35.396472529
 20
179.2621801839
 10
35.3726615127
 20
179.2280125496
 10
35.3495759866
 20
179.1924945739
 10
35.3272876055
 20
179.1556061889
 10
35.3058760395
 20
179.1173358302
 10
35.2854150482
 20
179.0776550875
 10
35.2659884823
 20
179.0365449505
 10
35.2476835326
 20
178.9939829482
 10
35.2305953893
 20
178.9499521468
 10
35.2148265006
 20
178.9044402322
 10
35.2004866607
 20
178.8574402497
 10
35.1876930555
 20
178.8089513878
 10
35.1765702843
 20
178.758979918
 10
35.1672502957
 20
178.7075401348
 10
35.1598722484
 20
178.6546553285
 10
35.1545823173
 20
178.6003590606
 10
35.1515327267
 20
178.5446777696
 10
35.150812518
 20
178.5013970328
  0
LINE
  5
46A
100
AcDbEntity
  8
2_FEATURE
100
AcDbLine
 62
7
  6
CONTINUOUS
 10
41.9330031523
 20
179.8057153965
 11
36.4856620878
 21
179.8056900789
  0
LINE
  5
46B
100
AcDbEntity
  8
0
100
AcDbLine
 62
7
  6
CONTINUOUS
 10
47.4484561501
 20
184.9275922325
 11
47.6486123728
 21
184.8956773427
  0
LINE
  5
46C
100
AcDbEntity
  8
0
100
AcDbLine
 62
7
  6
CONTINUOUS
 10
47.6216612309
 20
184.9275922325
 11
47.8218174536
 21
184.8956773427
  0
LINE
  5
46D
100
AcDbEntity
  8
0
100
AcDbLine
 62
7
  6
CONTINUOUS
 10
47.6772061365
 20
185.0233369019
 11
47.4770498728
 21
185.0552517917
  0
LINE
  5
46E
100
AcDbEntity
  8
0
100
AcDbLine
 62
7
  6
CONTINUOUS
 10
47.3054873933
 20
184.0658901209
 11
47.4770498728
 21
184.0339752283
  0
LINE
  5
46F
100
AcDbEntity
  8
0
100
AcDbLine
 62
7
  6
CONTINUOUS
 10
47.4786924741
 20
184.0658901209
 11
47.5703141552
 21
184.0488462071
  0
LINE
  5
470
100
AcDbEntity
  8
0
100
AcDbLine
 62
7
  6
CONTINUOUS
 10
51.9376749956
 20
184.0658901209
 11
52.1092374956
 21
184.0339752283
  0
LINE
  5
471
100
AcDbEntity
  8
0
100
AcDbLine
 62
7
  6
CONTINUOUS
 10
52.1108800763
 20
184.0658901209
 11
52.2808549362
 21
184.0342705689
  0
LINE
  5
472
100
AcDbEntity
  8
0
100
AcDbLine
 62
7
  6
CONTINUOUS
 10
52.1092374956
 20
184.1616347987
 11
51.9376749956
 21
184.1935496997
  0
LINE
  5
473
100
AcDbEntity
  8
0
100
AcDbLine
 62
7
  6
CONTINUOUS
 10
49.8503310274
 20
185.0233369019
 11
49.678768691
 21
185.0552517917
  0
LINE
  5
474
100
AcDbEntity
  8
0
100
AcDbLine
 62
7
  6
CONTINUOUS
 10
48.5350186365
 20
184.9275922325
 11
48.649393691
 21
184.8956773427
  0
LINE
  5
475
100
AcDbEntity
  8
0
100
AcDbLine
 62
7
  6
CONTINUOUS
 10
48.7082237172
 20
184.9275922325
 11
48.8225987718
 21
184.8956773427
  0
LINE
  5
476
100
AcDbEntity
  8
0
100
AcDbLine
 62
7
  6
CONTINUOUS
 10
49.678768691
 20
184.9275922325
 11
49.7931437456
 21
184.8956773427
  0
LINE
  5
477
100
AcDbEntity
  8
0
100
AcDbLine
 62
7
  6
CONTINUOUS
 10
49.8519737718
 20
184.9275922325
 11
49.9663488263
 21
184.8956773427
  0
LINE
  5
478
100
AcDbEntity
  8
0
100
AcDbLine
 62
7
  6
CONTINUOUS
 10
51.0798624956
 20
184.9275922325
 11
51.1942373865
 21
184.8956773427
  0
LINE
  5
479
100
AcDbEntity
  8
0
100
AcDbLine
 62
7
  6
CONTINUOUS
 10
51.2530675763
 20
184.9275922325
 11
51.3674424672
 21
184.8956773427
  0
LINE
  5
47A
100
AcDbEntity
  8
0
100
AcDbLine
 62
7
  6
CONTINUOUS
 10
51.8804873865
 20
184.5765283998
 11
52.3665812456
 21
184.4169539508
  0
LINE
  5
47B
100
AcDbEntity
  8
0
100
AcDbLine
 62
7
  6
CONTINUOUS
 10
52.0536924672
 20
184.5765283998
 11
52.5397863263
 21
184.4169539508
  0
LINE
  5
47C
100
AcDbEntity
  8
0
100
AcDbLine
 62
7
  6
CONTINUOUS
 10
52.4523624956
 20
184.5126986202
 11
51.9662686365
 21
184.672273114
  0
LINE
  5
47D
100
AcDbEntity
  8
0
100
AcDbLine
 62
7
  6
CONTINUOUS
 10
52.4809561365
 20
184.9914220121
 11
52.3951748865
 21
185.0233369019
  0
LINE
  5
47E
100
AcDbEntity
  8
0
100
AcDbLine
 62
7
  6
CONTINUOUS
 10
85.1328125
 20
182.1057153965
 11
84.1602032248
 21
182.1057153965
  0
LINE
  5
47F
100
AcDbEntity
  8
2_FEATURE
100
AcDbLine
 62
7
  6
CONTINUOUS
 10
51.1328125
 20
182.1057153965
 11
52.1054218169
 21
182.1057153965
  0
LINE
  5
480
100
AcDbEntity
  8
0
100
AcDbLine
 62
7
  6
CONTINUOUS
 10
43.6109561365
 20
184.0339752283
 11
43.7116235455
 21
184.0339752283
  0
LINE
  5
481
100
AcDbEntity
  8
0
100
AcDbLine
 62
7
  6
CONTINUOUS
 10
44.0109561365
 20
184.0339752283
 11
44.3509561365
 21
184.0339752283
  0
LINE
  5
482
100
AcDbEntity
  8
0
100
AcDbLine
 62
7
  6
CONTINUOUS
 10
44.4309561365
 20
184.0339752283
 11
44.7709561365
 21
184.0339752283
  0
LINE
  5
483
100
AcDbEntity
  8
0
100
AcDbLine
 62
7
  6
CONTINUOUS
 10
45.2309561365
 20
184.0339752283
 11
45.5709561365
 21
184.0339752283
  0
LINE
  5
484
100
AcDbEntity
  8
0
100
AcDbLine
 62
7
  6
CONTINUOUS
 10
45.6509561365
 20
184.0339752283
 11
45.9909561365
 21
184.0339752283
  0
LINE
  5
485
100
AcDbEntity
  8
0
100
AcDbLine
 62
7
  6
CONTINUOUS
 10
48.1347061092
 20
184.0339752283
 11
48.2776748865
 21
184.0339752283
  0
LINE
  5
486
100
AcDbEntity
  8
0
100
AcDbLine
 62
7
  6
CONTINUOUS
 10
48.7923623865
 20
184.0339752283
 11
48.9353310819
 21
184.0339752283
  0
LINE
  5
487
100
AcDbEntity
  8
0
100
AcDbLine
 62
7
  6
CONTINUOUS
 10
49.4500185819
 20
184.0339752283
 11
49.6215810819
 21
184.0339752283
  0
LINE
  5
488
100
AcDbEntity
  8
0
100
AcDbLine
 62
7
  6
CONTINUOUS
 10
49.9361122774
 20
184.0339752283
 11
50.0790811365
 21
184.0339752283
  0
LINE
  5
489
100
AcDbEntity
  8
0
100
AcDbLine
 62
7
  6
CONTINUOUS
 10
50.3078312456
 20
184.0339752283
 11
50.4507997774
 21
184.0339752283
  0
LINE
  5
48A
100
AcDbEntity
  8
0
100
AcDbLine
 62
7
  6
CONTINUOUS
 10
50.6795498865
 20
184.0339752283
 11
50.8225187456
 21
184.0339752283
  0
LINE
  5
48B
100
AcDbEntity
  8
0
100
AcDbLine
 62
7
  6
CONTINUOUS
 10
51.3372062456
 20
184.0339752283
 11
51.4801747774
 21
184.0339752283
  0
LINE
  5
48C
100
AcDbEntity
  8
0
100
AcDbLine
 62
7
  6
CONTINUOUS
 10
52.1092374956
 20
184.0339752283
 11
52.2807999956
 21
184.0339752283
  0
LINE
  5
48D
100
AcDbEntity
  8
0
100
AcDbLine
 62
7
  6
CONTINUOUS
 10
47.3054873933
 20
184.0658901209
 11
47.4786924741
 21
184.0658901209
  0
LINE
  5
48E
100
AcDbEntity
  8
0
100
AcDbLine
 62
7
  6
CONTINUOUS
 10
49.335643691
 20
184.0658901209
 11
49.5088487718
 21
184.0658901209
  0
LINE
  5
48F
100
AcDbEntity
  8
0
100
AcDbLine
 62
7
  6
CONTINUOUS
 10
51.9376749956
 20
184.0658901209
 11
52.1108800763
 21
184.0658901209
  0
LINE
  5
490
100
AcDbEntity
  8
0
100
AcDbLine
 62
7
  6
CONTINUOUS
 10
47.2197061433
 20
184.0978050135
 11
47.3929112241
 21
184.0978050135
  0
LINE
  5
491
100
AcDbEntity
  8
0
100
AcDbLine
 62
7
  6
CONTINUOUS
 10
49.2784560819
 20
184.0978050135
 11
49.4516611627
 21
184.0978050135
  0
LINE
  5
492
100
AcDbEntity
  8
0
100
AcDbLine
 62
7
  6
CONTINUOUS
 10
49.9075186365
 20
184.0978050135
 11
50.0600187098
 21
184.0978050135
  0
LINE
  5
493
100
AcDbEntity
  8
0
100
AcDbLine
 62
7
  6
CONTINUOUS
 10
51.8518937456
 20
184.0978050135
 11
52.0250988263
 21
184.0978050135
  0
LINE
  5
494
100
AcDbEntity
  8
0
100
AcDbLine
 62
7
  6
CONTINUOUS
 10
47.1339248831
 20
184.1616347987
 11
47.3071299638
 21
184.1616347987
  0
LINE
  5
495
100
AcDbEntity
  8
0
100
AcDbLine
 62
7
  6
CONTINUOUS
 10
47.4484561501
 20
184.1616347987
 11
47.6216612309
 21
184.1616347987
  0
LINE
  5
496
100
AcDbEntity
  8
0
100
AcDbLine
 62
7
  6
CONTINUOUS
 10
49.4500185819
 20
184.1616347987
 11
49.7947861627
 21
184.1616347987
  0
LINE
  5
497
100
AcDbEntity
  8
0
100
AcDbLine
 62
7
  6
CONTINUOUS
 10
51.7661124956
 20
184.1616347987
 11
51.9393175763
 21
184.1616347987
  0
LINE
  5
498
100
AcDbEntity
  8
0
100
AcDbLine
 62
7
  6
CONTINUOUS
 10
52.1092374956
 20
184.1616347987
 11
52.4540050763
 21
184.1616347987
  0
LINE
  5
499
100
AcDbEntity
  8
0
100
AcDbLine
 62
7
  6
CONTINUOUS
 10
47.6486123728
 20
184.1935496997
 11
47.8218174536
 21
184.1935496997
  0
LINE
  5
49A
100
AcDbEntity
  8
0
100
AcDbLine
 62
7
  6
CONTINUOUS
 10
49.1926748319
 20
184.1935496997
 11
49.3658799127
 21
184.1935496997
  0
LINE
  5
49B
100
AcDbEntity
  8
0
100
AcDbLine
 62
7
  6
CONTINUOUS
 10
49.8789249956
 20
184.1935496997
 11
50.0390499071
 21
184.1935496997
  0
LINE
  5
49C
100
AcDbEntity
  8
0
100
AcDbLine
 62
7
  6
CONTINUOUS
 10
52.3951748865
 20
184.1935496997
 11
52.5683799672
 21
184.1935496997
  0
LINE
  5
49D
100
AcDbEntity
  8
0
100
AcDbLine
 62
7
  6
CONTINUOUS
 10
47.0767373865
 20
184.2254645895
 11
47.2499424672
 21
184.2254645895
  0
LINE
  5
49E
100
AcDbEntity
  8
0
100
AcDbLine
 62
7
  6
CONTINUOUS
 10
49.7645497774
 20
184.2254645895
 11
49.9377548582
 21
184.2254645895
  0
LINE
  5
49F
100
AcDbEntity
  8
0
100
AcDbLine
 62
7
  6
CONTINUOUS
 10
52.4523624956
 20
184.2254645895
 11
52.6239246683
 21
184.2254645895
  0
LINE
  5
4A0
100
AcDbEntity
  8
0
100
AcDbLine
 62
7
  6
CONTINUOUS
 10
47.7343936637
 20
184.2573794794
 11
47.8845108091
 21
184.2573794794
  0
LINE
  5
4A1
100
AcDbEntity
  8
0
100
AcDbLine
 62
7
  6
CONTINUOUS
 10
52.2236123865
 20
184.9275922325
 11
52.3951748865
 21
184.8956773427
  0
LINE
  5
4A2
100
AcDbEntity
  8
0
100
AcDbLine
 62
7
  6
CONTINUOUS
 10
52.3968174672
 20
184.9275922325
 11
52.5683799672
 21
184.8956773427
  0
LINE
  5
4A3
100
AcDbEntity
  8
0
100
AcDbLine
 62
7
  6
CONTINUOUS
 10
52.3951748865
 20
185.0233369019
 11
52.2236123865
 21
185.0552517917
  0
LINE
  5
4A4
100
AcDbEntity
  8
DEFAULT_1
100
AcDbLine
 62
2
  6
CENTER
 10
68.1358125
 20
202.4888449888
 11
68.1358125
 21
188.3058153965
  0
LINE
  5
4A5
100
AcDbEntity
  8
0
100
AcDbLine
 62
2
  6
CONTINUOUS
 10
68.1358125
 20
187.1857153965
 11
68.1358125
 21
185.4257153965
  0
LINE
  5
4A6
100
AcDbEntity
  8
DEFAULT_1
100
AcDbLine
 62
2
  6
CENTER
 10
68.1358125
 20
170.1323501051
 11
68.1358125
 21
184.3056153965
  0
LINE
  5
4A7
100
AcDbEntity
  8
0
100
AcDbLine
 62
7
  6
CONTINUOUS
 10
51.8518937456
 20
184.2892943692
 11
51.7089248865
 21
184.2892943692
  0
LINE
  5
4A8
100
AcDbEntity
  8
0
100
AcDbLine
 62
7
  6
CONTINUOUS
 10
52.4809561365
 20
184.2892943692
 11
52.6239246683
 21
184.2892943692
  0
LINE
  5
4A9
100
AcDbEntity
  8
0
100
AcDbLine
 62
7
  6
CONTINUOUS
 10
49.164081191
 20
184.3212092813
 11
49.3070498865
 21
184.3212092813
  0
LINE
  5
4AA
100
AcDbEntity
  8
0
100
AcDbLine
 62
7
  6
CONTINUOUS
 10
49.8503310274
 20
184.3212092813
 11
50.0218935274
 21
184.3212092813
  0
LINE
  5
4AB
100
AcDbEntity
  8
0
100
AcDbLine
 62
7
  6
CONTINUOUS
 10
47.9059561637
 20
184.3531241711
 11
47.7629873865
 21
184.3531241711
  0
LINE
  5
4AC
100
AcDbEntity
  8
0
100
AcDbLine
 62
7
  6
CONTINUOUS
 10
47.0195498873
 20
184.3531241711
 11
47.1796748803
 21
184.3531241711
  0
LINE
  5
4AD
100
AcDbEntity
  8
0
100
AcDbLine
 62
7
  6
CONTINUOUS
 10
52.4523624956
 20
184.3531241711
 11
52.5953310224
 21
184.3531241711
  0
LINE
  5
4AE
100
AcDbEntity
  8
0
100
AcDbLine
 62
7
  6
CONTINUOUS
 10
44.0109561365
 20
184.3539752283
 11
44.1841612172
 21
184.3539752283
  0
LINE
  5
4AF
100
AcDbEntity
  8
0
100
AcDbLine
 62
7
  6
CONTINUOUS
 10
49.8789249956
 20
184.385039061
 11
50.0218935274
 21
184.385039061
  0
LINE
  5
4B0
100
AcDbEntity
  8
0
100
AcDbLine
 62
7
  6
CONTINUOUS
 10
49.164081191
 20
184.4169539508
 11
49.3261124228
 21
184.4169539508
  0
LINE
  5
4B1
100
AcDbEntity
  8
0
100
AcDbLine
 62
7
  6
CONTINUOUS
 10
52.3665812456
 20
184.4169539508
 11
52.5397863263
 21
184.4169539508
  0
LINE
  5
4B2
100
AcDbEntity
  8
0
100
AcDbLine
 62
7
  6
CONTINUOUS
 10
46.9909561365
 20
184.54461351
 11
47.1339248831
 21
184.54461351
  0
LINE
  5
4B3
100
AcDbEntity
  8
0
100
AcDbLine
 62
7
  6
CONTINUOUS
 10
49.2212686365
 20
184.54461351
 11
49.3944737172
 21
184.54461351
  0
LINE
  5
4B4
100
AcDbEntity
  8
0
100
AcDbLine
 62
7
  6
CONTINUOUS
 10
49.5643936365
 20
184.5765283998
 11
50.0218935274
 21
184.5765283998
  0
LINE
  5
4B5
100
AcDbEntity
  8
0
100
AcDbLine
 62
7
  6
CONTINUOUS
 10
51.8804873865
 20
184.5765283998
 11
52.0536924672
 21
184.5765283998
  0
LINE
  5
4B6
100
AcDbEntity
  8
0
100
AcDbLine
 62
7
  6
CONTINUOUS
 10
43.6509561365
 20
184.5939752283
 11
43.9841612172
 21
184.5939752283
  0
LINE
  5
4B7
100
AcDbEntity
  8
0
100
AcDbLine
 62
7
  6
CONTINUOUS
 10
49.2784560819
 20
184.6084433344
 11
49.4516611627
 21
184.6084433344
  0
LINE
  5
4B8
100
AcDbEntity
  8
0
100
AcDbLine
 62
7
  6
CONTINUOUS
 10
51.3372062456
 20
184.6403582242
 11
51.4801747774
 21
184.6403582242
  0
LINE
  5
4B9
100
AcDbEntity
  8
0
100
AcDbLine
 62
7
  6
CONTINUOUS
 10
48.7923623865
 20
184.672273114
 11
48.9353310819
 21
184.672273114
  0
LINE
  5
4BA
100
AcDbEntity
  8
0
100
AcDbLine
 62
7
  6
CONTINUOUS
 10
49.3928311365
 20
184.672273114
 11
49.5660362172
 21
184.672273114
  0
LINE
  5
4BB
100
AcDbEntity
  8
0
100
AcDbLine
 62
7
  6
CONTINUOUS
 10
51.7661124956
 20
184.672273114
 11
51.9393175763
 21
184.672273114
  0
LINE
  5
4BC
100
AcDbEntity
  8
0
100
AcDbLine
 62
7
  6
CONTINUOUS
 10
49.5643936365
 20
184.7041880038
 11
50.0218935274
 21
184.7041880038
  0
LINE
  5
4BD
100
AcDbEntity
  8
0
100
AcDbLine
 62
7
  6
CONTINUOUS
 10
47.0195498873
 20
184.7361028936
 11
47.1768155081
 21
184.7361028936
  0
LINE
  5
4BE
100
AcDbEntity
  8
0
100
AcDbLine
 62
7
  6
CONTINUOUS
 10
47.7629873865
 20
184.7361028936
 11
47.9059561637
 21
184.7361028936
  0
LINE
  5
4BF
100
AcDbEntity
  8
0
100
AcDbLine
 62
7
  6
CONTINUOUS
 10
48.7637685819
 20
184.7999326732
 11
48.9124561692
 21
184.7999326732
  0
LINE
  5
4C0
100
AcDbEntity
  8
0
100
AcDbLine
 62
7
  6
CONTINUOUS
 10
49.164081191
 20
184.7999326732
 11
49.3070498865
 21
184.7999326732
  0
LINE
  5
4C1
100
AcDbEntity
  8
0
100
AcDbLine
 62
7
  6
CONTINUOUS
 10
49.8789249956
 20
184.7999326732
 11
50.0218935274
 21
184.7999326732
  0
LINE
  5
4C2
100
AcDbEntity
  8
0
100
AcDbLine
 62
7
  6
CONTINUOUS
 10
51.3086122774
 20
184.7999326732
 11
51.4515811365
 21
184.7999326732
  0
LINE
  5
4C3
100
AcDbEntity
  8
0
100
AcDbLine
 62
7
  6
CONTINUOUS
 10
51.7089248865
 20
184.7999326732
 11
51.8518937456
 21
184.7999326732
  0
LINE
  5
4C4
100
AcDbEntity
  8
0
100
AcDbLine
 62
7
  6
CONTINUOUS
 10
52.4809561365
 20
184.7999326732
 11
52.6239246683
 21
184.7999326732
  0
LINE
  5
4C5
100
AcDbEntity
  8
0
100
AcDbLine
 62
7
  6
CONTINUOUS
 10
47.7343936637
 20
184.831847563
 11
47.8845108103
 21
184.831847563
  0
LINE
  5
4C6
100
AcDbEntity
  8
0
100
AcDbLine
 62
7
  6
CONTINUOUS
 10
47.0767373865
 20
184.8637624529
 11
47.2499424672
 21
184.8637624529
  0
LINE
  5
4C7
100
AcDbEntity
  8
0
100
AcDbLine
 62
7
  6
CONTINUOUS
 10
48.7065811365
 20
184.8637624529
 11
48.8797862172
 21
184.8637624529
  0
LINE
  5
4C8
100
AcDbEntity
  8
0
100
AcDbLine
 62
7
  6
CONTINUOUS
 10
49.164081191
 20
184.8637624529
 11
49.335643691
 21
184.8637624529
  0
LINE
  5
4C9
100
AcDbEntity
  8
0
100
AcDbLine
 62
7
  6
CONTINUOUS
 10
49.8503310274
 20
184.8637624529
 11
50.0028311001
 21
184.8637624529
  0
LINE
  5
4CA
100
AcDbEntity
  8
0
100
AcDbLine
 62
7
  6
CONTINUOUS
 10
51.2514249956
 20
184.8637624529
 11
51.4246300763
 21
184.8637624529
  0
LINE
  5
4CB
100
AcDbEntity
  8
0
100
AcDbLine
 62
7
  6
CONTINUOUS
 10
51.7089248865
 20
184.8637624529
 11
51.8804873865
 21
184.8637624529
  0
LINE
  5
4CC
100
AcDbEntity
  8
0
100
AcDbLine
 62
7
  6
CONTINUOUS
 10
52.4523624956
 20
184.8637624529
 11
52.5953310274
 21
184.8637624529
  0
LINE
  5
4CD
100
AcDbEntity
  8
0
100
AcDbLine
 62
7
  6
CONTINUOUS
 10
47.6486123728
 20
184.8956773427
 11
47.8218174536
 21
184.8956773427
  0
LINE
  5
4CE
100
AcDbEntity
  8
0
100
AcDbLine
 62
7
  6
CONTINUOUS
 10
48.2776748865
 20
184.8956773427
 11
48.4206435819
 21
184.8956773427
  0
LINE
  5
4CF
100
AcDbEntity
  8
0
100
AcDbLine
 62
7
  6
CONTINUOUS
 10
48.649393691
 20
184.8956773427
 11
48.8225987718
 21
184.8956773427
  0
LINE
  5
4D0
100
AcDbEntity
  8
0
100
AcDbLine
 62
7
  6
CONTINUOUS
 10
49.7931437456
 20
184.8956773427
 11
49.9663488263
 21
184.8956773427
  0
LINE
  5
4D1
100
AcDbEntity
  8
0
100
AcDbLine
 62
7
  6
CONTINUOUS
 10
50.8225187456
 20
184.8956773427
 11
50.9654872774
 21
184.8956773427
  0
LINE
  5
4D2
100
AcDbEntity
  8
0
100
AcDbLine
 62
7
  6
CONTINUOUS
 10
51.1942373865
 20
184.8956773427
 11
51.3674424672
 21
184.8956773427
  0
LINE
  5
4D3
100
AcDbEntity
  8
0
100
AcDbLine
 62
7
  6
CONTINUOUS
 10
52.3951748865
 20
184.8956773427
 11
52.5683799672
 21
184.8956773427
  0
LINE
  5
4D4
100
AcDbEntity
  8
0
100
AcDbLine
 62
7
  6
CONTINUOUS
 10
47.1339248831
 20
184.9275922325
 11
47.3071299638
 21
184.9275922325
  0
LINE
  5
4D5
100
AcDbEntity
  8
0
100
AcDbLine
 62
7
  6
CONTINUOUS
 10
47.4484561501
 20
184.9275922325
 11
47.6216612309
 21
184.9275922325
  0
LINE
  5
4D6
100
AcDbEntity
  8
0
100
AcDbLine
 62
7
  6
CONTINUOUS
 10
48.5350186365
 20
184.9275922325
 11
48.7082237172
 21
184.9275922325
  0
LINE
  5
4D7
100
AcDbEntity
  8
0
100
AcDbLine
 62
7
  6
CONTINUOUS
 10
49.1926748319
 20
184.9275922325
 11
49.3658799127
 21
184.9275922325
  0
LINE
  5
4D8
100
AcDbEntity
  8
0
100
AcDbLine
 62
7
  6
CONTINUOUS
 10
49.507206191
 20
184.9275922325
 11
49.8519737718
 21
184.9275922325
  0
LINE
  5
4D9
100
AcDbEntity
  8
0
100
AcDbLine
 62
7
  6
CONTINUOUS
 10
51.0798624956
 20
184.9275922325
 11
51.2530675763
 21
184.9275922325
  0
LINE
  5
4DA
100
AcDbEntity
  8
0
100
AcDbLine
 62
7
  6
CONTINUOUS
 10
52.0520498865
 20
184.9275922325
 11
52.3968174672
 21
184.9275922325
  0
LINE
  5
4DB
100
AcDbEntity
  8
0
100
AcDbLine
 62
7
  6
CONTINUOUS
 10
48.3348624137
 20
184.9595071223
 11
48.5080674945
 21
184.9595071223
  0
LINE
  5
4DC
100
AcDbEntity
  8
0
100
AcDbLine
 62
7
  6
CONTINUOUS
 10
50.8797060274
 20
184.9595071223
 11
51.0529111082
 21
184.9595071223
  0
LINE
  5
4DD
100
AcDbEntity
  8
0
100
AcDbLine
 62
7
  6
CONTINUOUS
 10
51.7661124956
 20
184.9595071223
 11
51.9393175763
 21
184.9595071223
  0
LINE
  5
4DE
100
AcDbEntity
  8
0
100
AcDbLine
 62
7
  6
CONTINUOUS
 10
47.2197061433
 20
184.9914220121
 11
47.3929112241
 21
184.9914220121
  0
LINE
  5
4DF
100
AcDbEntity
  8
0
100
AcDbLine
 62
7
  6
CONTINUOUS
 10
49.249862441
 20
184.9914220121
 11
49.4230675218
 21
184.9914220121
  0
LINE
  5
4E0
100
AcDbEntity
  8
0
100
AcDbLine
 62
7
  6
CONTINUOUS
 10
47.3054873933
 20
185.0233369019
 11
47.4786924741
 21
185.0233369019
  0
LINE
  5
4E1
100
AcDbEntity
  8
0
100
AcDbLine
 62
7
  6
CONTINUOUS
 10
48.4206435819
 20
185.0233369019
 11
48.5938486627
 21
185.0233369019
  0
LINE
  5
4E2
100
AcDbEntity
  8
0
100
AcDbLine
 62
7
  6
CONTINUOUS
 10
49.3070498865
 20
185.0233369019
 11
49.4802549672
 21
185.0233369019
  0
LINE
  5
4E3
100
AcDbEntity
  8
0
100
AcDbLine
 62
7
  6
CONTINUOUS
 10
50.9654872774
 20
185.0233369019
 11
51.1386923582
 21
185.0233369019
  0
LINE
  5
4E4
100
AcDbEntity
  8
0
100
AcDbLine
 62
7
  6
CONTINUOUS
 10
51.8804873865
 20
185.0233369019
 11
52.0536924672
 21
185.0233369019
  0
LINE
  5
4E5
100
AcDbEntity
  8
0
100
AcDbLine
 62
7
  6
CONTINUOUS
 10
52.2236123865
 20
185.0552517917
 11
52.0520498865
 21
185.0552517917
  0
LINE
  5
4E6
100
AcDbEntity
  8
0
100
AcDbLine
 62
7
  6
CONTINUOUS
 10
51.1942373865
 20
185.0552517917
 11
51.0798624956
 21
185.0552517917
  0
LINE
  5
4E7
100
AcDbEntity
  8
0
100
AcDbLine
 62
7
  6
CONTINUOUS
 10
50.8225187456
 20
185.0552517917
 11
50.6795498865
 21
185.0552517917
  0
LINE
  5
4E8
100
AcDbEntity
  8
0
100
AcDbLine
 62
7
  6
CONTINUOUS
 10
50.4507997774
 20
185.0552517917
 11
50.3078312456
 21
185.0552517917
  0
LINE
  5
4E9
100
AcDbEntity
  8
0
100
AcDbLine
 62
7
  6
CONTINUOUS
 10
49.678768691
 20
185.0552517917
 11
49.507206191
 21
185.0552517917
  0
LINE
  5
4EA
100
AcDbEntity
  8
0
100
AcDbLine
 62
7
  6
CONTINUOUS
 10
48.649393691
 20
185.0552517917
 11
48.5350186365
 21
185.0552517917
  0
LINE
  5
4EB
100
AcDbEntity
  8
0
100
AcDbLine
 62
7
  6
CONTINUOUS
 10
44.9709561365
 20
185.3139752283
 11
45.3041612172
 21
185.3139752283
  0
LINE
  5
4EC
100
AcDbEntity
  8
0
100
AcDbLine
 62
7
  6
CONTINUOUS
 10
50.3078312456
 20
185.3744007793
 11
50.4507997774
 21
185.3744007793
  0
LINE
  5
4ED
100
AcDbEntity
  8
0
100
AcDbLine
 62
7
  6
CONTINUOUS
 10
50.4507997774
 20
185.5339752283
 11
50.3078312456
 21
185.5339752283
  0
LINE
  5
4EE
100
AcDbEntity
  8
0
100
AcDbLine
 62
7
  6
CONTINUOUS
 10
48.2776748865
 20
185.5339752283
 11
48.1347061092
 21
185.5339752283
  0
LINE
  5
4EF
100
AcDbEntity
  8
0
100
AcDbLine
 62
7
  6
CONTINUOUS
 10
44.7709561365
 20
185.5539752283
 11
44.9441612172
 21
185.5539752283
  0
LINE
  5
4F0
100
AcDbEntity
  8
0
100
AcDbLine
 62
7
  6
CONTINUOUS
 10
45.9909561365
 20
185.8739752283
 11
45.6509561365
 21
185.8739752283
  0
LINE
  5
4F1
100
AcDbEntity
  8
0
100
AcDbLine
 62
7
  6
CONTINUOUS
 10
45.1709561365
 20
185.8739752283
 11
45.0702887274
 21
185.8739752283
  0
LINE
  5
4F2
100
AcDbEntity
  8
0
100
AcDbLine
 62
7
  6
CONTINUOUS
 10
44.7709561365
 20
185.8739752283
 11
44.4309561365
 21
185.8739752283
  0
LINE
  5
4F3
100
AcDbEntity
  8
0
100
AcDbLine
 62
7
  6
CONTINUOUS
 10
44.3509561365
 20
185.8739752283
 11
44.0109561365
 21
185.8739752283
  0
LINE
  5
4F4
100
AcDbEntity
  8
0
100
AcDbLine
 62
7
  6
CONTINUOUS
 10
43.5509561365
 20
185.8739752283
 11
43.2109561365
 21
185.8739752283
  0
LINE
  5
4F5
100
AcDbEntity
  8
DEFAULT_1
100
AcDbLine
 62
2
  6
CENTER
 10
103.9202590098
 20
186.3057153965
 11
70.1359125
 21
186.3057153965
  0
LINE
  5
4F6
100
AcDbEntity
  8
0
100
AcDbLine
 62
2
  6
CONTINUOUS
 10
69.0158125
 20
186.3057153965
 11
67.2558125
 21
186.3057153965
  0
LINE
  5
4F7
100
AcDbEntity
  8
DEFAULT_1
100
AcDbLine
 62
2
  6
CENTER
 10
32.2893500461
 20
186.3057153965
 11
66.1357125
 21
186.3057153965
  0
LWPOLYLINE
  5
4F8
100
AcDbEntity
  8
2_FEATURE
100
AcDbPolyline
 62
7
  6
CONTINUOUS
 90
106
 70
0
 10
52.0849030587
 20
190.5159061993
 10
52.0838270388
 20
190.5162682887
 10
52.0864871737
 20
190.5151716978
 10
52.0924420025
 20
190.5124461443
 10
52.1015735277
 20
190.5078381873
 10
52.1137493224
 20
190.5011241882
 10
52.1288924812
 20
190.4920675076
 10
52.1469143915
 20
190.4804487097
 10
52.1677773716
 20
190.4660222497
 10
52.1914474101
 20
190.4485387195
 10
52.2178728589
 20
190.4277597789
 10
52.2470388414
 20
190.4034138849
 10
52.2788005833
 20
190.375336722
 10
52.3130413638
 20
190.3433502822
 10
52.3496063868
 20
190.307320894
 10
52.3883417619
 20
190.2671264431
 10
52.4290787116
 20
190.2226721195
 10
52.4716452653
 20
190.1738795169
 10
52.5158551414
 20
190.1207001497
 10
52.5615162175
 20
190.0631071869
 10
52.6084375724
 20
190.0010872171
 10
52.6564254525
 20
189.9346445774
 10
52.7052687417
 20
189.8638232647
 10
52.7547594814
 20
189.7886808942
 10
52.8046770593
 20
189.7093132766
 10
52.8548012508
 20
189.6258380077
 10
52.9049196608
 20
189.5383824854
 10
52.9548171625
 20
189.4471022547
 10
53.0042930486
 20
189.352151971
 10
53.0531420588
 20
189.2537197855
 10
53.1011871855
 20
189.1519644196
 10
53.1482490264
 20
189.0470721001
 10
53.1941620555
 20
188.9392264013
 10
53.2387650307
 20
188.8286266064
 10
53.2819078359
 20
188.7154762435
 10
53.3234423506
 20
188.600005599
 10
53.3632537805
 20
188.4823872066
 10
53.4012242396
 20
188.3628308269
 10
53.4372654352
 20
188.2414848741
 10
53.4712906352
 20
188.1185163904
 10
53.5032216545
 20
187.994090962
 10
53.5329870485
 20
187.8683811527
 10
53.5605276183
 20
187.7415411107
 10
53.5857868611
 20
187.6137524935
 10
53.6087323955
 20
187.4851072935
 10
53.6293313777
 20
187.355724443
 10
53.6475587625
 20
187.2256950948
 10
53.663392986
 20
187.0951155213
 10
53.6768152487
 20
186.9640792189
 10
53.6878111896
 20
186.8326827888
 10
53.6963699984
 20
186.7010053678
 10
53.7024844116
 20
186.5691360197
 10
53.7061497466
 20
186.4371352403
 10
53.7073640548
 20
186.3050704616
 10
53.7061257996
 20
186.173006019
 10
53.7024365366
 20
186.0410062463
 10
53.6962982334
 20
185.9091385905
 10
53.6877155915
 20
185.7774635439
 10
53.6766959025
 20
185.6460702425
 10
53.6632500076
 20
185.5150378731
 10
53.647392305
 20
185.3844631109
 10
53.6291416378
 20
185.2544395201
 10
53.6085196144
 20
185.1250634427
 10
53.5855513282
 20
184.9964260828
 10
53.5602696889
 20
184.868646493
 10
53.5327071437
 20
184.7418167535
 10
53.5029202889
 20
184.6161186501
 10
53.4709684227
 20
184.4917064476
 10
53.4369230845
 20
184.368752787
 10
53.4008625617
 20
184.2474233256
 10
53.362873693
 20
184.1278851869
 10
53.3230448753
 20
184.0102868392
 10
53.2814941251
 20
183.8948381304
 10
53.2383363708
 20
183.7817116785
 10
53.193719839
 20
183.6711377409
 10
53.1477947551
 20
183.5633198276
 10
53.1007224627
 20
183.4584571873
 10
53.0526685817
 20
183.3567333406
 10
53.003812613
 20
183.258334467
 10
52.9543316571
 20
183.163419232
 10
52.904431042
 20
183.0721756628
 10
52.8543115399
 20
182.9847582985
 10
52.8041883184
 20
182.9013225221
 10
52.7542738045
 20
182.8219955669
 10
52.7047882457
 20
182.746894851
 10
52.6559522828
 20
182.6761160209
 10
52.6079738198
 20
182.6097164225
 10
52.5610639382
 20
182.5477398241
 10
52.5154162992
 20
182.4901902804
 10
52.4712217389
 20
182.4370541252
 10
52.4286722809
 20
182.3883042687
 10
52.3879540817
 20
182.3438919546
 10
52.3492390797
 20
182.3037386237
 10
52.3126959779
 20
182.2677492686
 10
52.2784786288
 20
182.2358016212
 10
52.2467418617
 20
182.2077619119
 10
52.2176020222
 20
182.1834517021
 10
52.1912036869
 20
182.1627064276
 10
52.1675612797
 20
182.1452541975
 10
52.1467259752
 20
182.1308563618
 10
52.1287320537
 20
182.1192637431
 10
52.1136172873
 20
182.1102308575
 10
52.1014705503
 20
182.1035383658
 10
52.0923689707
 20
182.0989496461
 10
52.0864453156
 20
182.0962410441
 10
52.0859061861
 20
182.0960103867
  0
LINE
  5
4F9
100
AcDbEntity
  8
0
100
AcDbLine
 62
7
  6
CONTINUOUS
 10
52.5683799672
 20
184.1935496997
 11
52.4540050763
 21
184.1616347987
  0
LINE
  5
4FA
100
AcDbEntity
  8
0
100
AcDbLine
 62
7
  6
CONTINUOUS
 10
52.3951748865
 20
184.1935496997
 11
52.2807999956
 21
184.1616347987
  0
LINE
  5
4FB
100
AcDbEntity
  8
0
100
AcDbLine
 62
7
  6
CONTINUOUS
 10
49.6215810819
 20
184.0339752283
 11
49.7645497774
 21
184.0658901209
  0
LINE
  5
4FC
100
AcDbEntity
  8
0
100
AcDbLine
 62
7
  6
CONTINUOUS
 10
52.2807999956
 20
184.0339752283
 11
52.4523624956
 21
184.0658901209
  0
LINE
  5
4FD
100
AcDbEntity
  8
0
100
AcDbLine
 62
7
  6
CONTINUOUS
 10
52.2236673272
 20
185.0549564512
 11
52.0536924672
 21
185.0233369019
  0
LINE
  5
4FE
100
AcDbEntity
  8
0
100
AcDbLine
 62
7
  6
CONTINUOUS
 10
52.0520498865
 20
185.0552517917
 11
51.8804873865
 21
185.0233369019
  0
LINE
  5
4FF
100
AcDbEntity
  8
0
100
AcDbLine
 62
7
  6
CONTINUOUS
 10
49.7375987172
 20
184.7041880038
 11
49.5660362172
 21
184.672273114
  0
LINE
  5
500
100
AcDbEntity
  8
0
100
AcDbLine
 62
7
  6
CONTINUOUS
 10
49.5643936365
 20
184.7041880038
 11
49.3928311365
 21
184.672273114
  0
LINE
  5
501
100
AcDbEntity
  8
0
100
AcDbLine
 62
7
  6
CONTINUOUS
 10
47.5703141552
 20
185.0403808142
 11
47.4786924741
 21
185.0233369019
  0
LINE
  5
502
100
AcDbEntity
  8
0
100
AcDbLine
 62
7
  6
CONTINUOUS
 10
47.4770498728
 20
185.0552517917
 11
47.3054873933
 21
185.0233369019
  0
LINE
  5
503
100
AcDbEntity
  8
0
100
AcDbLine
 62
7
  6
CONTINUOUS
 10
47.4770498728
 20
184.0339752283
 11
47.6772061365
 21
184.0658901209
  0
LINE
  5
504
100
AcDbEntity
  8
0
100
AcDbLine
 62
7
  6
CONTINUOUS
 10
47.8218174536
 20
184.1935496997
 11
47.6216612309
 21
184.1616347987
  0
LINE
  5
505
100
AcDbEntity
  8
0
100
AcDbLine
 62
7
  6
CONTINUOUS
 10
47.6486123728
 20
184.1935496997
 11
47.4484561501
 21
184.1616347987
  0
LINE
  5
506
100
AcDbEntity
  8
0
100
AcDbLine
 62
7
  6
CONTINUOUS
 10
49.678809417
 20
185.0549963762
 11
49.4802549672
 21
185.0233369019
  0
LINE
  5
507
100
AcDbEntity
  8
0
100
AcDbLine
 62
7
  6
CONTINUOUS
 10
49.507206191
 20
185.0552517917
 11
49.3070498865
 21
185.0233369019
  0
LWPOLYLINE
  5
508
100
AcDbEntity
  8
0
100
AcDbPolyline
 62
7
  6
CONTINUOUS
 90
106
 70
0
 10
84.1806903467
 20
182.0955349236
 10
84.1818076712
 20
182.0951587937
 10
84.1791817946
 20
182.0962401346
 10
84.1732579361
 20
182.0989487327
 10
84.1641547742
 20
182.103538195
 10
84.1520053059
 20
182.1102322378
 10
84.1368873182
 20
182.1192672339
 10
84.1188902794
 20
182.1308621953
 10
84.0980527581
 20
182.1452620249
 10
84.0744104477
 20
182.1627147014
 10
84.0480134267
 20
182.183459434
 10
84.0188752485
 20
182.2077686845
 10
83.9871401412
 20
182.2358072788
 10
83.952923547
 20
182.2677545181
 10
83.916380778
 20
182.3037438203
 10
83.8776659214
 20
182.3438972688
 10
83.8369477501
 20
182.388309823
 10
83.7943984046
 20
182.4370598246
 10
83.7502039619
 20
182.4901961142
 10
83.7045564319
 20
182.5477457989
 10
83.6576466565
 20
182.6097225388
 10
83.609668299
 20
182.6761222774
 10
83.5608324428
 20
182.7469012445
 10
83.5113469946
 20
182.8220020902
 10
83.4614325972
 20
182.9013291644
 10
83.4113095006
 20
182.9847650441
 10
83.3611901344
 20
183.0721824899
 10
83.3112896692
 20
183.1634261109
 10
83.2618088776
 20
183.2583413636
 10
83.21295309
 20
183.3567402115
 10
83.1648994026
 20
183.458463993
 10
83.1178273136
 20
183.5633265295
 10
83.0719024395
 20
183.6711443037
 10
83.0272861207
 20
183.78171807
 10
82.9841285797
 20
183.8948443222
 10
82.94257804
 20
184.0102928078
 10
82.902749428
 20
184.1278909119
 10
82.8647607575
 20
184.247428792
 10
82.8287004251
 20
184.3687579794
 10
82.7946552686
 20
184.4917113518
 10
82.7627035749
 20
184.6161232523
 10
82.7329168826
 20
184.7418210404
 10
82.7053544892
 20
184.8686504526
 10
82.6800729903
 20
184.9964297043
 10
82.6571048325
 20
185.1250667168
 10
82.6364829247
 20
185.2544424395
 10
82.6182323602
 20
185.384465669
 10
82.6023747469
 20
185.5150400647
 10
82.5889289278
 20
185.6460720631
 10
82.5779093007
 20
185.7774649903
 10
82.5693267068
 20
185.9091396604
 10
82.5631884376
 20
186.0410069386
 10
82.5594991945
 20
186.1730063327
 10
82.5582609452
 20
186.3050703962
 10
82.5594752452
 20
186.4371347959
 10
82.5631405579
 20
186.5691351968
 10
82.5692549348
 20
186.7010041674
 10
82.5778136932
 20
186.8326812121
 10
82.5888095698
 20
186.9640772683
 10
82.6022317544
 20
187.0951132002
 10
82.6180658862
 20
187.2256924076
 10
82.6362931661
 20
187.355721395
 10
82.6568920303
 20
187.4851038915
 10
82.6798374342
 20
187.6137487448
 10
82.7050965344
 20
187.7415370246
 10
82.7326369502
 20
187.8683767403
 10
82.7624021795
 20
187.9940862355
 10
82.7943330243
 20
188.1185113632
 10
82.8283580406
 20
188.2414795601
 10
82.8643990438
 20
188.3628252404
 10
82.9023693028
 20
188.4823813633
 10
82.9421805253
 20
188.5999995139
 10
82.9837148278
 20
188.7154699372
 10
83.0268574182
 20
188.8286201027
 10
83.0714601789
 20
188.9392197288
 10
83.1173729969
 20
189.0470652911
 10
83.1644346333
 20
189.1519575095
 10
83.2124795654
 20
189.2537128132
 10
83.2613283937
 20
189.3521449762
 10
83.3108041148
 20
189.4470952809
 10
83.3607014663
 20
189.5383755669
 10
83.4108197401
 20
189.6258311744
 10
83.4609438066
 20
189.7093065505
 10
83.5108612681
 20
189.788674291
 10
83.5603518976
 20
189.8638167954
 10
83.6091950806
 20
189.9346382491
 10
83.657182856
 20
190.0010810333
 10
83.7041041057
 20
190.0631011489
 10
83.7497650742
 20
190.1206942571
 10
83.7939748344
 20
190.1738737634
 10
83.8365412781
 20
190.2226665164
 10
83.8772782031
 20
190.2671210858
 10
83.9160134382
 20
190.3073156618
 10
83.9525781377
 20
190.3433450075
 10
83.9868181751
 20
190.3753310509
 10
84.018578275
 20
190.4034071138
 10
84.047742607
 20
190.4277520564
 10
84.0741667316
 20
190.4485304459
 10
84.0978366578
 20
190.4660144112
 10
84.1187018437
 20
190.4804428592
 10
84.1367268642
 20
190.4920639977
 10
84.151873244
 20
190.5011227915
 10
84.1640517752
 20
190.5078383469
 10
84.1731848934
 20
190.5124470533
 10
84.17913994
 20
190.5151726098
 10
84.1796832483
 20
190.5154052971
  0
LINE
  5
509
100
AcDbEntity
  8
0
100
AcDbLine
 62
7
  6
CONTINUOUS
 10
51.9376749956
 20
184.8956773427
 11
52.0520498865
 21
184.9275922325
  0
LINE
  5
50A
100
AcDbEntity
  8
0
100
AcDbLine
 62
7
  6
CONTINUOUS
 10
50.9654872774
 20
184.8956773427
 11
51.0798624956
 21
184.9275922325
  0
LINE
  5
50B
100
AcDbEntity
  8
0
100
AcDbLine
 62
7
  6
CONTINUOUS
 10
49.4500185819
 20
184.54461351
 11
49.5643936365
 21
184.5765283998
  0
LINE
  5
50C
100
AcDbEntity
  8
0
100
AcDbLine
 62
7
  6
CONTINUOUS
 10
51.2194502975
 20
185.0458713353
 11
51.1386923582
 21
185.0233369019
  0
LINE
  5
50D
100
AcDbEntity
  8
0
100
AcDbLine
 62
7
  6
CONTINUOUS
 10
51.0798624956
 20
185.0552517917
 11
50.9654872774
 21
185.0233369019
  0
LINE
  5
50E
100
AcDbEntity
  8
0
100
AcDbLine
 62
7
  6
CONTINUOUS
 10
49.3928311365
 20
184.8956773427
 11
49.507206191
 21
184.9275922325
  0
LINE
  5
50F
100
AcDbEntity
  8
0
100
AcDbLine
 62
7
  6
CONTINUOUS
 10
48.4206435819
 20
184.8956773427
 11
48.5350186365
 21
184.9275922325
  0
LINE
  5
510
100
AcDbEntity
  8
0
100
AcDbLine
 62
7
  6
CONTINUOUS
 10
48.6746065525
 20
185.0458713537
 11
48.5938486627
 21
185.0233369019
  0
LINE
  5
511
100
AcDbEntity
  8
0
100
AcDbLine
 62
7
  6
CONTINUOUS
 10
48.5350186365
 20
185.0552517917
 11
48.4206435819
 21
185.0233369019
  0
LINE
  5
512
100
AcDbEntity
  8
0
100
AcDbLine
 62
7
  6
CONTINUOUS
 10
47.3340811365
 20
184.8956773427
 11
47.4484561501
 21
184.9275922325
  0
LINE
  5
513
100
AcDbEntity
  8
2_FEATURE
100
AcDbLine
 62
7
  6
CONTINUOUS
 10
52.1054231954
 20
190.5057153965
 11
51.1328125
 21
190.5057153965
  0
LINE
  5
514
100
AcDbEntity
  8
0
100
AcDbLine
 62
7
  6
CONTINUOUS
 10
84.1602018452
 20
190.5057153965
 11
85.1328125
 21
190.5057153965
  0
LINE
  5
515
100
AcDbEntity
  8
0
100
AcDbLine
 62
7
  6
CONTINUOUS
 10
50.1328136499
 20
193.8057153965
 11
86.1328113501
 21
193.8057153965
  0
LINE
  5
516
100
AcDbEntity
  8
0
100
AcDbLine
 62
7
  6
CONTINUOUS
 10
94.3328125
 20
195.8057153965
 11
83.7148045113
 21
195.8057153965
  0
LINE
  5
517
100
AcDbEntity
  8
0
100
AcDbLine
 62
7
  6
CONTINUOUS
 10
41.9328125
 20
195.8057153965
 11
52.5508204887
 21
195.8057153965
  0
LINE
  5
518
100
AcDbEntity
  8
0
100
AcDbLine
 62
7
  6
CONTINUOUS
 10
82.8885009091
 20
188.4386273141
 11
82.9182651017
 21
188.5302255985
  0
LINE
  5
519
100
AcDbEntity
  8
0
100
AcDbLine
 62
7
  6
CONTINUOUS
 10
46.5247232028
 20
198.8057153965
 11
89.7409017972
 21
198.8057153965
  0
LWPOLYLINE
  5
51A
100
AcDbEntity
  8
0
100
AcDbPolyline
 62
7
  6
CONTINUOUS
 90
36
 70
0
 10
82.9182651448
 20
184.0812050671
 10
82.8882124854
 20
184.1737232983
 10
82.8563747148
 20
184.2794594503
 10
82.8261501522
 20
184.3884526254
 10
82.7976098268
 20
184.5005561128
 10
82.7708099622
 20
184.6156358673
 10
82.7458005397
 20
184.7335515344
 10
82.7226281275
 20
184.8541446148
 10
82.7013308834
 20
184.9772624992
 10
82.6819454173
 20
185.1027375984
 10
82.6645011523
 20
185.230407251
 10
82.6490272629
 20
185.3601013232
 10
82.6355499589
 20
185.4916310409
 10
82.6240924384
 20
185.6248316941
 10
82.6146835132
 20
185.7594232277
 10
82.6073441544
 20
185.8951537011
 10
82.6020927191
 20
186.0317363679
 10
82.5989404193
 20
186.1688868724
 10
82.59789554
 20
186.3063217715
 10
82.5989590187
 20
186.4437553734
 10
82.6021298805
 20
186.5809020525
 10
82.6073997814
 20
186.7174784096
 10
82.6147574943
 20
186.8532001604
 10
82.6241845891
 20
186.9877806244
 10
82.6356600914
 20
187.1209679847
 10
82.6491551179
 20
187.2524822852
 10
82.6646464784
 20
187.3821590024
 10
82.6821079266
 20
187.5098095295
 10
82.7015102788
 20
187.6352639021
 10
82.7228241042
 20
187.7583596335
 10
82.7460127649
 20
187.8789292856
 10
82.7710381046
 20
187.9968203922
 10
82.7978535325
 20
188.1118746418
 10
82.8264090908
 20
188.223951886
 10
82.8566485568
 20
188.3329182907
 10
82.8885009091
 20
188.4386273141
  0
LINE
  5
51B
100
AcDbEntity
  8
2_FEATURE
100
AcDbLine
 62
7
  6
CONTINUOUS
 10
86.1328125
 20
178.8057153965
 11
86.1328125
 21
181.1057153965
  0
LINE
  5
51C
100
AcDbEntity
  8
2_FEATURE
100
AcDbLine
 62
7
  6
CONTINUOUS
 10
86.1328125
 20
191.5057153965
 11
86.1328125
 21
193.8057153965
  0
LINE
  5
51D
100
AcDbEntity
  8
0
100
AcDbLine
 62
7
  6
CONTINUOUS
 10
89.7409017972
 20
198.8057153965
 11
90.8328125
 21
195.8057153965
  0
LINE
  5
51E
100
AcDbEntity
  8
0
100
AcDbLine
 62
7
  6
CONTINUOUS
 10
94.3328125
 20
179.805701098
 11
94.3328125
 21
196.645087442
  0
LWPOLYLINE
  5
51F
100
AcDbEntity
  8
0
100
AcDbPolyline
 62
7
  6
CONTINUOUS
 90
65
 70
0
 10
101.114812482
 20
178.5013970333
 10
101.1140025509
 20
178.5472937797
 10
101.1107240393
 20
178.6044502951
 10
101.105090276
 20
178.6601395399
 10
101.0972658927
 20
178.7143336917
 10
101.087408772
 20
178.7669974699
 10
101.0756689516
 20
178.8181069003
 10
101.0621884115
 20
178.8676478804
 10
101.0471009363
 20
178.915615049
 10
101.0305320512
 20
178.9620107449
 10
101.0125990519
 20
179.0068439654
 10
100.993411062
 20
179.0501294916
 10
100.9730692179
 20
179.0918869055
 10
100.9516653078
 20
179.132142596
 10
100.9292894293
 20
179.1709155813
 10
100.9060207265
 20
179.2082353637
 10
100.8819436488
 20
179.244115744
 10
100.8571345416
 20
179.2785785659
 10
100.831665974
 20
179.3116464083
 10
100.8056054068
 20
179.3433444269
 10
100.7790156537
 20
179.3736994943
 10
100.7519546698
 20
179.402740244
 10
100.7244772584
 20
179.4304951384
 10
100.6966321527
 20
179.4569953884
 10
100.6684705416
 20
179.4822668859
 10
100.6400382678
 20
179.5063381564
 10
100.6113789164
 20
179.5292373757
 10
100.5825325485
 20
179.5509934567
 10
100.5535361064
 20
179.5716356114
 10
100.5244236996
 20
179.5911930839
 10
100.4952257733
 20
179.6096956239
 10
100.465968854
 20
179.6271734303
 10
100.4366818609
 20
179.6436534661
 10
100.407376515
 20
179.6591703119
 10
100.3781160722
 20
179.6737306542
 10
100.3489496026
 20
179.6873512046
 10
100.3199249969
 20
179.7000509727
 10
100.2910897756
 20
179.7118507807
 10
100.2624858492
 20
179.7227751534
 10
100.2341517164
 20
179.7328508488
 10
100.206134407
 20
179.7421026932
 10
100.1784665935
 20
179.7505614062
 10
100.1512177561
 20
179.7582480873
 10
100.1244050472
 20
179.7652005597
 10
100.0982055961
 20
179.7714194156
 10
100.0727388959
 20
179.7769295815
 10
100.0481883485
 20
179.7817507497
 10
100.0247457612
 20
179.7859118172
 10
100.0024974852
 20
179.7894672155
 10
99.981600728
 20
179.7924627799
 10
99.9620228444
 20
179.7949717125
 10
99.9438610926
 20
179.7970458433
 10
99.9268714339
 20
179.7987690646
 10
99.9108937188
 20
179.800201614
 10
99.8957504893
 20
179.8013943852
 10
99.8812273498
 20
179.802390762
 10
99.8672469348
 20
179.8032167469
 10
99.8536435873
 20
179.8038985272
 10
99.8404409049
 20
179.8044488406
 10
99.8276125148
 20
179.8048822105
 10
99.8151348346
 20
179.8052117791
 10
99.8029964684
 20
179.8054493309
 10
99.7911368666
 20
179.8056063295
 10
99.7795148676
 20
179.8056921912
 10
94.3326218477
 20
179.8057153965
  0
LINE
  5
520
100
AcDbEntity
  8
0
100
AcDbLine
 62
7
  6
CONTINUOUS
 10
101.1148125
 20
178.5013973342
 11
101.1148125
 21
175.1057153965
  0
LINE
  5
521
100
AcDbEntity
  8
2_FEATURE
100
AcDbLine
 62
7
  6
CONTINUOUS
 10
150.8921921018
 20
69.5785694564
 11
151.5562087889
 21
69.5785694564
  0
LINE
  5
522
100
AcDbEntity
  8
0
100
AcDbLine
 62
7
  6
CONTINUOUS
 10
160.7242003519
 20
141.5785694564
 11
162.5273852022
 21
142.2348750688
  0
LINE
  5
523
100
AcDbEntity
  8
DEFAULT_1
100
AcDbLine
 62
2
  6
CENTER
 10
166.0256495627
 20
87.6835694564
 11
153.2243003519
 21
87.6835694564
  0
LINE
  5
524
100
AcDbEntity
  8
0
100
AcDbLine
 62
2
  6
CONTINUOUS
 10
152.1042003519
 20
87.6835694564
 11
150.3442003519
 21
87.6835694564
  0
LINE
  5
525
100
AcDbEntity
  8
DEFAULT_1
100
AcDbLine
 62
2
  6
CENTER
 10
136.4165476772
 20
87.6835694564
 11
149.2241003519
 21
87.6835694564
  0
LINE
  5
526
100
AcDbEntity
  8
0
100
AcDbLine
 62
7
  6
CONTINUOUS
 10
138.7242003519
 20
75.9579171974
 11
138.7242003519
 21
77.7837473638
  0
LINE
  5
527
100
AcDbEntity
  8
2_FEATURE
100
AcDbLine
 62
7
  6
CONTINUOUS
 10
138.7242003519
 20
75.9621189254
 11
138.7242003519
 21
137.5785694564
  0
LINE
  5
528
100
AcDbEntity
  8
0
100
AcDbLine
 62
7
  6
CONTINUOUS
 10
149.143949545
 20
117.9476554304
 11
149.0801197542
 21
117.8486037808
  0
LINE
  5
529
100
AcDbEntity
  8
0
100
AcDbLine
 62
7
  6
CONTINUOUS
 10
149.143949545
 20
117.7009746478
 11
149.2396942368
 21
117.8495521311
  0
LINE
  5
52A
100
AcDbEntity
  8
0
100
AcDbLine
 62
7
  6
CONTINUOUS
 10
149.143949545
 20
117.6009746478
 11
149.2396942368
 21
117.7495521311
  0
LINE
  5
52B
100
AcDbEntity
  8
0
100
AcDbLine
 62
7
  6
CONTINUOUS
 10
149.2716091266
 20
118.0467070845
 11
149.143949545
 21
117.9476554304
  0
LINE
  5
52C
100
AcDbEntity
  8
0
100
AcDbLine
 62
7
  6
CONTINUOUS
 10
149.2396942368
 20
117.8495521311
 11
149.3992686858
 21
117.9486037808
  0
LINE
  5
52D
100
AcDbEntity
  8
0
100
AcDbLine
 62
7
  6
CONTINUOUS
 10
149.2396942368
 20
117.7495521311
 11
149.3992686858
 21
117.8486037808
  0
LINE
  5
52E
100
AcDbEntity
  8
0
100
AcDbLine
 62
7
  6
CONTINUOUS
 10
149.7503325185
 20
116.8085613443
 11
149.654587849
 21
116.7590355638
  0
LINE
  5
52F
100
AcDbEntity
  8
0
100
AcDbLine
 62
7
  6
CONTINUOUS
 10
149.654587849
 20
116.6114063776
 11
149.7822474083
 21
116.6609322999
  0
LINE
  5
530
100
AcDbEntity
  8
0
100
AcDbLine
 62
7
  6
CONTINUOUS
 10
149.654587849
 20
116.5114063776
 11
149.7822474083
 21
116.5609322999
  0
LINE
  5
531
100
AcDbEntity
  8
0
100
AcDbLine
 62
7
  6
CONTINUOUS
 10
149.7184176287
 20
115.025631686
 11
149.5907580694
 21
114.9761057637
  0
LINE
  5
532
100
AcDbEntity
  8
0
100
AcDbLine
 62
7
  6
CONTINUOUS
 10
149.5907580694
 20
114.8284767193
 11
149.7503325185
 21
114.8780023581
  0
LINE
  5
533
100
AcDbEntity
  8
2_FEATURE
100
AcDbLine
 62
7
  6
CONTINUOUS
 10
147.0242003519
 20
93.4130670741
 11
147.0242003519
 21
81.7440718387
  0
LINE
  5
534
100
AcDbEntity
  8
0
100
AcDbLine
 62
7
  6
CONTINUOUS
 10
148.9843750764
 20
117.5514487964
 11
148.9524601838
 21
117.2542938652
  0
LINE
  5
535
100
AcDbEntity
  8
0
100
AcDbLine
 62
7
  6
CONTINUOUS
 10
148.9843750764
 20
114.0351149414
 11
148.9524601838
 21
113.8370118193
  0
LINE
  5
536
100
AcDbEntity
  8
0
100
AcDbLine
 62
7
  6
CONTINUOUS
 10
149.016289969
 20
117.7000262797
 11
148.9843750764
 21
117.5514487964
  0
LINE
  5
537
100
AcDbEntity
  8
0
100
AcDbLine
 62
7
  6
CONTINUOUS
 10
149.0801197542
 20
117.4038196457
 11
149.143949545
 21
117.7009746478
  0
LINE
  5
538
100
AcDbEntity
  8
0
100
AcDbLine
 62
7
  6
CONTINUOUS
 10
149.0801197542
 20
117.3038196457
 11
149.143949545
 21
117.6009746478
  0
LINE
  5
539
100
AcDbEntity
  8
0
100
AcDbLine
 62
7
  6
CONTINUOUS
 10
149.8779920777
 20
116.8095097832
 11
149.9418218573
 21
117.0076130471
  0
LINE
  5
53A
100
AcDbEntity
  8
0
100
AcDbLine
 62
7
  6
CONTINUOUS
 10
149.016289969
 20
114.1341667859
 11
148.9843750764
 21
114.0351149414
  0
LINE
  5
53B
100
AcDbEntity
  8
0
100
AcDbLine
 62
7
  6
CONTINUOUS
 10
149.8779920777
 20
116.7095097832
 11
149.9418218573
 21
116.9076130471
  0
LINE
  5
53C
100
AcDbEntity
  8
0
100
AcDbLine
 62
7
  6
CONTINUOUS
 10
149.0801197542
 20
113.9370118193
 11
149.143949545
 21
114.1351149414
  0
LINE
  5
53D
100
AcDbEntity
  8
0
100
AcDbLine
 62
7
  6
CONTINUOUS
 10
149.0801197542
 20
113.8370118193
 11
149.143949545
 21
114.0351149414
  0
LINE
  5
53E
100
AcDbEntity
  8
0
100
AcDbLine
 62
7
  6
CONTINUOUS
 10
149.8141622981
 20
115.2237348081
 11
149.7822474083
 21
115.124683247
  0
LINE
  5
53F
100
AcDbEntity
  8
0
100
AcDbLine
 62
7
  6
CONTINUOUS
 10
149.0801197542
 20
117.8486037808
 11
149.016289969
 21
117.7000262797
  0
LINE
  5
540
100
AcDbEntity
  8
0
100
AcDbLine
 62
7
  6
CONTINUOUS
 10
149.8141622981
 20
116.9571388985
 11
149.7503325185
 21
116.8085613443
  0
LINE
  5
541
100
AcDbEntity
  8
0
100
AcDbLine
 62
7
  6
CONTINUOUS
 10
149.8779920777
 20
115.0265798415
 11
149.9418218573
 21
115.1751573248
  0
LINE
  5
542
100
AcDbEntity
  8
0
100
AcDbLine
 62
7
  6
CONTINUOUS
 10
149.8779920777
 20
114.9265798415
 11
149.9418218573
 21
115.0751573248
  0
LINE
  5
543
100
AcDbEntity
  8
0
100
AcDbLine
 62
7
  6
CONTINUOUS
 10
149.8779920777
 20
113.0950728415
 11
149.9418218573
 21
113.2436503248
  0
LINE
  5
544
100
AcDbEntity
  8
0
100
AcDbLine
 62
7
  6
CONTINUOUS
 10
149.8779920777
 20
112.9950728415
 11
149.9418218573
 21
113.1436503248
  0
LINE
  5
545
100
AcDbEntity
  8
0
100
AcDbLine
 62
7
  6
CONTINUOUS
 10
149.7822474083
 20
116.6609322999
 11
149.8779920777
 21
116.8095097832
  0
LINE
  5
546
100
AcDbEntity
  8
0
100
AcDbLine
 62
7
  6
CONTINUOUS
 10
149.7822474083
 20
116.5609322999
 11
149.8779920777
 21
116.7095097832
  0
LINE
  5
547
100
AcDbEntity
  8
0
100
AcDbLine
 62
7
  6
CONTINUOUS
 10
149.1120346552
 20
114.2827442693
 11
149.016289969
 21
114.1341667859
  0
LINE
  5
548
100
AcDbEntity
  8
0
100
AcDbLine
 62
7
  6
CONTINUOUS
 10
149.7822474083
 20
115.124683247
 11
149.7184176287
 21
115.025631686
  0
LINE
  5
549
100
AcDbEntity
  8
0
100
AcDbLine
 62
7
  6
CONTINUOUS
 10
149.8141622981
 20
114.9275282804
 11
149.8779920777
 21
115.0265798415
  0
LINE
  5
54A
100
AcDbEntity
  8
0
100
AcDbLine
 62
7
  6
CONTINUOUS
 10
149.8141622981
 20
114.8275282804
 11
149.8779920777
 21
114.9265798415
  0
LINE
  5
54B
100
AcDbEntity
  8
0
100
AcDbLine
 62
7
  6
CONTINUOUS
 10
149.8141622981
 20
112.996020997
 11
149.8779920777
 21
113.0950728415
  0
LINE
  5
54C
100
AcDbEntity
  8
0
100
AcDbLine
 62
7
  6
CONTINUOUS
 10
149.8141622981
 20
112.896020997
 11
149.8779920777
 21
112.9950728415
  0
LINE
  5
54D
100
AcDbEntity
  8
0
100
AcDbLine
 62
7
  6
CONTINUOUS
 10
149.7503325185
 20
114.8780023581
 11
149.8141622981
 21
114.9275282804
  0
LINE
  5
54E
100
AcDbEntity
  8
0
100
AcDbLine
 62
7
  6
CONTINUOUS
 10
149.7503325185
 20
114.7780023581
 11
149.8141622981
 21
114.8275282804
  0
LINE
  5
54F
100
AcDbEntity
  8
0
100
AcDbLine
 62
7
  6
CONTINUOUS
 10
149.143949545
 20
114.1351149414
 11
149.2077793246
 21
114.1846408637
  0
LINE
  5
550
100
AcDbEntity
  8
0
100
AcDbLine
 62
7
  6
CONTINUOUS
 10
149.143949545
 20
114.0351149414
 11
149.2077793246
 21
114.0846408637
  0
LINE
  5
551
100
AcDbEntity
  8
0
100
AcDbLine
 62
7
  6
CONTINUOUS
 10
149.016289969
 20
113.0445984803
 11
148.9524601838
 21
112.9950728415
  0
LINE
  5
552
100
AcDbEntity
  8
0
100
AcDbLine
 62
7
  6
CONTINUOUS
 10
149.7822474083
 20
113.1436503248
 11
149.7184176287
 21
113.0941241192
  0
LINE
  5
553
100
AcDbEntity
  8
0
100
AcDbLine
 62
7
  6
CONTINUOUS
 10
149.1120346552
 20
113.0941241192
 11
149.016289969
 21
113.0445984803
  0
LINE
  5
554
100
AcDbEntity
  8
0
100
AcDbLine
 62
7
  6
CONTINUOUS
 10
148.9524601838
 20
112.8474435137
 11
149.0482048644
 21
112.8969691525
  0
LINE
  5
555
100
AcDbEntity
  8
0
100
AcDbLine
 62
7
  6
CONTINUOUS
 10
148.9524601838
 20
112.7474435137
 11
149.0482048644
 21
112.7969691525
  0
LINE
  5
556
100
AcDbEntity
  8
0
100
AcDbLine
 62
7
  6
CONTINUOUS
 10
149.7184176287
 20
112.9464953581
 11
149.8141622981
 21
112.996020997
  0
LINE
  5
557
100
AcDbEntity
  8
0
100
AcDbLine
 62
7
  6
CONTINUOUS
 10
149.7184176287
 20
112.8464953581
 11
149.8141622981
 21
112.896020997
  0
LINE
  5
558
100
AcDbEntity
  8
0
100
AcDbLine
 62
7
  6
CONTINUOUS
 10
149.2396942368
 20
114.3322699081
 11
149.1120346552
 21
114.2827442693
  0
LINE
  5
559
100
AcDbEntity
  8
0
100
AcDbLine
 62
7
  6
CONTINUOUS
 10
149.5907580694
 20
114.7284767193
 11
149.7503325185
 21
114.7780023581
  0
LINE
  5
55A
100
AcDbEntity
  8
0
100
AcDbLine
 62
7
  6
CONTINUOUS
 10
149.0482048644
 20
112.8969691525
 11
149.2077793246
 21
112.9464953581
  0
LINE
  5
55B
100
AcDbEntity
  8
0
100
AcDbLine
 62
7
  6
CONTINUOUS
 10
149.0482048644
 20
112.7969691525
 11
149.2077793246
 21
112.8464953581
  0
LINE
  5
55C
100
AcDbEntity
  8
0
100
AcDbLine
 62
7
  6
CONTINUOUS
 10
149.0482048644
 20
108.4386964969
 11
149.143949545
 21
108.3396452192
  0
LINE
  5
55D
100
AcDbEntity
  8
0
100
AcDbLine
 62
7
  6
CONTINUOUS
 10
149.0482048644
 20
108.5386964969
 11
149.143949545
 21
108.4396452192
  0
LINE
  5
55E
100
AcDbEntity
  8
0
100
AcDbLine
 62
7
  6
CONTINUOUS
 10
148.9843750764
 20
108.6367996191
 11
149.0482048644
 21
108.4386964969
  0
LINE
  5
55F
100
AcDbEntity
  8
0
100
AcDbLine
 62
7
  6
CONTINUOUS
 10
148.9843750764
 20
108.7367996191
 11
149.0482048644
 21
108.5386964969
  0
LINE
  5
560
100
AcDbEntity
  8
0
100
AcDbLine
 62
7
  6
CONTINUOUS
 10
148.9524601838
 20
108.9339545858
 11
148.9843750764
 21
108.6367996191
  0
LINE
  5
561
100
AcDbEntity
  8
0
100
AcDbLine
 62
7
  6
CONTINUOUS
 10
148.9524601838
 20
109.0339545858
 11
148.9843750764
 21
108.7367996191
  0
LINE
  5
562
100
AcDbEntity
  8
0
100
AcDbLine
 62
7
  6
CONTINUOUS
 10
149.9737367472
 20
109.3301613969
 11
149.9418218573
 21
109.6273163636
  0
LINE
  5
563
100
AcDbEntity
  8
0
100
AcDbLine
 62
7
  6
CONTINUOUS
 10
149.6226729592
 20
113.6389084137
 11
149.5907580694
 21
113.9360633804
  0
LINE
  5
564
100
AcDbEntity
  8
0
100
AcDbLine
 62
7
  6
CONTINUOUS
 10
149.9737367472
 20
117.2542938652
 11
149.9418218573
 21
117.5514487964
  0
LINE
  5
565
100
AcDbEntity
  8
0
100
AcDbLine
 62
7
  6
CONTINUOUS
 10
148.9524601838
 20
117.2542938652
 11
148.9843750764
 21
116.9076130471
  0
LINE
  5
566
100
AcDbEntity
  8
0
100
AcDbLine
 62
7
  6
CONTINUOUS
 10
148.9574171767
 20
117.3004477067
 11
148.9843750764
 21
117.0076130471
  0
LINE
  5
567
100
AcDbEntity
  8
0
100
AcDbLine
 62
7
  6
CONTINUOUS
 10
149.1120346552
 20
116.9571388985
 11
149.0801197542
 21
117.3038196457
  0
LINE
  5
568
100
AcDbEntity
  8
0
100
AcDbLine
 62
7
  6
CONTINUOUS
 10
149.9737367472
 20
113.7379599748
 11
149.9418218573
 21
114.0846408637
  0
LINE
  5
569
100
AcDbEntity
  8
0
100
AcDbLine
 62
7
  6
CONTINUOUS
 10
148.9524601838
 20
123.9505646434
 11
148.9524601838
 21
123.7762035762
  0
LINE
  5
56A
100
AcDbEntity
  8
0
100
AcDbLine
 62
7
  6
CONTINUOUS
 10
148.9524601838
 20
123.2577443203
 11
148.9524601838
 21
122.6688470458
  0
LINE
  5
56B
100
AcDbEntity
  8
0
100
AcDbLine
 62
7
  6
CONTINUOUS
 10
148.9524601838
 20
122.5302829812
 11
148.9524601838
 21
121.9413857066
  0
LINE
  5
56C
100
AcDbEntity
  8
0
100
AcDbLine
 62
7
  6
CONTINUOUS
 10
148.9524601838
 20
121.1446423351
 11
148.9524601838
 21
120.5557450605
  0
LINE
  5
56D
100
AcDbEntity
  8
0
100
AcDbLine
 62
7
  6
CONTINUOUS
 10
148.9524601838
 20
120.4171809959
 11
148.9524601838
 21
119.8282837214
  0
LINE
  5
56E
100
AcDbEntity
  8
0
100
AcDbLine
 62
7
  6
CONTINUOUS
 10
148.9524601838
 20
116.1151998499
 11
148.9524601838
 21
115.8675706637
  0
LINE
  5
56F
100
AcDbEntity
  8
0
100
AcDbLine
 62
7
  6
CONTINUOUS
 10
148.9524601838
 20
114.9761057637
 11
148.9524601838
 21
114.7284767193
  0
LINE
  5
570
100
AcDbEntity
  8
0
100
AcDbLine
 62
7
  6
CONTINUOUS
 10
148.9524601838
 20
113.8370118193
 11
148.9524601838
 21
113.5398568526
  0
LINE
  5
571
100
AcDbEntity
  8
0
100
AcDbLine
 62
7
  6
CONTINUOUS
 10
148.9524601838
 20
112.9950728415
 11
148.9524601838
 21
112.7474435137
  0
LINE
  5
572
100
AcDbEntity
  8
0
100
AcDbLine
 62
7
  6
CONTINUOUS
 10
148.9524601838
 20
112.3512367025
 11
148.9524601838
 21
112.1036079415
  0
LINE
  5
573
100
AcDbEntity
  8
0
100
AcDbLine
 62
7
  6
CONTINUOUS
 10
148.9524601838
 20
111.7074011303
 11
148.9524601838
 21
111.4597718025
  0
LINE
  5
574
100
AcDbEntity
  8
0
100
AcDbLine
 62
7
  6
CONTINUOUS
 10
148.9524601838
 20
110.5683069025
 11
148.9524601838
 21
110.3206781414
  0
LINE
  5
575
100
AcDbEntity
  8
0
100
AcDbLine
 62
7
  6
CONTINUOUS
 10
148.9524601838
 20
109.2311095524
 11
148.9524601838
 21
108.9339545858
  0
LINE
  5
576
100
AcDbEntity
  8
0
100
AcDbLine
 62
7
  6
CONTINUOUS
 10
148.9843750764
 20
108.6367996191
 11
148.9843750764
 21
108.7367996191
  0
LINE
  5
577
100
AcDbEntity
  8
0
100
AcDbLine
 62
7
  6
CONTINUOUS
 10
148.9843750764
 20
113.2922278082
 11
148.9843750764
 21
113.3922278082
  0
LINE
  5
578
100
AcDbEntity
  8
0
100
AcDbLine
 62
7
  6
CONTINUOUS
 10
148.9843750764
 20
116.9076130471
 11
148.9843750764
 21
117.0076130471
  0
LINE
  5
579
100
AcDbEntity
  8
0
100
AcDbLine
 62
7
  6
CONTINUOUS
 10
149.0482048644
 20
108.4386964969
 11
149.0482048644
 21
108.5386964969
  0
LINE
  5
57A
100
AcDbEntity
  8
0
100
AcDbLine
 62
7
  6
CONTINUOUS
 10
149.0482048644
 20
112.7969691525
 11
149.0482048644
 21
112.8969691525
  0
LINE
  5
57B
100
AcDbEntity
  8
0
100
AcDbLine
 62
7
  6
CONTINUOUS
 10
149.0482048644
 20
113.1436503248
 11
149.0482048644
 21
113.2436503248
  0
LINE
  5
57C
100
AcDbEntity
  8
0
100
AcDbLine
 62
7
  6
CONTINUOUS
 10
149.0482048644
 20
116.7095097832
 11
149.0482048644
 21
116.8095097832
  0
LINE
  5
57D
100
AcDbEntity
  8
0
100
AcDbLine
 62
7
  6
CONTINUOUS
 10
149.0801197542
 20
108.9339545858
 11
149.0801197542
 21
109.3311095524
  0
LINE
  5
57E
100
AcDbEntity
  8
0
100
AcDbLine
 62
7
  6
CONTINUOUS
 10
149.0801197542
 20
113.5398568526
 11
149.0801197542
 21
113.9370118193
  0
LINE
  5
57F
100
AcDbEntity
  8
0
100
AcDbLine
 62
7
  6
CONTINUOUS
 10
149.0801197542
 20
117.3038196457
 11
149.0801197542
 21
117.4038196457
  0
LINE
  5
580
100
AcDbEntity
  8
0
100
AcDbLine
 62
7
  6
CONTINUOUS
 10
149.1120346552
 20
109.5282645191
 11
149.1120346552
 21
109.6282645191
  0
LINE
  5
581
100
AcDbEntity
  8
0
100
AcDbLine
 62
7
  6
CONTINUOUS
 10
149.1120346552
 20
113.0941241192
 11
149.1120346552
 21
113.1941241192
  0
LINE
  5
582
100
AcDbEntity
  8
0
100
AcDbLine
 62
7
  6
CONTINUOUS
 10
149.143949545
 20
108.3396452192
 11
149.143949545
 21
108.4396452192
  0
LINE
  5
583
100
AcDbEntity
  8
0
100
AcDbLine
 62
7
  6
CONTINUOUS
 10
149.143949545
 20
109.6273163636
 11
149.143949545
 21
109.7273163636
  0
LINE
  5
584
100
AcDbEntity
  8
0
100
AcDbLine
 62
7
  6
CONTINUOUS
 10
149.143949545
 20
114.0351149414
 11
149.143949545
 21
114.1351149414
  0
LINE
  5
585
100
AcDbEntity
  8
0
100
AcDbLine
 62
7
  6
CONTINUOUS
 10
149.143949545
 20
116.5609322999
 11
149.143949545
 21
116.6609322999
  0
LINE
  5
586
100
AcDbEntity
  8
0
100
AcDbLine
 62
7
  6
CONTINUOUS
 10
149.143949545
 20
117.6009746478
 11
149.143949545
 21
117.7009746478
  0
LINE
  5
587
100
AcDbEntity
  8
0
100
AcDbLine
 62
7
  6
CONTINUOUS
 10
149.2077793246
 20
108.3396452192
 11
149.2077793246
 21
108.4396452192
  0
LINE
  5
588
100
AcDbEntity
  8
0
100
AcDbLine
 62
7
  6
CONTINUOUS
 10
149.2077793246
 20
109.6768420024
 11
149.2077793246
 21
109.9244713303
  0
LINE
  5
589
100
AcDbEntity
  8
0
100
AcDbLine
 62
7
  6
CONTINUOUS
 10
149.2077793246
 20
112.8464953581
 11
149.2077793246
 21
112.9464953581
  0
LINE
  5
58A
100
AcDbEntity
  8
0
100
AcDbLine
 62
7
  6
CONTINUOUS
 10
149.2077793246
 20
114.0846408637
 11
149.2077793246
 21
114.1846408637
  0
LINE
  5
58B
100
AcDbEntity
  8
0
100
AcDbLine
 62
7
  6
CONTINUOUS
 10
149.2396942368
 20
117.7495521311
 11
149.2396942368
 21
117.8495521311
  0
LINE
  5
58C
100
AcDbEntity
  8
0
100
AcDbLine
 62
7
  6
CONTINUOUS
 10
149.2716091266
 20
114.0846408637
 11
149.2716091266
 21
114.1846408637
  0
LINE
  5
58D
100
AcDbEntity
  8
0
100
AcDbLine
 62
7
  6
CONTINUOUS
 10
149.2716091266
 20
116.5114063776
 11
149.2716091266
 21
116.7590355638
  0
LINE
  5
58E
100
AcDbEntity
  8
0
100
AcDbLine
 62
7
  6
CONTINUOUS
 10
149.2724601838
 20
123.2577443203
 11
149.2724601838
 21
123.3577443203
  0
LINE
  5
58F
100
AcDbEntity
  8
0
100
AcDbLine
 62
7
  6
CONTINUOUS
 10
149.3354389062
 20
108.4386964969
 11
149.3354389062
 21
108.5386964969
  0
LINE
  5
590
100
AcDbEntity
  8
0
100
AcDbLine
 62
7
  6
CONTINUOUS
 10
149.367353796
 20
114.0351149414
 11
149.367353796
 21
114.1351149414
  0
LINE
  5
591
100
AcDbEntity
  8
0
100
AcDbLine
 62
7
  6
CONTINUOUS
 10
149.3992686858
 20
117.8486037808
 11
149.3992686858
 21
117.9486037808
  0
LINE
  5
592
100
AcDbEntity
  8
0
100
AcDbLine
 62
7
  6
CONTINUOUS
 10
149.4311835756
 20
108.6367996191
 11
149.4311835756
 21
108.7367996191
  0
LINE
  5
593
100
AcDbEntity
  8
0
100
AcDbLine
 62
7
  6
CONTINUOUS
 10
149.4311835756
 20
113.9360633804
 11
149.4311835756
 21
114.0360633804
  0
LINE
  5
594
100
AcDbEntity
  8
0
100
AcDbLine
 62
7
  6
CONTINUOUS
 10
149.4630984655
 20
113.8370118193
 11
149.4630984655
 21
113.9370118193
  0
LINE
  5
595
100
AcDbEntity
  8
0
100
AcDbLine
 62
7
  6
CONTINUOUS
 10
149.4950133553
 20
113.0941241192
 11
149.4950133553
 21
113.7389084137
  0
LINE
  5
596
100
AcDbEntity
  8
0
100
AcDbLine
 62
7
  6
CONTINUOUS
 10
149.4950133553
 20
117.8486037808
 11
149.4950133553
 21
117.9486037808
  0
LINE
  5
597
100
AcDbEntity
  8
0
100
AcDbLine
 62
7
  6
CONTINUOUS
 10
149.5124601838
 20
123.6041544819
 11
149.5124601838
 21
123.9812826111
  0
LINE
  5
598
100
AcDbEntity
  8
0
100
AcDbLine
 62
7
  6
CONTINUOUS
 10
149.5588431796
 20
110.3206781414
 11
149.5588431796
 21
110.4206781414
  0
LINE
  5
599
100
AcDbEntity
  8
0
100
AcDbLine
 62
7
  6
CONTINUOUS
 10
149.5907580694
 20
109.4787388803
 11
149.5907580694
 21
109.5787388803
  0
LINE
  5
59A
100
AcDbEntity
  8
0
100
AcDbLine
 62
7
  6
CONTINUOUS
 10
149.5907580694
 20
114.7284767193
 11
149.5907580694
 21
114.8284767193
  0
LINE
  5
59B
100
AcDbEntity
  8
0
100
AcDbLine
 62
7
  6
CONTINUOUS
 10
149.6226729592
 20
113.0941241192
 11
149.6226729592
 21
113.6389084137
  0
LINE
  5
59C
100
AcDbEntity
  8
0
100
AcDbLine
 62
7
  6
CONTINUOUS
 10
149.6226729592
 20
117.7990779471
 11
149.6226729592
 21
117.8990779471
  0
LINE
  5
59D
100
AcDbEntity
  8
0
100
AcDbLine
 62
7
  6
CONTINUOUS
 10
149.654587849
 20
116.7590355638
 11
149.654587849
 21
116.5114063776
  0
LINE
  5
59E
100
AcDbEntity
  8
0
100
AcDbLine
 62
7
  6
CONTINUOUS
 10
149.654587849
 20
109.6273163636
 11
149.654587849
 21
109.7273163636
  0
LINE
  5
59F
100
AcDbEntity
  8
0
100
AcDbLine
 62
7
  6
CONTINUOUS
 10
149.6865027388
 20
111.4597718025
 11
149.6865027388
 21
111.5597718025
  0
LINE
  5
5A0
100
AcDbEntity
  8
0
100
AcDbLine
 62
7
  6
CONTINUOUS
 10
149.6865027388
 20
115.8675706637
 11
149.6865027388
 21
115.9675706637
  0
LINE
  5
5A1
100
AcDbEntity
  8
0
100
AcDbLine
 62
7
  6
CONTINUOUS
 10
149.6865027388
 20
117.7495521311
 11
149.6865027388
 21
117.8495521311
  0
LINE
  5
5A2
100
AcDbEntity
  8
0
100
AcDbLine
 62
7
  6
CONTINUOUS
 10
149.7184176287
 20
114.3322699081
 11
149.7184176287
 21
114.0846408637
  0
LINE
  5
5A3
100
AcDbEntity
  8
0
100
AcDbLine
 62
7
  6
CONTINUOUS
 10
149.7184176287
 20
108.5872739802
 11
149.7184176287
 21
108.3396452192
  0
LINE
  5
5A4
100
AcDbEntity
  8
0
100
AcDbLine
 62
7
  6
CONTINUOUS
 10
149.7184176287
 20
109.6768420024
 11
149.7184176287
 21
109.7768420024
  0
LINE
  5
5A5
100
AcDbEntity
  8
0
100
AcDbLine
 62
7
  6
CONTINUOUS
 10
149.7184176287
 20
110.3702037803
 11
149.7184176287
 21
110.4702037803
  0
LINE
  5
5A6
100
AcDbEntity
  8
0
100
AcDbLine
 62
7
  6
CONTINUOUS
 10
149.7184176287
 20
112.8464953581
 11
149.7184176287
 21
112.9464953581
  0
LINE
  5
5A7
100
AcDbEntity
  8
0
100
AcDbLine
 62
7
  6
CONTINUOUS
 10
149.7503325185
 20
111.3607205248
 11
149.7503325185
 21
111.4607205248
  0
LINE
  5
5A8
100
AcDbEntity
  8
0
100
AcDbLine
 62
7
  6
CONTINUOUS
 10
149.7503325185
 20
114.7780023581
 11
149.7503325185
 21
114.8780023581
  0
LINE
  5
5A9
100
AcDbEntity
  8
0
100
AcDbLine
 62
7
  6
CONTINUOUS
 10
149.7503325185
 20
115.7685189609
 11
149.7503325185
 21
115.8685189609
  0
LINE
  5
5AA
100
AcDbEntity
  8
0
100
AcDbLine
 62
7
  6
CONTINUOUS
 10
149.7822474083
 20
109.6273163636
 11
149.7822474083
 21
109.7273163636
  0
LINE
  5
5AB
100
AcDbEntity
  8
0
100
AcDbLine
 62
7
  6
CONTINUOUS
 10
149.7822474083
 20
114.0351149414
 11
149.7822474083
 21
114.1351149414
  0
LINE
  5
5AC
100
AcDbEntity
  8
0
100
AcDbLine
 62
7
  6
CONTINUOUS
 10
149.7822474083
 20
116.5609322999
 11
149.7822474083
 21
116.6609322999
  0
LINE
  5
5AD
100
AcDbEntity
  8
0
100
AcDbLine
 62
7
  6
CONTINUOUS
 10
149.7822474083
 20
117.6009746478
 11
149.7822474083
 21
117.7009746478
  0
LINE
  5
5AE
100
AcDbEntity
  8
0
100
AcDbLine
 62
7
  6
CONTINUOUS
 10
149.8141622981
 20
109.5282645191
 11
149.8141622981
 21
109.6282645191
  0
LINE
  5
5AF
100
AcDbEntity
  8
0
100
AcDbLine
 62
7
  6
CONTINUOUS
 10
149.8141622981
 20
110.4197294191
 11
149.8141622981
 21
110.5197294191
  0
LINE
  5
5B0
100
AcDbEntity
  8
0
100
AcDbLine
 62
7
  6
CONTINUOUS
 10
149.8141622981
 20
111.4597718025
 11
149.8141622981
 21
111.5597718025
  0
LINE
  5
5B1
100
AcDbEntity
  8
0
100
AcDbLine
 62
7
  6
CONTINUOUS
 10
149.8141622981
 20
111.2121430414
 11
149.8141622981
 21
111.3121430414
  0
LINE
  5
5B2
100
AcDbEntity
  8
0
100
AcDbLine
 62
7
  6
CONTINUOUS
 10
149.8141622981
 20
112.896020997
 11
149.8141622981
 21
112.996020997
  0
LINE
  5
5B3
100
AcDbEntity
  8
0
100
AcDbLine
 62
7
  6
CONTINUOUS
 10
149.8141622981
 20
113.9360633804
 11
149.8141622981
 21
114.0360633804
  0
LINE
  5
5B4
100
AcDbEntity
  8
0
100
AcDbLine
 62
7
  6
CONTINUOUS
 10
149.8141622981
 20
114.8275282804
 11
149.8141622981
 21
114.9275282804
  0
LINE
  5
5B5
100
AcDbEntity
  8
0
100
AcDbLine
 62
7
  6
CONTINUOUS
 10
149.8141622981
 20
115.6199416193
 11
149.8141622981
 21
115.7199416193
  0
LINE
  5
5B6
100
AcDbEntity
  8
0
100
AcDbLine
 62
7
  6
CONTINUOUS
 10
149.8141622981
 20
115.8675706637
 11
149.8141622981
 21
115.9675706637
  0
LINE
  5
5B7
100
AcDbEntity
  8
0
100
AcDbLine
 62
7
  6
CONTINUOUS
 10
149.8141622981
 20
117.5019229804
 11
149.8141622981
 21
117.6019229804
  0
LINE
  5
5B8
100
AcDbEntity
  8
0
100
AcDbLine
 62
7
  6
CONTINUOUS
 10
149.8460771879
 20
108.4386964969
 11
149.8460771879
 21
108.5386964969
  0
LINE
  5
5B9
100
AcDbEntity
  8
0
100
AcDbLine
 62
7
  6
CONTINUOUS
 10
149.8460771879
 20
109.0330064302
 11
149.8460771879
 21
109.4301613969
  0
LINE
  5
5BA
100
AcDbEntity
  8
0
100
AcDbLine
 62
7
  6
CONTINUOUS
 10
149.8460771879
 20
111.0140393525
 11
149.8460771879
 21
111.1140393525
  0
LINE
  5
5BB
100
AcDbEntity
  8
0
100
AcDbLine
 62
7
  6
CONTINUOUS
 10
149.8460771879
 20
113.4408050081
 11
149.8460771879
 21
113.8379599748
  0
LINE
  5
5BC
100
AcDbEntity
  8
0
100
AcDbLine
 62
7
  6
CONTINUOUS
 10
149.8460771879
 20
115.4218382137
 11
149.8460771879
 21
115.5218382137
  0
LINE
  5
5BD
100
AcDbEntity
  8
0
100
AcDbLine
 62
7
  6
CONTINUOUS
 10
149.8460771879
 20
117.3038196457
 11
149.8460771879
 21
117.4038196457
  0
LINE
  5
5BE
100
AcDbEntity
  8
0
100
AcDbLine
 62
7
  6
CONTINUOUS
 10
149.8779920777
 20
110.5187812636
 11
149.8779920777
 21
110.6187812636
  0
LINE
  5
5BF
100
AcDbEntity
  8
0
100
AcDbLine
 62
7
  6
CONTINUOUS
 10
149.8779920777
 20
112.9950728415
 11
149.8779920777
 21
113.0950728415
  0
LINE
  5
5C0
100
AcDbEntity
  8
0
100
AcDbLine
 62
7
  6
CONTINUOUS
 10
149.8779920777
 20
114.9265798415
 11
149.8779920777
 21
115.0265798415
  0
LINE
  5
5C1
100
AcDbEntity
  8
0
100
AcDbLine
 62
7
  6
CONTINUOUS
 10
149.8779920777
 20
116.7095097832
 11
149.8779920777
 21
116.8095097832
  0
LINE
  5
5C2
100
AcDbEntity
  8
0
100
AcDbLine
 62
7
  6
CONTINUOUS
 10
149.9099069675
 20
108.5872739802
 11
149.9099069675
 21
108.6872739802
  0
LINE
  5
5C3
100
AcDbEntity
  8
0
100
AcDbLine
 62
7
  6
CONTINUOUS
 10
149.9418218573
 20
108.7358514636
 11
149.9418218573
 21
108.8358514636
  0
LINE
  5
5C4
100
AcDbEntity
  8
0
100
AcDbLine
 62
7
  6
CONTINUOUS
 10
149.9418218573
 20
110.6673587469
 11
149.9418218573
 21
110.7673587469
  0
LINE
  5
5C5
100
AcDbEntity
  8
0
100
AcDbLine
 62
7
  6
CONTINUOUS
 10
149.9418218573
 20
113.1436503248
 11
149.9418218573
 21
113.2436503248
  0
LINE
  5
5C6
100
AcDbEntity
  8
0
100
AcDbLine
 62
7
  6
CONTINUOUS
 10
149.9418218573
 20
115.0751573248
 11
149.9418218573
 21
115.1751573248
  0
LINE
  5
5C7
100
AcDbEntity
  8
0
100
AcDbLine
 62
7
  6
CONTINUOUS
 10
149.9418218573
 20
116.9076130471
 11
149.9418218573
 21
117.0076130471
  0
LINE
  5
5C8
100
AcDbEntity
  8
0
100
AcDbLine
 62
7
  6
CONTINUOUS
 10
149.9737367472
 20
109.0330064302
 11
149.9737367472
 21
109.3301613969
  0
LINE
  5
5C9
100
AcDbEntity
  8
0
100
AcDbLine
 62
7
  6
CONTINUOUS
 10
149.9737367472
 20
110.8159362303
 11
149.9737367472
 21
111.0140393525
  0
LINE
  5
5CA
100
AcDbEntity
  8
0
100
AcDbLine
 62
7
  6
CONTINUOUS
 10
149.9737367472
 20
111.4597718025
 11
149.9737367472
 21
111.7074011303
  0
LINE
  5
5CB
100
AcDbEntity
  8
0
100
AcDbLine
 62
7
  6
CONTINUOUS
 10
149.9737367472
 20
112.1036079415
 11
149.9737367472
 21
112.3512367025
  0
LINE
  5
5CC
100
AcDbEntity
  8
0
100
AcDbLine
 62
7
  6
CONTINUOUS
 10
149.9737367472
 20
113.4408050081
 11
149.9737367472
 21
113.7379599748
  0
LINE
  5
5CD
100
AcDbEntity
  8
0
100
AcDbLine
 62
7
  6
CONTINUOUS
 10
149.9737367472
 20
115.2237348081
 11
149.9737367472
 21
115.4218382137
  0
LINE
  5
5CE
100
AcDbEntity
  8
0
100
AcDbLine
 62
7
  6
CONTINUOUS
 10
150.2324601838
 20
121.3178474159
 11
150.2324601838
 21
121.6949755451
  0
LINE
  5
5CF
100
AcDbEntity
  8
0
100
AcDbLine
 62
7
  6
CONTINUOUS
 10
150.2928857347
 20
112.3512367025
 11
150.2928857347
 21
112.1036079415
  0
LINE
  5
5D0
100
AcDbEntity
  8
0
100
AcDbLine
 62
7
  6
CONTINUOUS
 10
150.4524601838
 20
112.1036079415
 11
150.4524601838
 21
112.3512367025
  0
LINE
  5
5D1
100
AcDbEntity
  8
0
100
AcDbLine
 62
7
  6
CONTINUOUS
 10
150.4524601838
 20
115.8675706637
 11
150.4524601838
 21
116.1151998499
  0
LINE
  5
5D2
100
AcDbEntity
  8
0
100
AcDbLine
 62
7
  6
CONTINUOUS
 10
150.4724601838
 20
121.9413857066
 11
150.4724601838
 21
122.0413857066
  0
LINE
  5
5D3
100
AcDbEntity
  8
0
100
AcDbLine
 62
7
  6
CONTINUOUS
 10
150.7924601838
 20
119.8282837214
 11
150.7924601838
 21
120.4171809959
  0
LINE
  5
5D4
100
AcDbEntity
  8
0
100
AcDbLine
 62
7
  6
CONTINUOUS
 10
150.7924601838
 20
121.2485653836
 11
150.7924601838
 21
121.4229264507
  0
LINE
  5
5D5
100
AcDbEntity
  8
0
100
AcDbLine
 62
7
  6
CONTINUOUS
 10
150.7924601838
 20
121.9413857066
 11
150.7924601838
 21
122.5302829812
  0
LINE
  5
5D6
100
AcDbEntity
  8
0
100
AcDbLine
 62
7
  6
CONTINUOUS
 10
150.7924601838
 20
122.6688470458
 11
150.7924601838
 21
123.2577443203
  0
LINE
  5
5D7
100
AcDbEntity
  8
0
100
AcDbLine
 62
7
  6
CONTINUOUS
 10
150.7924601838
 20
124.0544876918
 11
150.7924601838
 21
124.6433849664
  0
LINE
  5
5D8
100
AcDbEntity
  8
1_AXIS
100
AcDbLine
 62
2
  6
CONTINUOUS
 10
151.2242003519
 20
138.4585694564
 11
151.2242003519
 21
136.6985694564
  0
LINE
  5
5D9
100
AcDbEntity
  8
1_AXIS
100
AcDbLine
 62
2
  6
CENTER
 10
151.2242003519
 20
133.1785694564
 11
151.2242003519
 21
131.6285694564
  0
LINE
  5
5DA
100
AcDbEntity
  8
1_AXIS
100
AcDbLine
 62
2
  6
CENTER
 10
151.2242003519
 20
141.9785694564
 11
151.2242003519
 21
143.5285694564
  0
LINE
  5
5DB
100
AcDbEntity
  8
DEFAULT_1
100
AcDbLine
 62
2
  6
CENTER
 10
151.2242003519
 20
67.5785694564
 11
151.2242003519
 21
152.0785694564
  0
LINE
  5
5DC
100
AcDbEntity
  8
0
100
AcDbLine
 62
7
  6
CONTINUOUS
 10
149.8460771879
 20
117.3038196457
 11
149.8141622981
 21
116.9571388985
  0
LINE
  5
5DD
100
AcDbEntity
  8
0
100
AcDbLine
 62
7
  6
CONTINUOUS
 10
149.9418218573
 20
117.0076130471
 11
149.9687797547
 21
117.3004477067
  0
LINE
  5
5DE
100
AcDbEntity
  8
0
100
AcDbLine
 62
7
  6
CONTINUOUS
 10
149.9418218573
 20
116.9076130471
 11
149.9737367472
 21
117.2542938652
  0
LINE
  5
5DF
100
AcDbEntity
  8
0
100
AcDbLine
 62
7
  6
CONTINUOUS
 10
148.9843750764
 20
109.5282645191
 11
148.9524601838
 21
109.2311095524
  0
LINE
  5
5E0
100
AcDbEntity
  8
0
100
AcDbLine
 62
7
  6
CONTINUOUS
 10
149.0801197542
 20
109.3311095524
 11
149.1120346552
 21
109.6282645191
  0
LINE
  5
5E1
100
AcDbEntity
  8
0
100
AcDbLine
 62
7
  6
CONTINUOUS
 10
149.0801197542
 20
109.2311095524
 11
149.1120346552
 21
109.5282645191
  0
LINE
  5
5E2
100
AcDbEntity
  8
0
100
AcDbLine
 62
7
  6
CONTINUOUS
 10
149.9418218573
 20
113.2436503248
 11
149.9737367472
 21
113.5408050081
  0
LINE
  5
5E3
100
AcDbEntity
  8
0
100
AcDbLine
 62
7
  6
CONTINUOUS
 10
149.9418218573
 20
113.1436503248
 11
149.9737367472
 21
113.4408050081
  0
LINE
  5
5E4
100
AcDbEntity
  8
0
100
AcDbLine
 62
7
  6
CONTINUOUS
 10
149.8460771879
 20
109.0330064302
 11
149.8141622981
 21
108.7358514636
  0
LINE
  5
5E5
100
AcDbEntity
  8
0
100
AcDbLine
 62
7
  6
CONTINUOUS
 10
149.9418218573
 20
108.8358514636
 11
149.9737367472
 21
109.1330064302
  0
LINE
  5
5E6
100
AcDbEntity
  8
0
100
AcDbLine
 62
7
  6
CONTINUOUS
 10
149.9418218573
 20
108.7358514636
 11
149.9737367472
 21
109.0330064302
  0
LINE
  5
5E7
100
AcDbEntity
  8
0
100
AcDbLine
 62
7
  6
CONTINUOUS
 10
149.8460771879
 20
115.4218382137
 11
149.8141622981
 21
115.2237348081
  0
LINE
  5
5E8
100
AcDbEntity
  8
0
100
AcDbLine
 62
7
  6
CONTINUOUS
 10
149.8460771879
 20
113.4408050081
 11
149.8141622981
 21
113.2427016025
  0
LINE
  5
5E9
100
AcDbEntity
  8
0
100
AcDbLine
 62
7
  6
CONTINUOUS
 10
149.8460771879
 20
111.0140393525
 11
149.8141622981
 21
110.8159362303
  0
LINE
  5
5EA
100
AcDbEntity
  8
0
100
AcDbLine
 62
7
  6
CONTINUOUS
 10
149.4950133553
 20
109.6273163636
 11
149.3354389062
 21
108.7853771024
  0
LINE
  5
5EB
100
AcDbEntity
  8
0
100
AcDbLine
 62
7
  6
CONTINUOUS
 10
149.4311835756
 20
108.7367996191
 11
149.5907580694
 21
109.5787388803
  0
LINE
  5
5EC
100
AcDbEntity
  8
0
100
AcDbLine
 62
7
  6
CONTINUOUS
 10
149.4311835756
 20
108.6367996191
 11
149.5907580694
 21
109.4787388803
  0
LINE
  5
5ED
100
AcDbEntity
  8
0
100
AcDbLine
 62
7
  6
CONTINUOUS
 10
149.9418218573
 20
115.1751573248
 11
149.9737367472
 21
115.3237348081
  0
LINE
  5
5EE
100
AcDbEntity
  8
0
100
AcDbLine
 62
7
  6
CONTINUOUS
 10
149.9418218573
 20
115.0751573248
 11
149.9737367472
 21
115.2237348081
  0
LINE
  5
5EF
100
AcDbEntity
  8
0
100
AcDbLine
 62
7
  6
CONTINUOUS
 10
149.016289969
 20
109.6768420024
 11
148.9843750764
 21
109.5282645191
  0
LINE
  5
5F0
100
AcDbEntity
  8
0
100
AcDbLine
 62
7
  6
CONTINUOUS
 10
149.9418218573
 20
110.7673587469
 11
149.9737367472
 21
110.9159362303
  0
LINE
  5
5F1
100
AcDbEntity
  8
0
100
AcDbLine
 62
7
  6
CONTINUOUS
 10
149.9418218573
 20
110.6673587469
 11
149.9737367472
 21
110.8159362303
  0
LINE
  5
5F2
100
AcDbEntity
  8
0
100
AcDbLine
 62
7
  6
CONTINUOUS
 10
149.9099069675
 20
108.6872739802
 11
149.9418218573
 21
108.8358514636
  0
LINE
  5
5F3
100
AcDbEntity
  8
0
100
AcDbLine
 62
7
  6
CONTINUOUS
 10
149.9099069675
 20
108.5872739802
 11
149.9418218573
 21
108.7358514636
  0
LINE
  5
5F4
100
AcDbEntity
  8
0
100
AcDbLine
 62
7
  6
CONTINUOUS
 10
149.8141622981
 20
113.2427016025
 11
149.7822474083
 21
113.1436503248
  0
LINE
  5
5F5
100
AcDbEntity
  8
0
100
AcDbLine
 62
7
  6
CONTINUOUS
 10
149.1120346552
 20
109.6282645191
 11
149.143949545
 21
109.7273163636
  0
LINE
  5
5F6
100
AcDbEntity
  8
0
100
AcDbLine
 62
7
  6
CONTINUOUS
 10
149.1120346552
 20
109.5282645191
 11
149.143949545
 21
109.6273163636
  0
LINE
  5
5F7
100
AcDbEntity
  8
0
100
AcDbLine
 62
7
  6
CONTINUOUS
 10
149.8141622981
 20
110.8159362303
 11
149.7822474083
 21
110.7168843858
  0
LINE
  5
5F8
100
AcDbEntity
  8
0
100
AcDbLine
 62
7
  6
CONTINUOUS
 10
149.8141622981
 20
108.7358514636
 11
149.7822474083
 21
108.6367996191
  0
LINE
  5
5F9
100
AcDbEntity
  8
0
100
AcDbLine
 62
7
  6
CONTINUOUS
 10
149.0801197542
 20
109.8254194858
 11
149.016289969
 21
109.6768420024
  0
LINE
  5
5FA
100
AcDbEntity
  8
0
100
AcDbLine
 62
7
  6
CONTINUOUS
 10
149.8779920777
 20
110.6187812636
 11
149.9418218573
 21
110.7673587469
  0
LINE
  5
5FB
100
AcDbEntity
  8
0
100
AcDbLine
 62
7
  6
CONTINUOUS
 10
149.8779920777
 20
110.5187812636
 11
149.9418218573
 21
110.6673587469
  0
LINE
  5
5FC
100
AcDbEntity
  8
0
100
AcDbLine
 62
7
  6
CONTINUOUS
 10
149.5907580694
 20
109.5787388803
 11
149.654587849
 21
109.7273163636
  0
LINE
  5
5FD
100
AcDbEntity
  8
0
100
AcDbLine
 62
7
  6
CONTINUOUS
 10
149.5907580694
 20
109.4787388803
 11
149.654587849
 21
109.6273163636
  0
LINE
  5
5FE
100
AcDbEntity
  8
0
100
AcDbLine
 62
7
  6
CONTINUOUS
 10
149.3354389062
 20
108.7853771024
 11
149.2716091266
 21
108.6367996191
  0
LINE
  5
5FF
100
AcDbEntity
  8
0
100
AcDbLine
 62
7
  6
CONTINUOUS
 10
149.8460771879
 20
108.5386964969
 11
149.9099069675
 21
108.6872739802
  0
LINE
  5
600
100
AcDbEntity
  8
0
100
AcDbLine
 62
7
  6
CONTINUOUS
 10
149.8460771879
 20
108.4386964969
 11
149.9099069675
 21
108.5872739802
  0
LINE
  5
601
100
AcDbEntity
  8
0
100
AcDbLine
 62
7
  6
CONTINUOUS
 10
149.5907580694
 20
109.8254194858
 11
149.4950133553
 21
109.6273163636
  0
LINE
  5
602
100
AcDbEntity
  8
0
100
AcDbLine
 62
7
  6
CONTINUOUS
 10
149.3354389062
 20
108.5386964969
 11
149.4311835756
 21
108.7367996191
  0
LINE
  5
603
100
AcDbEntity
  8
0
100
AcDbLine
 62
7
  6
CONTINUOUS
 10
149.3354389062
 20
108.4386964969
 11
149.4311835756
 21
108.6367996191
  0
LINE
  5
604
100
AcDbEntity
  8
0
100
AcDbLine
 62
7
  6
CONTINUOUS
 10
149.7822474083
 20
110.7168843858
 11
149.7184176287
 21
110.6178331081
  0
LINE
  5
605
100
AcDbEntity
  8
0
100
AcDbLine
 62
7
  6
CONTINUOUS
 10
149.8141622981
 20
110.5197294191
 11
149.8779920777
 21
110.6187812636
  0
LINE
  5
606
100
AcDbEntity
  8
0
100
AcDbLine
 62
7
  6
CONTINUOUS
 10
149.8141622981
 20
110.4197294191
 11
149.8779920777
 21
110.5187812636
  0
LINE
  5
607
100
AcDbEntity
  8
0
100
AcDbLine
 62
7
  6
CONTINUOUS
 10
149.2077793246
 20
109.9244713303
 11
149.0801197542
 21
109.8254194858
  0
LINE
  5
608
100
AcDbEntity
  8
0
100
AcDbLine
 62
7
  6
CONTINUOUS
 10
149.143949545
 20
109.7273163636
 11
149.2077793246
 21
109.7768420024
  0
LINE
  5
609
100
AcDbEntity
  8
0
100
AcDbLine
 62
7
  6
CONTINUOUS
 10
149.143949545
 20
109.6273163636
 11
149.2077793246
 21
109.6768420024
  0
LINE
  5
60A
100
AcDbEntity
  8
0
100
AcDbLine
 62
7
  6
CONTINUOUS
 10
149.7184176287
 20
109.9244713303
 11
149.5907580694
 21
109.8254194858
  0
LINE
  5
60B
100
AcDbEntity
  8
0
100
AcDbLine
 62
7
  6
CONTINUOUS
 10
149.654587849
 20
109.7273163636
 11
149.7184176287
 21
109.7768420024
  0
LINE
  5
60C
100
AcDbEntity
  8
0
100
AcDbLine
 62
7
  6
CONTINUOUS
 10
149.654587849
 20
109.6273163636
 11
149.7184176287
 21
109.6768420024
  0
LINE
  5
60D
100
AcDbEntity
  8
0
100
AcDbLine
 62
7
  6
CONTINUOUS
 10
149.2716091266
 20
108.6367996191
 11
149.2077793246
 21
108.5872739802
  0
LINE
  5
60E
100
AcDbEntity
  8
0
100
AcDbLine
 62
7
  6
CONTINUOUS
 10
149.2077793246
 20
108.4396452192
 11
149.3354389062
 21
108.5386964969
  0
LINE
  5
60F
100
AcDbEntity
  8
0
100
AcDbLine
 62
7
  6
CONTINUOUS
 10
149.2077793246
 20
108.3396452192
 11
149.3354389062
 21
108.4386964969
  0
LINE
  5
610
100
AcDbEntity
  8
0
100
AcDbLine
 62
7
  6
CONTINUOUS
 10
149.7822474083
 20
108.6367996191
 11
149.7184176287
 21
108.5872739802
  0
LINE
  5
611
100
AcDbEntity
  8
0
100
AcDbLine
 62
7
  6
CONTINUOUS
 10
149.7184176287
 20
108.4396452192
 11
149.8460771879
 21
108.5386964969
  0
LINE
  5
612
100
AcDbEntity
  8
0
100
AcDbLine
 62
7
  6
CONTINUOUS
 10
149.7184176287
 20
108.3396452192
 11
149.8460771879
 21
108.4386964969
  0
LINE
  5
613
100
AcDbEntity
  8
0
100
AcDbLine
 62
7
  6
CONTINUOUS
 10
149.7184176287
 20
110.4702037803
 11
149.8141622981
 21
110.5197294191
  0
LINE
  5
614
100
AcDbEntity
  8
0
100
AcDbLine
 62
7
  6
CONTINUOUS
 10
149.7184176287
 20
110.3702037803
 11
149.8141622981
 21
110.4197294191
  0
LINE
  5
615
100
AcDbEntity
  8
0
100
AcDbLine
 62
7
  6
CONTINUOUS
 10
149.7184176287
 20
110.6178331081
 11
149.5588431796
 21
110.5683069025
  0
LINE
  5
616
100
AcDbEntity
  8
0
100
AcDbLine
 62
7
  6
CONTINUOUS
 10
149.5588431796
 20
110.4206781414
 11
149.7184176287
 21
110.4702037803
  0
LINE
  5
617
100
AcDbEntity
  8
0
100
AcDbLine
 62
7
  6
CONTINUOUS
 10
149.5588431796
 20
110.3206781414
 11
149.7184176287
 21
110.3702037803
  0
LINE
  5
618
100
AcDbEntity
  8
0
100
AcDbLine
 62
7
  6
CONTINUOUS
 10
149.143949545
 20
108.3396452192
 11
149.2077793246
 21
108.3396452192
  0
LINE
  5
619
100
AcDbEntity
  8
0
100
AcDbLine
 62
7
  6
CONTINUOUS
 10
149.143949545
 20
108.4396452192
 11
149.2077793246
 21
108.4396452192
  0
LINE
  5
61A
100
AcDbEntity
  8
DEFAULT_1
100
AcDbLine
 62
2
  6
CENTER
 10
165.9526155889
 20
109.8285694564
 11
153.2243003519
 21
109.8285694564
  0
LINE
  5
61B
100
AcDbEntity
  8
0
100
AcDbLine
 62
2
  6
CONTINUOUS
 10
152.1042003519
 20
109.8285694564
 11
150.3442003519
 21
109.8285694564
  0
LINE
  5
61C
100
AcDbEntity
  8
DEFAULT_1
100
AcDbLine
 62
2
  6
CENTER
 10
136.5714177649
 20
109.8285694564
 11
149.2241003519
 21
109.8285694564
  0
LINE
  5
61D
100
AcDbEntity
  8
0
100
AcDbLine
 62
7
  6
CONTINUOUS
 10
149.7822474083
 20
109.9244713303
 11
149.7184176287
 21
109.9244713303
  0
LINE
  5
61E
100
AcDbEntity
  8
0
100
AcDbLine
 62
7
  6
CONTINUOUS
 10
149.2077793246
 20
108.5872739802
 11
149.143949545
 21
108.6367996191
  0
LINE
  5
61F
100
AcDbEntity
  8
0
100
AcDbLine
 62
7
  6
CONTINUOUS
 10
149.7184176287
 20
109.6768420024
 11
149.7822474083
 21
109.6273163636
  0
LINE
  5
620
100
AcDbEntity
  8
0
100
AcDbLine
 62
7
  6
CONTINUOUS
 10
149.7184176287
 20
109.7768420024
 11
149.7822474083
 21
109.7273163636
  0
LINE
  5
621
100
AcDbEntity
  8
0
100
AcDbLine
 62
7
  6
CONTINUOUS
 10
149.8779920777
 20
109.8254194858
 11
149.7822474083
 21
109.9244713303
  0
LINE
  5
622
100
AcDbEntity
  8
0
100
AcDbLine
 62
7
  6
CONTINUOUS
 10
149.6865027388
 20
111.4597718025
 11
149.7503325185
 21
111.3607205248
  0
LINE
  5
623
100
AcDbEntity
  8
0
100
AcDbLine
 62
7
  6
CONTINUOUS
 10
149.6865027388
 20
111.5597718025
 11
149.7503325185
 21
111.4607205248
  0
LINE
  5
624
100
AcDbEntity
  8
0
100
AcDbLine
 62
7
  6
CONTINUOUS
 10
149.8779920777
 20
111.3607205248
 11
149.8141622981
 21
111.4597718025
  0
LINE
  5
625
100
AcDbEntity
  8
0
100
AcDbLine
 62
7
  6
CONTINUOUS
 10
149.2396942368
 20
113.1436503248
 11
149.143949545
 21
113.2922278082
  0
LINE
  5
626
100
AcDbEntity
  8
0
100
AcDbLine
 62
7
  6
CONTINUOUS
 10
149.7503325185
 20
111.3607205248
 11
149.8141622981
 21
111.2121430414
  0
LINE
  5
627
100
AcDbEntity
  8
0
100
AcDbLine
 62
7
  6
CONTINUOUS
 10
149.7503325185
 20
111.4607205248
 11
149.8141622981
 21
111.3121430414
  0
LINE
  5
628
100
AcDbEntity
  8
0
100
AcDbLine
 62
7
  6
CONTINUOUS
 10
148.9843750764
 20
113.2922278082
 11
149.0482048644
 21
113.1436503248
  0
LINE
  5
629
100
AcDbEntity
  8
0
100
AcDbLine
 62
7
  6
CONTINUOUS
 10
148.9843750764
 20
113.3922278082
 11
149.0482048644
 21
113.2436503248
  0
LINE
  5
62A
100
AcDbEntity
  8
0
100
AcDbLine
 62
7
  6
CONTINUOUS
 10
149.9418218573
 20
111.2121430414
 11
149.8779920777
 21
111.3607205248
  0
LINE
  5
62B
100
AcDbEntity
  8
0
100
AcDbLine
 62
7
  6
CONTINUOUS
 10
149.143949545
 20
108.6367996191
 11
149.1120346552
 21
108.7358514636
  0
LINE
  5
62C
100
AcDbEntity
  8
0
100
AcDbLine
 62
7
  6
CONTINUOUS
 10
149.7822474083
 20
109.6273163636
 11
149.8141622981
 21
109.5282645191
  0
LINE
  5
62D
100
AcDbEntity
  8
0
100
AcDbLine
 62
7
  6
CONTINUOUS
 10
149.7822474083
 20
109.7273163636
 11
149.8141622981
 21
109.6282645191
  0
LINE
  5
62E
100
AcDbEntity
  8
0
100
AcDbLine
 62
7
  6
CONTINUOUS
 10
149.9418218573
 20
109.6273163636
 11
149.8779920777
 21
109.8254194858
  0
LINE
  5
62F
100
AcDbEntity
  8
0
100
AcDbLine
 62
7
  6
CONTINUOUS
 10
149.4311835756
 20
113.9360633804
 11
149.4630984655
 21
113.8370118193
  0
LINE
  5
630
100
AcDbEntity
  8
0
100
AcDbLine
 62
7
  6
CONTINUOUS
 10
149.4311835756
 20
114.0360633804
 11
149.4630984655
 21
113.9370118193
  0
LINE
  5
631
100
AcDbEntity
  8
0
100
AcDbLine
 62
7
  6
CONTINUOUS
 10
149.5907580694
 20
113.9360633804
 11
149.5269282898
 21
114.1341667859
  0
LINE
  5
632
100
AcDbEntity
  8
0
100
AcDbLine
 62
7
  6
CONTINUOUS
 10
149.7822474083
 20
114.0351149414
 11
149.8141622981
 21
113.9360633804
  0
LINE
  5
633
100
AcDbEntity
  8
0
100
AcDbLine
 62
7
  6
CONTINUOUS
 10
149.7822474083
 20
114.1351149414
 11
149.8141622981
 21
114.0360633804
  0
LINE
  5
634
100
AcDbEntity
  8
0
100
AcDbLine
 62
7
  6
CONTINUOUS
 10
148.9843750764
 20
116.9076130471
 11
149.0482048644
 21
116.7095097832
  0
LINE
  5
635
100
AcDbEntity
  8
0
100
AcDbLine
 62
7
  6
CONTINUOUS
 10
148.9843750764
 20
117.0076130471
 11
149.0482048644
 21
116.8095097832
  0
LINE
  5
636
100
AcDbEntity
  8
0
100
AcDbLine
 62
7
  6
CONTINUOUS
 10
149.9418218573
 20
114.0846408637
 11
149.9099069675
 21
114.1836924248
  0
LINE
  5
637
100
AcDbEntity
  8
0
100
AcDbLine
 62
7
  6
CONTINUOUS
 10
149.143949545
 20
113.2922278082
 11
149.0801197542
 21
113.5398568526
  0
LINE
  5
638
100
AcDbEntity
  8
0
100
AcDbLine
 62
7
  6
CONTINUOUS
 10
149.9418218573
 20
117.5514487964
 11
149.9099069675
 21
117.7000262797
  0
LINE
  5
639
100
AcDbEntity
  8
0
100
AcDbLine
 62
7
  6
CONTINUOUS
 10
149.1120346552
 20
108.7358514636
 11
149.0801197542
 21
108.9339545858
  0
LINE
  5
63A
100
AcDbEntity
  8
0
100
AcDbLine
 62
7
  6
CONTINUOUS
 10
149.8141622981
 20
109.5282645191
 11
149.8460771879
 21
109.3301613969
  0
LINE
  5
63B
100
AcDbEntity
  8
0
100
AcDbLine
 62
7
  6
CONTINUOUS
 10
149.8141622981
 20
109.6282645191
 11
149.8460771879
 21
109.4301613969
  0
LINE
  5
63C
100
AcDbEntity
  8
0
100
AcDbLine
 62
7
  6
CONTINUOUS
 10
149.8141622981
 20
111.2121430414
 11
149.8460771879
 21
111.0140393525
  0
LINE
  5
63D
100
AcDbEntity
  8
0
100
AcDbLine
 62
7
  6
CONTINUOUS
 10
149.8141622981
 20
111.3121430414
 11
149.8460771879
 21
111.1140393525
  0
LINE
  5
63E
100
AcDbEntity
  8
0
100
AcDbLine
 62
7
  6
CONTINUOUS
 10
149.4630984655
 20
113.8370118193
 11
149.4950133553
 21
113.6389084137
  0
LINE
  5
63F
100
AcDbEntity
  8
0
100
AcDbLine
 62
7
  6
CONTINUOUS
 10
149.4630984655
 20
113.9370118193
 11
149.4950133553
 21
113.7389084137
  0
LINE
  5
640
100
AcDbEntity
  8
0
100
AcDbLine
 62
7
  6
CONTINUOUS
 10
149.9737367472
 20
111.0140393525
 11
149.9418218573
 21
111.2121430414
  0
LINE
  5
641
100
AcDbEntity
  8
0
100
AcDbLine
 62
7
  6
CONTINUOUS
 10
149.8141622981
 20
113.9360633804
 11
149.8460771879
 21
113.7379599748
  0
LINE
  5
642
100
AcDbEntity
  8
0
100
AcDbLine
 62
7
  6
CONTINUOUS
 10
149.8141622981
 20
114.0360633804
 11
149.8460771879
 21
113.8379599748
  0
LINE
  5
643
100
AcDbEntity
  8
0
100
AcDbLine
 62
7
  6
CONTINUOUS
 10
149.8141622981
 20
115.6199416193
 11
149.8460771879
 21
115.4218382137
  0
LINE
  5
644
100
AcDbEntity
  8
0
100
AcDbLine
 62
7
  6
CONTINUOUS
 10
149.8141622981
 20
115.7199416193
 11
149.8460771879
 21
115.5218382137
  0
LINE
  5
645
100
AcDbEntity
  8
0
100
AcDbLine
 62
7
  6
CONTINUOUS
 10
149.9737367472
 20
115.4218382137
 11
149.9418218573
 21
115.6199416193
  0
LINE
  5
646
100
AcDbEntity
  8
0
100
AcDbLine
 62
7
  6
CONTINUOUS
 10
149.8141622981
 20
117.5019229804
 11
149.8460771879
 21
117.3038196457
  0
LINE
  5
647
100
AcDbEntity
  8
0
100
AcDbLine
 62
7
  6
CONTINUOUS
 10
149.8141622981
 20
117.6019229804
 11
149.8460771879
 21
117.4038196457
  0
LINE
  5
648
100
AcDbEntity
  8
0
100
AcDbLine
 62
7
  6
CONTINUOUS
 10
148.9524601838
 20
113.5398568526
 11
148.9843750764
 21
113.2922278082
  0
LINE
  5
649
100
AcDbEntity
  8
0
100
AcDbLine
 62
7
  6
CONTINUOUS
 10
148.9524601838
 20
113.6398568526
 11
148.9843750764
 21
113.3922278082
  0
LINE
  5
64A
100
AcDbEntity
  8
0
100
AcDbLine
 62
7
  6
CONTINUOUS
 10
148.9524601838
 20
110.3206781414
 11
149.5588431796
 21
110.3206781414
  0
LINE
  5
64B
100
AcDbEntity
  8
0
100
AcDbLine
 62
7
  6
CONTINUOUS
 10
148.9524601838
 20
110.4206781414
 11
149.5588431796
 21
110.4206781414
  0
LINE
  5
64C
100
AcDbEntity
  8
0
100
AcDbLine
 62
7
  6
CONTINUOUS
 10
149.5588431796
 20
110.5683069025
 11
148.9524601838
 21
110.5683069025
  0
LINE
  5
64D
100
AcDbEntity
  8
0
100
AcDbLine
 62
7
  6
CONTINUOUS
 10
148.9524601838
 20
111.4597718025
 11
149.6865027388
 21
111.4597718025
  0
LINE
  5
64E
100
AcDbEntity
  8
0
100
AcDbLine
 62
7
  6
CONTINUOUS
 10
149.8141622981
 20
111.4597718025
 11
149.9737367472
 21
111.4597718025
  0
LINE
  5
64F
100
AcDbEntity
  8
0
100
AcDbLine
 62
7
  6
CONTINUOUS
 10
148.9524601838
 20
111.5597718025
 11
149.6865027388
 21
111.5597718025
  0
LINE
  5
650
100
AcDbEntity
  8
0
100
AcDbLine
 62
7
  6
CONTINUOUS
 10
149.8141622981
 20
111.5597718025
 11
149.9737367472
 21
111.5597718025
  0
LINE
  5
651
100
AcDbEntity
  8
0
100
AcDbLine
 62
7
  6
CONTINUOUS
 10
149.9737367472
 20
111.7074011303
 11
148.9524601838
 21
111.7074011303
  0
LINE
  5
652
100
AcDbEntity
  8
0
100
AcDbLine
 62
7
  6
CONTINUOUS
 10
148.9524601838
 20
112.1036079415
 11
149.9737367472
 21
112.1036079415
  0
LINE
  5
653
100
AcDbEntity
  8
0
100
AcDbLine
 62
7
  6
CONTINUOUS
 10
150.2928857347
 20
112.1036079415
 11
150.4524601838
 21
112.1036079415
  0
LINE
  5
654
100
AcDbEntity
  8
0
100
AcDbLine
 62
7
  6
CONTINUOUS
 10
148.9524601838
 20
112.2036079415
 11
149.9737367472
 21
112.2036079415
  0
LINE
  5
655
100
AcDbEntity
  8
0
100
AcDbLine
 62
7
  6
CONTINUOUS
 10
150.2928857347
 20
112.2036079415
 11
150.4524601838
 21
112.2036079415
  0
LINE
  5
656
100
AcDbEntity
  8
0
100
AcDbLine
 62
7
  6
CONTINUOUS
 10
150.4524601838
 20
112.3512367025
 11
150.2928857347
 21
112.3512367025
  0
LINE
  5
657
100
AcDbEntity
  8
0
100
AcDbLine
 62
7
  6
CONTINUOUS
 10
149.9737367472
 20
112.3512367025
 11
148.9524601838
 21
112.3512367025
  0
LINE
  5
658
100
AcDbEntity
  8
0
100
AcDbLine
 62
7
  6
CONTINUOUS
 10
149.2077793246
 20
112.8464953581
 11
149.7184176287
 21
112.8464953581
  0
LINE
  5
659
100
AcDbEntity
  8
0
100
AcDbLine
 62
7
  6
CONTINUOUS
 10
149.2077793246
 20
112.9464953581
 11
149.7184176287
 21
112.9464953581
  0
LINE
  5
65A
100
AcDbEntity
  8
0
100
AcDbLine
 62
7
  6
CONTINUOUS
 10
149.2716091266
 20
114.0846408637
 11
149.367353796
 21
114.0351149414
  0
LINE
  5
65B
100
AcDbEntity
  8
0
100
AcDbLine
 62
7
  6
CONTINUOUS
 10
149.2716091266
 20
114.1846408637
 11
149.367353796
 21
114.1351149414
  0
LINE
  5
65C
100
AcDbEntity
  8
0
100
AcDbLine
 62
7
  6
CONTINUOUS
 10
149.0482048644
 20
113.1436503248
 11
149.1120346552
 21
113.0941241192
  0
LINE
  5
65D
100
AcDbEntity
  8
0
100
AcDbLine
 62
7
  6
CONTINUOUS
 10
149.0482048644
 20
113.2436503248
 11
149.1120346552
 21
113.1941241192
  0
LINE
  5
65E
100
AcDbEntity
  8
0
100
AcDbLine
 62
7
  6
CONTINUOUS
 10
149.3035240164
 20
113.0941241192
 11
149.2396942368
 21
113.1436503248
  0
LINE
  5
65F
100
AcDbEntity
  8
0
100
AcDbLine
 62
7
  6
CONTINUOUS
 10
149.4630984655
 20
114.233218347
 11
149.3354389062
 21
114.3322699081
  0
LINE
  5
660
100
AcDbEntity
  8
0
100
AcDbLine
 62
7
  6
CONTINUOUS
 10
149.7184176287
 20
114.0846408637
 11
149.7822474083
 21
114.0351149414
  0
LINE
  5
661
100
AcDbEntity
  8
0
100
AcDbLine
 62
7
  6
CONTINUOUS
 10
149.7184176287
 20
114.1846408637
 11
149.7822474083
 21
114.1351149414
  0
LINE
  5
662
100
AcDbEntity
  8
0
100
AcDbLine
 62
7
  6
CONTINUOUS
 10
149.8460771879
 20
114.2827442693
 11
149.7822474083
 21
114.3322699081
  0
LINE
  5
663
100
AcDbEntity
  8
0
100
AcDbLine
 62
7
  6
CONTINUOUS
 10
149.367353796
 20
114.0351149414
 11
149.4311835756
 21
113.9360633804
  0
LINE
  5
664
100
AcDbEntity
  8
0
100
AcDbLine
 62
7
  6
CONTINUOUS
 10
149.367353796
 20
114.1351149414
 11
149.4311835756
 21
114.0360633804
  0
LINE
  5
665
100
AcDbEntity
  8
0
100
AcDbLine
 62
7
  6
CONTINUOUS
 10
149.5269282898
 20
114.1341667859
 11
149.4630984655
 21
114.233218347
  0
LINE
  5
666
100
AcDbEntity
  8
0
100
AcDbLine
 62
7
  6
CONTINUOUS
 10
149.9099069675
 20
114.1836924248
 11
149.8460771879
 21
114.2827442693
  0
LINE
  5
667
100
AcDbEntity
  8
0
100
AcDbLine
 62
7
  6
CONTINUOUS
 10
149.0482048644
 20
116.7095097832
 11
149.143949545
 21
116.5609322999
  0
LINE
  5
668
100
AcDbEntity
  8
0
100
AcDbLine
 62
7
  6
CONTINUOUS
 10
149.0482048644
 20
116.8095097832
 11
149.143949545
 21
116.6609322999
  0
LINE
  5
669
100
AcDbEntity
  8
0
100
AcDbLine
 62
7
  6
CONTINUOUS
 10
149.6865027388
 20
115.8675706637
 11
149.7503325185
 21
115.7685189609
  0
LINE
  5
66A
100
AcDbEntity
  8
0
100
AcDbLine
 62
7
  6
CONTINUOUS
 10
149.6865027388
 20
115.9675706637
 11
149.7503325185
 21
115.8685189609
  0
LINE
  5
66B
100
AcDbEntity
  8
0
100
AcDbLine
 62
7
  6
CONTINUOUS
 10
149.8779920777
 20
115.7685189609
 11
149.8141622981
 21
115.8675706637
  0
LINE
  5
66C
100
AcDbEntity
  8
0
100
AcDbLine
 62
7
  6
CONTINUOUS
 10
149.6865027388
 20
117.7495521311
 11
149.7822474083
 21
117.6009746478
  0
LINE
  5
66D
100
AcDbEntity
  8
0
100
AcDbLine
 62
7
  6
CONTINUOUS
 10
149.6865027388
 20
117.8495521311
 11
149.7822474083
 21
117.7009746478
  0
LINE
  5
66E
100
AcDbEntity
  8
0
100
AcDbLine
 62
7
  6
CONTINUOUS
 10
149.8460771879
 20
117.8486037808
 11
149.7822474083
 21
117.9476554304
  0
LINE
  5
66F
100
AcDbEntity
  8
0
100
AcDbLine
 62
7
  6
CONTINUOUS
 10
149.1758644348
 20
116.8085613443
 11
149.1120346552
 21
116.9571388985
  0
LINE
  5
670
100
AcDbEntity
  8
0
100
AcDbLine
 62
7
  6
CONTINUOUS
 10
149.7503325185
 20
115.7685189609
 11
149.8141622981
 21
115.6199416193
  0
LINE
  5
671
100
AcDbEntity
  8
0
100
AcDbLine
 62
7
  6
CONTINUOUS
 10
149.7503325185
 20
115.8685189609
 11
149.8141622981
 21
115.7199416193
  0
LINE
  5
672
100
AcDbEntity
  8
0
100
AcDbLine
 62
7
  6
CONTINUOUS
 10
149.9418218573
 20
115.6199416193
 11
149.8779920777
 21
115.7685189609
  0
LINE
  5
673
100
AcDbEntity
  8
0
100
AcDbLine
 62
7
  6
CONTINUOUS
 10
149.9099069675
 20
117.7000262797
 11
149.8460771879
 21
117.8486037808
  0
LINE
  5
674
100
AcDbEntity
  8
0
100
AcDbLine
 62
7
  6
CONTINUOUS
 10
149.7822474083
 20
117.6009746478
 11
149.8141622981
 21
117.5019229804
  0
LINE
  5
675
100
AcDbEntity
  8
0
100
AcDbLine
 62
7
  6
CONTINUOUS
 10
149.7822474083
 20
117.7009746478
 11
149.8141622981
 21
117.6019229804
  0
LINE
  5
676
100
AcDbEntity
  8
2_FEATURE
100
AcDbLine
 62
7
  6
CONTINUOUS
 10
155.4242003519
 20
81.7440718387
 11
155.4242003519
 21
93.4130670741
  0
LINE
  5
677
100
AcDbEntity
  8
0
100
AcDbLine
 62
7
  6
CONTINUOUS
 10
149.7184176287
 20
113.0941241192
 11
149.6226729592
 21
113.0941241192
  0
LINE
  5
678
100
AcDbEntity
  8
0
100
AcDbLine
 62
7
  6
CONTINUOUS
 10
149.4950133553
 20
113.0941241192
 11
149.3035240164
 21
113.0941241192
  0
LINE
  5
679
100
AcDbEntity
  8
0
100
AcDbLine
 62
7
  6
CONTINUOUS
 10
149.2077793246
 20
114.0846408637
 11
149.2716091266
 21
114.0846408637
  0
LINE
  5
67A
100
AcDbEntity
  8
0
100
AcDbLine
 62
7
  6
CONTINUOUS
 10
149.2077793246
 20
114.1846408637
 11
149.2716091266
 21
114.1846408637
  0
LINE
  5
67B
100
AcDbEntity
  8
0
100
AcDbLine
 62
7
  6
CONTINUOUS
 10
149.7822474083
 20
114.3322699081
 11
149.7184176287
 21
114.3322699081
  0
LINE
  5
67C
100
AcDbEntity
  8
0
100
AcDbLine
 62
7
  6
CONTINUOUS
 10
149.3354389062
 20
114.3322699081
 11
149.2396942368
 21
114.3322699081
  0
LINE
  5
67D
100
AcDbEntity
  8
0
100
AcDbLine
 62
7
  6
CONTINUOUS
 10
148.9524601838
 20
114.7284767193
 11
149.5907580694
 21
114.7284767193
  0
LINE
  5
67E
100
AcDbEntity
  8
0
100
AcDbLine
 62
7
  6
CONTINUOUS
 10
148.9524601838
 20
114.8284767193
 11
149.5907580694
 21
114.8284767193
  0
LINE
  5
67F
100
AcDbEntity
  8
0
100
AcDbLine
 62
7
  6
CONTINUOUS
 10
149.5907580694
 20
114.9761057637
 11
148.9524601838
 21
114.9761057637
  0
LINE
  5
680
100
AcDbEntity
  8
0
100
AcDbLine
 62
7
  6
CONTINUOUS
 10
149.143949545
 20
116.5609322999
 11
149.2716091266
 21
116.5114063776
  0
LINE
  5
681
100
AcDbEntity
  8
0
100
AcDbLine
 62
7
  6
CONTINUOUS
 10
149.143949545
 20
116.6609322999
 11
149.2716091266
 21
116.6114063776
  0
LINE
  5
682
100
AcDbEntity
  8
0
100
AcDbLine
 62
7
  6
CONTINUOUS
 10
149.2716091266
 20
116.7590355638
 11
149.1758644348
 21
116.8085613443
  0
LINE
  5
683
100
AcDbEntity
  8
0
100
AcDbLine
 62
7
  6
CONTINUOUS
 10
149.6226729592
 20
117.7990779471
 11
149.6865027388
 21
117.7495521311
  0
LINE
  5
684
100
AcDbEntity
  8
0
100
AcDbLine
 62
7
  6
CONTINUOUS
 10
149.6226729592
 20
117.8990779471
 11
149.6865027388
 21
117.8495521311
  0
LINE
  5
685
100
AcDbEntity
  8
0
100
AcDbLine
 62
7
  6
CONTINUOUS
 10
149.7822474083
 20
117.9476554304
 11
149.654587849
 21
118.0467070845
  0
LINE
  5
686
100
AcDbEntity
  8
0
100
AcDbLine
 62
7
  6
CONTINUOUS
 10
158.7242003519
 20
72.2074061174
 11
158.7242003519
 21
107.5688863404
  0
LINE
  5
687
100
AcDbEntity
  8
0
100
AcDbLine
 62
7
  6
CONTINUOUS
 10
149.4630984655
 20
118.0962329138
 11
149.2716091266
 21
118.0467070845
  0
LINE
  5
688
100
AcDbEntity
  8
0
100
AcDbLine
 62
7
  6
CONTINUOUS
 10
148.9524601838
 20
115.8675706637
 11
149.6865027388
 21
115.8675706637
  0
LINE
  5
689
100
AcDbEntity
  8
0
100
AcDbLine
 62
7
  6
CONTINUOUS
 10
149.8141622981
 20
115.8675706637
 11
150.4524601838
 21
115.8675706637
  0
LINE
  5
68A
100
AcDbEntity
  8
0
100
AcDbLine
 62
7
  6
CONTINUOUS
 10
148.9524601838
 20
115.9675706637
 11
149.6865027388
 21
115.9675706637
  0
LINE
  5
68B
100
AcDbEntity
  8
0
100
AcDbLine
 62
7
  6
CONTINUOUS
 10
149.8141622981
 20
115.9675706637
 11
150.4524601838
 21
115.9675706637
  0
LINE
  5
68C
100
AcDbEntity
  8
0
100
AcDbLine
 62
7
  6
CONTINUOUS
 10
150.4524601838
 20
116.1151998499
 11
148.9524601838
 21
116.1151998499
  0
LINE
  5
68D
100
AcDbEntity
  8
0
100
AcDbLine
 62
7
  6
CONTINUOUS
 10
149.3992686858
 20
117.8486037808
 11
149.4950133553
 21
117.8486037808
  0
LINE
  5
68E
100
AcDbEntity
  8
0
100
AcDbLine
 62
7
  6
CONTINUOUS
 10
149.3992686858
 20
117.9486037808
 11
149.4950133553
 21
117.9486037808
  0
LINE
  5
68F
100
AcDbEntity
  8
0
100
AcDbLine
 62
7
  6
CONTINUOUS
 10
149.654587849
 20
118.0467070845
 11
149.4630984655
 21
118.0962329138
  0
LINE
  5
690
100
AcDbEntity
  8
0
100
AcDbLine
 62
7
  6
CONTINUOUS
 10
149.4950133553
 20
117.8486037808
 11
149.6226729592
 21
117.7990779471
  0
LINE
  5
691
100
AcDbEntity
  8
0
100
AcDbLine
 62
7
  6
CONTINUOUS
 10
149.4950133553
 20
117.9486037808
 11
149.6226729592
 21
117.8990779471
  0
LINE
  5
692
100
AcDbEntity
  8
0
100
AcDbLine
 62
7
  6
CONTINUOUS
 10
160.7242003519
 20
103.0087110346
 11
160.7242003519
 21
141.5785694564
  0
LINE
  5
693
100
AcDbEntity
  8
0
100
AcDbLine
 62
7
  6
CONTINUOUS
 10
148.9524601838
 20
119.8282837214
 11
150.7924601838
 21
119.8282837214
  0
LINE
  5
694
100
AcDbEntity
  8
0
100
AcDbLine
 62
7
  6
CONTINUOUS
 10
148.9524601838
 20
119.9282837214
 11
150.7924601838
 21
119.9282837214
  0
LINE
  5
695
100
AcDbEntity
  8
0
100
AcDbLine
 62
7
  6
CONTINUOUS
 10
150.7924601838
 20
120.4171809959
 11
148.9524601838
 21
120.4171809959
  0
LINE
  5
696
100
AcDbEntity
  8
0
100
AcDbLine
 62
7
  6
CONTINUOUS
 10
148.9524601838
 20
120.5557450605
 11
149.9924601838
 21
120.5557450605
  0
LINE
  5
697
100
AcDbEntity
  8
0
100
AcDbLine
 62
7
  6
CONTINUOUS
 10
148.9524601838
 20
120.6557450605
 11
149.9924601838
 21
120.6557450605
  0
LINE
  5
698
100
AcDbEntity
  8
0
100
AcDbLine
 62
7
  6
CONTINUOUS
 10
150.0324601838
 20
121.1446423351
 11
148.9524601838
 21
121.1446423351
  0
LINE
  5
699
100
AcDbEntity
  8
0
100
AcDbLine
 62
7
  6
CONTINUOUS
 10
163.7242003519
 20
77.5785711667
 11
163.7242003519
 21
137.5785694564
  0
LINE
  5
69A
100
AcDbEntity
  8
0
100
AcDbLine
 62
7
  6
CONTINUOUS
 10
148.9524601838
 20
121.9413857066
 11
149.8324601838
 21
121.9413857066
  0
LINE
  5
69B
100
AcDbEntity
  8
0
100
AcDbLine
 62
7
  6
CONTINUOUS
 10
150.4724601838
 20
121.9413857066
 11
150.7924601838
 21
121.9413857066
  0
LINE
  5
69C
100
AcDbEntity
  8
0
100
AcDbLine
 62
7
  6
CONTINUOUS
 10
148.9524601838
 20
122.0413857066
 11
149.8324601838
 21
122.0413857066
  0
LINE
  5
69D
100
AcDbEntity
  8
0
100
AcDbLine
 62
7
  6
CONTINUOUS
 10
150.4724601838
 20
122.0413857066
 11
150.7924601838
 21
122.0413857066
  0
LINE
  5
69E
100
AcDbEntity
  8
0
100
AcDbLine
 62
7
  6
CONTINUOUS
 10
150.7924601838
 20
122.5302829812
 11
148.9524601838
 21
122.5302829812
  0
LINE
  5
69F
100
AcDbEntity
  8
0
100
AcDbLine
 62
7
  6
CONTINUOUS
 10
148.9524601838
 20
122.6688470458
 11
150.7924601838
 21
122.6688470458
  0
LINE
  5
6A0
100
AcDbEntity
  8
0
100
AcDbLine
 62
7
  6
CONTINUOUS
 10
148.9524601838
 20
122.7688470458
 11
150.7924601838
 21
122.7688470458
  0
LINE
  5
6A1
100
AcDbEntity
  8
0
100
AcDbLine
 62
7
  6
CONTINUOUS
 10
150.7924601838
 20
123.2577443203
 11
149.9124601838
 21
123.2577443203
  0
LINE
  5
6A2
100
AcDbEntity
  8
0
100
AcDbLine
 62
7
  6
CONTINUOUS
 10
149.2724601838
 20
123.2577443203
 11
148.9524601838
 21
123.2577443203
  0
LINE
  5
6A3
100
AcDbEntity
  8
0
100
AcDbLine
 62
7
  6
CONTINUOUS
 10
149.7124601838
 20
124.0544876918
 11
150.7924601838
 21
124.0544876918
  0
LINE
  5
6A4
100
AcDbEntity
  8
0
100
AcDbLine
 62
7
  6
CONTINUOUS
 10
149.7124601838
 20
124.1544876918
 11
150.7924601838
 21
124.1544876918
  0
LINE
  5
6A5
100
AcDbEntity
  8
0
100
AcDbLine
 62
7
  6
CONTINUOUS
 10
163.7242003519
 20
128.0875934487
 11
160.7242003519
 21
127.7950168577
  0
LINE
  5
6A6
100
AcDbEntity
  8
0
100
AcDbLine
 62
7
  6
CONTINUOUS
 10
150.7924601838
 20
124.6433849664
 11
149.7524601838
 21
124.6433849664
  0
LINE
  5
6A7
100
AcDbEntity
  8
2_FEATURE
100
AcDbLine
 62
7
  6
CONTINUOUS
 10
142.6602895926
 20
136.5785694564
 11
140.0242003519
 21
136.5785694564
  0
LINE
  5
6A8
100
AcDbEntity
  8
1_AXIS
100
AcDbLine
 62
2
  6
CONTINUOUS
 10
152.1042003519
 20
137.5785694564
 11
150.3442003519
 21
137.5785694564
  0
LINE
  5
6A9
100
AcDbEntity
  8
1_AXIS
100
AcDbLine
 62
2
  6
CENTER
 10
146.8242003519
 20
137.5785694564
 11
134.8994808433
 21
137.5785694564
  0
LINE
  5
6AA
100
AcDbEntity
  8
1_AXIS
100
AcDbLine
 62
2
  6
CENTER
 10
155.6242003519
 20
137.5785694564
 11
167.8804728433
 21
137.5785694564
  0
LINE
  5
6AB
100
AcDbEntity
  8
2_FEATURE
100
AcDbLine
 62
7
  6
CONTINUOUS
 10
151.3601728383
 20
150.0777440458
 11
151.0882278655
 21
150.0777440458
  0
ARC
  5
6AC
100
AcDbEntity
  8
0
100
AcDbCircle
 62
7
  6
CONTINUOUS
 10
48.5560405495
 20
101.5785694564
 40
7.917424305
100
AcDbArc
 50
10.4065844082
 51
59.3164627604
  0
ARC
  5
6AD
100
AcDbEntity
  8
0
100
AcDbCircle
 62
7
  6
CONTINUOUS
 10
47.3502582891
 20
102.4099033301
 40
7.532
100
AcDbArc
 50
324.4866961967
 51
30.0
  0
ARC
  5
6AE
100
AcDbEntity
  8
0
100
AcDbCircle
 62
7
  6
CONTINUOUS
 10
48.5560405495
 20
101.5785694564
 40
7.5
100
AcDbArc
 50
326.4137608119
 51
53.0069893546
  0
ARC
  5
6AF
100
AcDbEntity
  8
0
100
AcDbCircle
 62
7
  6
CONTINUOUS
 10
54.7953827724
 20
105.5785694564
 40
3.0
100
AcDbArc
 50
301.0608895448
 51
30.0
  0
ARC
  5
6B0
100
AcDbEntity
  8
2_FEATURE
100
AcDbCircle
 62
7
  6
CONTINUOUS
 10
45.7046349843
 20
117.7242065042
 40
1.3
100
AcDbArc
 50
30.0
 51
60.0
  0
ARC
  5
6B1
100
AcDbEntity
  8
2_FEATURE
100
AcDbCircle
 62
7
  6
CONTINUOUS
 10
43.1358125
 20
143.0785694564
 40
7.0
100
AcDbArc
 50
0.0
 51
89.0249216802
  0
ARC
  5
6B2
100
AcDbEntity
  8
2_FEATURE
100
AcDbCircle
 62
7
  6
CONTINUOUS
 10
40.1508125
 20
128.2053208023
 40
5.0
100
AcDbArc
 50
180.0
 51
240.0
  0
ARC
  5
6B3
100
AcDbEntity
  8
0
100
AcDbCircle
 62
7
  6
CONTINUOUS
 10
44.9328125
 20
127.6610422614
 40
3.0
100
AcDbArc
 50
180.0
 51
210.0
  0
ARC
  5
6B4
100
AcDbEntity
  8
0
100
AcDbCircle
 62
7
  6
CONTINUOUS
 10
42.4328125
 20
138.5785694564
 40
3.0
100
AcDbArc
 50
0.0
 51
90.0
  0
ARC
  5
6B5
100
AcDbEntity
  8
2_FEATURE
100
AcDbCircle
 62
7
  6
CONTINUOUS
 10
37.1508125
 20
134.5785694564
 40
2.0
100
AcDbArc
 50
90.0
 51
180.0
  0
ARC
  5
6B6
100
AcDbEntity
  8
2_FEATURE
100
AcDbCircle
 62
7
  6
CONTINUOUS
 10
40.6328125
 20
137.8785694564
 40
1.3
100
AcDbArc
 50
270.0
 51
360.0
  0
ARC
  5
6B7
100
AcDbEntity
  8
2_FEATURE
100
AcDbCircle
 62
7
  6
CONTINUOUS
 10
43.2328125
 20
148.7777440458
 40
1.3
100
AcDbArc
 50
89.0249313317
 51
180.0
  0
ARC
  5
6B8
100
AcDbEntity
  8
0
100
AcDbCircle
 62
7
  6
CONTINUOUS
 10
68.1328125
 20
96.8785694564
 40
24.6711651227
100
AcDbArc
 50
235.1820471181
 51
304.8179528819
  0
ARC
  5
6B9
100
AcDbEntity
  8
0
100
AcDbCircle
 62
7
  6
CONTINUOUS
 10
68.1328125
 20
87.5785694564
 40
18.0
100
AcDbArc
 50
144.4866961967
 51
35.5133038033
  0
ARC
  5
6BA
100
AcDbEntity
  8
0
100
AcDbCircle
 62
7
  6
CONTINUOUS
 10
68.1328125
 20
88.5785694564
 40
16.0
100
AcDbArc
 50
146.4137608119
 51
33.5862391881
  0
ARC
  5
6BB
100
AcDbEntity
  8
0
100
AcDbCircle
 62
7
  6
CONTINUOUS
 10
87.7095844505
 20
101.5785694564
 40
7.917424305
100
AcDbArc
 50
120.6835372396
 51
169.5934155918
  0
ARC
  5
6BC
100
AcDbEntity
  8
0
100
AcDbCircle
 62
7
  6
CONTINUOUS
 10
88.9153667109
 20
102.4099033301
 40
7.532
100
AcDbArc
 50
150.0
 51
215.5133038033
  0
ARC
  5
6BD
100
AcDbEntity
  8
0
100
AcDbCircle
 62
7
  6
CONTINUOUS
 10
87.7095844505
 20
101.5785694564
 40
7.5
100
AcDbArc
 50
126.9930106454
 51
213.5862391881
  0
CIRCLE
  5
6BE
100
AcDbEntity
  8
0
100
AcDbCircle
 62
7
  6
CONTINUOUS
 10
68.1328125
 20
110.9785694564
 40
3.9
  0
CIRCLE
  5
6BF
100
AcDbEntity
  8
0
100
AcDbCircle
 62
7
  6
CONTINUOUS
 10
68.1328125
 20
87.2785694564
 40
3.9
  0
ARC
  5
6C0
100
AcDbEntity
  8
0
100
AcDbCircle
 62
7
  6
CONTINUOUS
 10
81.4702422276
 20
105.5785694564
 40
3.0
100
AcDbArc
 50
150.0
 51
238.9391104552
  0
CIRCLE
  5
6C1
100
AcDbEntity
  8
0
100
AcDbCircle
 62
7
  6
CONTINUOUS
 10
68.1328125
 20
110.9785694564
 40
2.05
  0
CIRCLE
  5
6C2
100
AcDbEntity
  8
0
100
AcDbCircle
 62
7
  6
CONTINUOUS
 10
68.1328125
 20
87.2785694564
 40
2.05
  0
ARC
  5
6C3
100
AcDbEntity
  8
0
100
AcDbCircle
 62
7
  6
CONTINUOUS
 10
90.5609900157
 20
117.7242065042
 40
1.3
100
AcDbArc
 50
120.0
 51
150.0
  0
ARC
  5
6C4
100
AcDbEntity
  8
0
100
AcDbCircle
 62
7
  6
CONTINUOUS
 10
68.1328125
 20
137.5785694564
 40
17.5
100
AcDbArc
 50
210.0
 51
330.0
  0
ARC
  5
6C5
100
AcDbEntity
  8
0
100
AcDbCircle
 62
7
  6
CONTINUOUS
 10
93.1298125
 20
143.0785694564
 40
7.0
100
AcDbArc
 50
90.9750783092
 51
180.0
  0
ARC
  5
6C6
100
AcDbEntity
  8
0
100
AcDbCircle
 62
7
  6
CONTINUOUS
 10
96.1148125
 20
128.2053208023
 40
5.0
100
AcDbArc
 50
300.0
 51
360.0
  0
ARC
  5
6C7
100
AcDbEntity
  8
0
100
AcDbCircle
 62
7
  6
CONTINUOUS
 10
91.3328125
 20
127.6610422614
 40
3.0
100
AcDbArc
 50
330.0
 51
360.0
  0
ARC
  5
6C8
100
AcDbEntity
  8
0
100
AcDbCircle
 62
7
  6
CONTINUOUS
 10
93.8328125
 20
138.5785694564
 40
3.0
100
AcDbArc
 50
90.0
 51
180.0
  0
ARC
  5
6C9
100
AcDbEntity
  8
0
100
AcDbCircle
 62
7
  6
CONTINUOUS
 10
99.1148125
 20
134.5785694564
 40
2.0
100
AcDbArc
 50
0.0
 51
90.0
  0
ARC
  5
6CA
100
AcDbEntity
  8
0
100
AcDbCircle
 62
7
  6
CONTINUOUS
 10
93.0328125
 20
148.7777440458
 40
1.3
100
AcDbArc
 50
0.0
 51
90.9750686683
  0
ARC
  5
6CB
100
AcDbEntity
  8
0
100
AcDbCircle
 62
7
  6
CONTINUOUS
 10
95.6328125
 20
137.8785694564
 40
1.3
100
AcDbArc
 50
180.0
 51
270.0
  0
ARC
  5
6CC
100
AcDbEntity
  8
0
100
AcDbCircle
 62
7
  6
CONTINUOUS
 10
81.1328125
 20
178.8057153965
 40
5.0
100
AcDbArc
 50
270.0
 51
360.0
  0
ARC
  5
6CD
100
AcDbEntity
  8
0
100
AcDbCircle
 62
7
  6
CONTINUOUS
 10
79.1328125
 20
193.8057153965
 40
5.0
100
AcDbArc
 50
0.0
 51
90.0
  0
ARC
  5
6CE
100
AcDbEntity
  8
0
100
AcDbCircle
 62
7
  6
CONTINUOUS
 10
57.1328125
 20
193.8057153965
 40
5.0
100
AcDbArc
 50
90.0
 51
180.0
  0
ARC
  5
6CF
100
AcDbEntity
  8
2_FEATURE
100
AcDbCircle
 62
7
  6
CONTINUOUS
 10
55.1328125
 20
178.8057153965
 40
5.0
100
AcDbArc
 50
180.0
 51
270.0
  0
ARC
  5
6D0
100
AcDbEntity
  8
2_FEATURE
100
AcDbCircle
 62
7
  6
CONTINUOUS
 10
36.4508125
 20
175.1057153965
 40
1.3
100
AcDbArc
 50
180.0
 51
270.0
  0
ARC
  5
6D1
100
AcDbEntity
  8
0
100
AcDbCircle
 62
7
  6
CONTINUOUS
 10
99.8148125
 20
175.1057153965
 40
1.3
100
AcDbArc
 50
270.0
 51
360.0
  0
ARC
  5
6D2
100
AcDbEntity
  8
0
100
AcDbCircle
 62
7
  6
CONTINUOUS
 10
85.1328125
 20
181.1057153965
 40
1.0
100
AcDbArc
 50
0.0
 51
90.0
  0
ARC
  5
6D3
100
AcDbEntity
  8
0
100
AcDbCircle
 62
7
  6
CONTINUOUS
 10
85.1328125
 20
191.5057153965
 40
1.0
100
AcDbArc
 50
270.0
 51
360.0
  0
ARC
  5
6D4
100
AcDbEntity
  8
2_FEATURE
100
AcDbCircle
 62
7
  6
CONTINUOUS
 10
51.1328125
 20
181.1057153965
 40
1.0
100
AcDbArc
 50
90.0
 51
180.0
  0
ARC
  5
6D5
100
AcDbEntity
  8
2_FEATURE
100
AcDbCircle
 62
7
  6
CONTINUOUS
 10
51.1328125
 20
191.5057153965
 40
1.0
100
AcDbArc
 50
180.0
 51
270.0
  0
ARC
  5
6D6
100
AcDbEntity
  8
0
100
AcDbCircle
 62
7
  6
CONTINUOUS
 10
43.7894113933
 20
184.2579032558
 40
0.2245657604
100
AcDbArc
 50
250.9238923066
 51
252.4208669079
  0
ARC
  5
6D7
100
AcDbEntity
  8
0
100
AcDbCircle
 62
7
  6
CONTINUOUS
 10
43.7867170419
 20
184.2491505678
 40
0.2154080743
100
AcDbArc
 50
252.4009222588
 51
259.4805831016
  0
ARC
  5
6D8
100
AcDbEntity
  8
0
100
AcDbCircle
 62
7
  6
CONTINUOUS
 10
45.2493230497
 20
185.6692019287
 40
0.2055301657
100
AcDbArc
 50
108.2817188819
 51
110.9097736343
  0
ARC
  5
6D9
100
AcDbEntity
  8
0
100
AcDbCircle
 62
7
  6
CONTINUOUS
 10
45.2455201524
 20
185.6813656574
 40
0.1927875734
100
AcDbArc
 50
101.0889924164
 51
108.3425507584
  0
ARC
  5
6DA
100
AcDbEntity
  8
2_FEATURE
100
AcDbCircle
 62
7
  6
CONTINUOUS
 10
104.7242003519
 20
127.6272210052
 40
40.0
100
AcDbArc
 50
349.8587336461
 51
11.9296220871
  0
ARC
  5
6DB
100
AcDbEntity
  8
0
100
AcDbCircle
 62
7
  6
CONTINUOUS
 10
157.8242003519
 20
99.2525517727
 40
30.5
100
AcDbArc
 50
232.1526875085
 51
256.4093598328
  0
ARC
  5
6DC
100
AcDbEntity
  8
2_FEATURE
100
AcDbCircle
 62
7
  6
CONTINUOUS
 10
144.6242003519
 20
99.2525517727
 40
30.5
100
AcDbArc
 50
283.5906405116
 51
297.53530439
  0
ARC
  5
6DD
100
AcDbEntity
  8
2_FEATURE
100
AcDbCircle
 62
7
  6
CONTINUOUS
 10
144.6242003519
 20
99.2525517727
 40
30.5
100
AcDbArc
 50
299.2610640815
 51
306.8309317852
  0
ARC
  5
6DE
100
AcDbEntity
  8
0
100
AcDbCircle
 62
7
  6
CONTINUOUS
 10
158.7242003519
 20
77.5785694564
 40
5.0
100
AcDbArc
 50
270.0
 51
279.3007804857
  0
ARC
  5
6DF
100
AcDbEntity
  8
0
100
AcDbCircle
 62
7
  6
CONTINUOUS
 10
158.7242003519
 20
77.5785694564
 40
5.0
100
AcDbArc
 50
326.791215381
 51
360.0
  0
ARC
  5
6E0
100
AcDbEntity
  8
2_FEATURE
100
AcDbCircle
 62
7
  6
CONTINUOUS
 10
139.7242003519
 20
75.9579171974
 40
1.0
100
AcDbArc
 50
180.0
 51
232.1526875085
  0
ARC
  5
6E1
100
AcDbEntity
  8
0
100
AcDbCircle
 62
7
  6
CONTINUOUS
 10
150.8921921028
 20
70.5785694655
 40
0.9999999998
100
AcDbArc
 50
256.4093609644
 51
270.0000009998
  0
ARC
  5
6E2
100
AcDbEntity
  8
0
100
AcDbCircle
 62
7
  6
CONTINUOUS
 10
151.556208767
 20
70.5785695333
 40
0.9999999988
100
AcDbArc
 50
270.0000012557
 51
283.5906405116
  0
ARC
  5
6E3
100
AcDbEntity
  8
2_FEATURE
100
AcDbCircle
 62
7
  6
CONTINUOUS
 10
140.0242003519
 20
135.2785694564
 40
1.3
100
AcDbArc
 50
90.0
 51
180.0
  0
ARC
  5
6E4
100
AcDbEntity
  8
2_FEATURE
100
AcDbCircle
 62
7
  6
CONTINUOUS
 10
142.6602895705
 20
135.2785696163
 40
1.29999992
100
AcDbArc
 50
11.4030276951
 51
89.9999990276
  0
ARC
  5
6E5
100
AcDbEntity
  8
0
100
AcDbCircle
 62
7
  6
CONTINUOUS
 10
151.6806259666
 20
120.2229455722
 40
0.7681733638
100
AcDbArc
 50
183.754842163
 51
187.4283132445
  0
ARC
  5
6E6
100
AcDbEntity
  8
0
100
AcDbCircle
 62
7
  6
CONTINUOUS
 10
152.184294401
 20
120.2229455722
 40
0.7681733638
100
AcDbArc
 50
352.5716867555
 51
356.2451578371
  0
ARC
  5
6E7
100
AcDbEntity
  8
0
100
AcDbCircle
 62
7
  6
CONTINUOUS
 10
150.1901041551
 20
121.3486756155
 40
0.6023560387
100
AcDbArc
 50
350.5535520806
 51
359.9895147948
  0
ARC
  5
6E8
100
AcDbEntity
  8
0
100
AcDbCircle
 62
7
  6
CONTINUOUS
 10
149.4950509829
 20
123.8763375389
 40
0.5425908157
100
AcDbArc
 50
180.0141460182
 51
190.4804640579
  0
ARC
  5
6E9
100
AcDbEntity
  8
2_FEATURE
100
AcDbCircle
 62
7
  6
CONTINUOUS
 10
151.2242003519
 20
137.5785694564
 40
12.5
100
AcDbArc
 50
22.0353256247
 51
22.0956694445
  0
ARC
  5
6EA
100
AcDbEntity
  8
2_FEATURE
100
AcDbCircle
 62
7
  6
CONTINUOUS
 10
151.2242003519
 20
137.5785694564
 40
12.5
100
AcDbArc
 50
23.5454580349
 51
24.9473803931
  0
ARC
  5
6EB
100
AcDbEntity
  8
2_FEATURE
100
AcDbCircle
 62
7
  6
CONTINUOUS
 10
151.2242003519
 20
137.5785694564
 40
12.5
100
AcDbArc
 50
26.4337264817
 51
29.4110278192
  0
ARC
  5
6EC
100
AcDbEntity
  8
2_FEATURE
100
AcDbCircle
 62
7
  6
CONTINUOUS
 10
151.2242003519
 20
137.5785694564
 40
12.5
100
AcDbArc
 50
90.6956064098
 51
180.0
  0
ARC
  5
6ED
100
AcDbEntity
  8
0
100
AcDbCircle
 62
7
  6
CONTINUOUS
 10
151.2242003519
 20
137.5785694564
 40
12.5
100
AcDbArc
 50
0.0
 51
89.3043935093
  0
ARC
  5
6EE
100
AcDbEntity
  8
0
100
AcDbCircle
 62
7
  6
CONTINUOUS
 10
151.2242003519
 20
137.5785694564
 40
12.5
100
AcDbArc
 50
150.5889721808
 51
178.4651080419
  0
CIRCLE
  5
6EF
100
AcDbEntity
  8
2_FEATURE
100
AcDbCircle
 62
7
  6
CONTINUOUS
 10
151.2242003519
 20
137.5785694564
 40
5.75
  0
CIRCLE
  5
6F0
100
AcDbEntity
  8
2_FEATURE
100
AcDbCircle
 62
7
  6
CONTINUOUS
 10
151.2242003519
 20
137.5785694564
 40
3.95
  0
ARC
  5
6F1
100
AcDbEntity
  8
0
100
AcDbCircle
 62
7
  6
CONTINUOUS
 10
151.0882279386
 20
148.7777320102
 40
1.3000120356
100
AcDbArc
 50
90.0000032195
 51
90.695554664
  0
ARC
  5
6F2
100
AcDbEntity
  8
2_FEATURE
100
AcDbCircle
 62
7
  6
CONTINUOUS
 10
151.0882279386
 20
148.7777320107
 40
1.3000120351
100
AcDbArc
 50
90.0000032194
 51
90.6955546642
  0
ARC
  5
6F3
100
AcDbEntity
  8
0
100
AcDbCircle
 62
7
  6
CONTINUOUS
 10
151.3601727656
 20
148.7777320713
 40
1.3000119745
100
AcDbArc
 50
89.3044450653
 51
89.9999967966
  0
ARC
  5
6F4
100
AcDbEntity
  8
2_FEATURE
100
AcDbCircle
 62
7
  6
CONTINUOUS
 10
151.3601727656
 20
148.7777320713
 40
1.3000119745
100
AcDbArc
 50
89.3044450653
 51
89.9999967966
  0
SPLINE
  5
6F5
100
AcDbEntity
  8
0
100
AcDbSpline
 62
7
  6
CONTINUOUS
 70
0
 71
3
 72
11
 73
7
 74
0
 42
0.0000001
 43
0.0000001
 44
0.0000000001
 40
0.0
 40
0.0
 40
0.0
 40
0.0
 40
0.2500409202
 40
0.4999963708
 40
0.7499505002
 40
1.0
 40
1.0
 40
1.0
 40
1.0
 10
77.9609615413
 20
107.6046536053
 30
0.0
 10
78.1503980622
 20
107.9346843927
 30
0.0
 10
78.5263915678
 20
108.5962504101
 30
0.0
 10
79.0846967438
 20
109.5917191396
 30
0.0
 10
79.6427666804
 20
110.5873320833
 30
0.0
 10
80.0190071249
 20
111.2487779304
 30
0.0
 10
80.2092809103
 20
111.5783417941
 30
0.0
  0
SPLINE
  5
6F6
100
AcDbEntity
  8
0
100
AcDbSpline
 62
7
  6
CONTINUOUS
 70
0
 71
3
 72
24
 73
20
 74
0
 42
0.0000001
 43
0.0000001
 44
0.0000000001
 40
0.0
 40
0.0
 40
0.0
 40
0.0
 40
0.0344563715
 40
0.0732944387
 40
0.1172377453
 40
0.1667931975
 40
0.2220685036
 40
0.2826457569
 40
0.3146830739
 40
0.3476889963
 40
0.4159924468
 40
0.4865582227
 40
0.5585613685
 40
0.6314286862
 40
0.7047940222
 40
0.7784365082
 40
0.8522281113
 40
0.9260962524
 40
1.0
 40
1.0
 40
1.0
 40
1.0
 10
79.9223960816
 20
103.0087110346
 30
0.0
 10
79.854880669
 20
102.9883145824
 30
0.0
 10
79.7065013024
 20
102.9597203738
 30
0.0
 10
79.4652546176
 20
102.9589837594
 30
0.0
 10
79.197190955
 20
103.0069913779
 30
0.0
 10
78.9099406349
 20
103.1125802865
 30
0.0
 10
78.6151215974
 20
103.2822144565
 30
0.0
 10
78.3799300494
 20
103.4750637397
 30
0.0
 10
78.2013545516
 20
103.6603698546
 30
0.0
 10
78.0276948466
 20
103.8712714248
 30
0.0
 10
77.8361582044
 20
104.168090361
 30
0.0
 10
77.6567110482
 20
104.5622241716
 30
0.0
 10
77.5311661433
 20
104.9864009166
 30
0.0
 10
77.4625369763
 20
105.4291078264
 30
0.0
 10
77.4514365967
 20
105.8802516948
 30
0.0
 10
77.4970035076
 20
106.3310618064
 30
0.0
 10
77.5974727594
 20
106.7739161313
 30
0.0
 10
77.7504428113
 20
107.2019503935
 30
0.0
 10
77.8856546741
 20
107.4734561754
 30
0.0
 10
77.9609615413
 20
107.6046536053
 30
0.0
  0
LINE
  5
6F7
100
AcDbEntity
  8
0
100
AcDbLine
 62
7
  6
CONTINUOUS
 10
87.4298125
 20
133.4019538901
 11
86.1298125
 21
133.7502878402
  0
SPLINE
  5
6F8
100
AcDbEntity
  8
0
100
AcDbSpline
 62
7
  6
CONTINUOUS
 70
0
 71
3
 72
17
 73
13
 74
0
 42
0.0000001
 43
0.0000001
 44
0.0000000001
 40
0.0
 40
0.0
 40
0.0
 40
0.0
 40
0.1260449084
 40
0.251307662
 40
0.3758382698
 40
0.4999344714
 40
0.6240294861
 40
0.7485498014
 40
0.8111284692
 40
0.8739022138
 40
0.9368658903
 40
1.0
 40
1.0
 40
1.0
 40
1.0
 10
43.2328125
 20
142.2541667497
 30
0.0
 10
43.4523405531
 20
142.2126268542
 30
0.0
 10
43.8843309671
 20
142.095308443
 30
0.0
 10
44.4941480158
 20
141.8204734103
 30
0.0
 10
45.0495707487
 20
141.4535534069
 30
0.0
 10
45.5362568386
 20
141.0022636358
 30
0.0
 10
45.94061636
 20
140.4758527301
 30
0.0
 10
46.1975989361
 20
139.984241565
 30
0.0
 10
46.348926885
 20
139.5674545493
 30
0.0
 10
46.434284452
 20
139.2442489273
 30
0.0
 10
46.4900375805
 20
138.9136900271
 30
0.0
 10
46.5068733954
 20
138.6904314851
 30
0.0
 10
46.5101410245
 20
138.5785694564
 30
0.0
  0
SPLINE
  5
6F9
100
AcDbEntity
  8
0
100
AcDbSpline
 62
7
  6
CONTINUOUS
 70
0
 71
3
 72
17
 73
13
 74
0
 42
0.0000001
 43
0.0000001
 44
0.0000000001
 40
0.0
 40
0.0
 40
0.0
 40
0.0
 40
0.1260449084
 40
0.251307662
 40
0.3758382698
 40
0.4999344714
 40
0.6240294861
 40
0.7485498014
 40
0.8111284692
 40
0.8739022138
 40
0.9368658903
 40
1.0
 40
1.0
 40
1.0
 40
1.0
 10
93.0328125
 20
142.2541667497
 30
0.0
 10
92.8132844469
 20
142.2126268542
 30
0.0
 10
92.3812940329
 20
142.095308443
 30
0.0
 10
91.7714769842
 20
141.8204734103
 30
0.0
 10
91.2160542513
 20
141.4535534069
 30
0.0
 10
90.7293681614
 20
141.0022636358
 30
0.0
 10
90.32500864
 20
140.4758527301
 30
0.0
 10
90.0680260639
 20
139.984241565
 30
0.0
 10
89.916698115
 20
139.5674545493
 30
0.0
 10
89.831340548
 20
139.2442489273
 30
0.0
 10
89.7755874195
 20
138.9136900271
 30
0.0
 10
89.7587516046
 20
138.6904314851
 30
0.0
 10
89.7554839755
 20
138.5785694564
 30
0.0
  0
SPLINE
  5
6FA
100
AcDbEntity
  8
0
100
AcDbSpline
 62
7
  6
CONTINUOUS
 70
0
 71
3
 72
10
 73
6
 74
0
 42
0.0000001
 43
0.0000001
 44
0.0000000001
 40
0.0
 40
0.0
 40
0.0
 40
0.0
 40
0.2500892391
 40
0.5001966798
 40
1.0
 40
1.0
 40
1.0
 40
1.0
 10
82.2193282796
 20
76.6242745523
 30
0.0
 10
82.2951139855
 20
76.676982214
 30
0.0
 10
82.4409173069
 20
76.7909348261
 30
0.0
 10
82.7087907984
 20
77.0453718832
 30
0.0
 10
82.8840571436
 20
77.2618443324
 30
0.0
 10
82.9882351652
 20
77.414101055
 30
0.0
  0
LINE
  5
6FB
100
AcDbEntity
  8
2_FEATURE
100
AcDbLine
 62
7
  6
CONTINUOUS
 10
48.8358125
 20
133.4019538901
 11
50.1358125
 21
133.7502878402
  0
SPLINE
  5
6FC
100
AcDbEntity
  8
0
100
AcDbSpline
 62
7
  6
CONTINUOUS
 70
0
 71
3
 72
11
 73
7
 74
0
 42
0.0000001
 43
0.0000001
 44
0.0000000001
 40
0.0
 40
0.0
 40
0.0
 40
0.0
 40
0.2500409202
 40
0.4999963708
 40
0.7499505002
 40
1.0
 40
1.0
 40
1.0
 40
1.0
 10
58.3046634587
 20
107.6046536053
 30
0.0
 10
58.1152269378
 20
107.9346843927
 30
0.0
 10
57.7392334322
 20
108.5962504101
 30
0.0
 10
57.1809282562
 20
109.5917191396
 30
0.0
 10
56.6228583196
 20
110.5873320833
 30
0.0
 10
56.2466178751
 20
111.2487779304
 30
0.0
 10
56.0563440897
 20
111.5783417941
 30
0.0
  0
SPLINE
  5
6FD
100
AcDbEntity
  8
0
100
AcDbSpline
 62
7
  6
CONTINUOUS
 70
0
 71
3
 72
10
 73
6
 74
0
 42
0.0000001
 43
0.0000001
 44
0.0000000001
 40
0.0
 40
0.0
 40
0.0
 40
0.0
 40
0.2293882601
 40
0.4757697119
 40
1.0
 40
1.0
 40
1.0
 40
1.0
 10
42.4328125
 20
142.2348750688
 30
0.0
 10
42.4923352441
 20
142.2507827767
 30
0.0
 10
42.6180245111
 20
142.275872156
 30
0.0
 10
42.886076128
 20
142.2980524393
 30
0.0
 10
43.0944636351
 20
142.2803456244
 30
0.0
 10
43.2328125
 20
142.2541667497
 30
0.0
  0
SPLINE
  5
6FE
100
AcDbEntity
  8
0
100
AcDbSpline
 62
7
  6
CONTINUOUS
 70
0
 71
3
 72
15
 73
11
 74
0
 42
0.0000001
 43
0.0000001
 44
0.0000000001
 40
0.0
 40
0.0
 40
0.0
 40
0.0
 40
0.0791058853
 40
0.1653027342
 40
0.2638703263
 40
0.3778781044
 40
0.5086816671
 40
0.656468669
 40
0.820628515
 40
1.0
 40
1.0
 40
1.0
 40
1.0
 10
41.9328125
 20
141.8840758964
 30
0.0
 10
41.9328125
 20
141.9011021521
 30
0.0
 10
41.9390381518
 20
141.9368948302
 30
0.0
 10
41.9657035503
 20
141.9878036411
 30
0.0
 10
42.0084272381
 20
142.0364667409
 30
0.0
 10
42.0664168206
 20
142.082734592
 30
0.0
 10
42.1390115411
 20
142.1263458761
 30
0.0
 10
42.2254071896
 20
142.1668659612
 30
0.0
 10
42.3245869638
 20
142.2038224652
 30
0.0
 10
42.3955147269
 20
142.2249070794
 30
0.0
 10
42.4328125
 20
142.2348750688
 30
0.0
  0
SPLINE
  5
6FF
100
AcDbEntity
  8
0
100
AcDbSpline
 62
7
  6
CONTINUOUS
 70
0
 71
3
 72
24
 73
20
 74
0
 42
0.0000001
 43
0.0000001
 44
0.0000000001
 40
0.0
 40
0.0
 40
0.0
 40
0.0
 40
0.0344563715
 40
0.0732944387
 40
0.1172377453
 40
0.1667931975
 40
0.2220685036
 40
0.2826457569
 40
0.3146830739
 40
0.3476889963
 40
0.4159924468
 40
0.4865582227
 40
0.5585613685
 40
0.6314286862
 40
0.7047940222
 40
0.7784365082
 40
0.8522281113
 40
0.9260962524
 40
1.0
 40
1.0
 40
1.0
 40
1.0
 10
56.3432289184
 20
103.0087110346
 30
0.0
 10
56.410744331
 20
102.9883145824
 30
0.0
 10
56.5591236976
 20
102.9597203738
 30
0.0
 10
56.8003703824
 20
102.9589837594
 30
0.0
 10
57.068434045
 20
103.0069913779
 30
0.0
 10
57.3556843651
 20
103.1125802865
 30
0.0
 10
57.6505034026
 20
103.2822144565
 30
0.0
 10
57.8856949506
 20
103.4750637397
 30
0.0
 10
58.0642704484
 20
103.6603698546
 30
0.0
 10
58.2379301534
 20
103.8712714248
 30
0.0
 10
58.4294667956
 20
104.168090361
 30
0.0
 10
58.6089139518
 20
104.5622241716
 30
0.0
 10
58.7344588567
 20
104.9864009166
 30
0.0
 10
58.8030880237
 20
105.4291078264
 30
0.0
 10
58.8141884033
 20
105.8802516948
 30
0.0
 10
58.7686214924
 20
106.3310618064
 30
0.0
 10
58.6681522406
 20
106.7739161313
 30
0.0
 10
58.5151821887
 20
107.2019503935
 30
0.0
 10
58.3799703259
 20
107.4734561754
 30
0.0
 10
58.3046634587
 20
107.6046536053
 30
0.0
  0
SPLINE
  5
700
100
AcDbEntity
  8
0
100
AcDbSpline
 62
7
  6
CONTINUOUS
 70
0
 71
3
 72
15
 73
11
 74
0
 42
0.0000001
 43
0.0000001
 44
0.0000000001
 40
0.0
 40
0.0
 40
0.0
 40
0.0
 40
0.0791058853
 40
0.1653027342
 40
0.2638703263
 40
0.3778781044
 40
0.5086816671
 40
0.656468669
 40
0.820628515
 40
1.0
 40
1.0
 40
1.0
 40
1.0
 10
94.3328125
 20
141.8840758964
 30
0.0
 10
94.3328125
 20
141.9011021521
 30
0.0
 10
94.3265868482
 20
141.9368948302
 30
0.0
 10
94.2999214497
 20
141.9878036411
 30
0.0
 10
94.2571977619
 20
142.0364667409
 30
0.0
 10
94.1992081794
 20
142.082734592
 30
0.0
 10
94.1266134589
 20
142.1263458761
 30
0.0
 10
94.0402178104
 20
142.1668659612
 30
0.0
 10
93.9410380362
 20
142.2038224652
 30
0.0
 10
93.8701102731
 20
142.2249070794
 30
0.0
 10
93.8328125
 20
142.2348750688
 30
0.0
  0
SPLINE
  5
701
100
AcDbEntity
  8
0
100
AcDbSpline
 62
7
  6
CONTINUOUS
 70
0
 71
3
 72
10
 73
6
 74
0
 42
0.0000001
 43
0.0000001
 44
0.0000000001
 40
0.0
 40
0.0
 40
0.0
 40
0.0
 40
0.2293882601
 40
0.4757697119
 40
1.0
 40
1.0
 40
1.0
 40
1.0
 10
93.8328125
 20
142.2348750688
 30
0.0
 10
93.7732897559
 20
142.2507827767
 30
0.0
 10
93.6476004889
 20
142.275872156
 30
0.0
 10
93.379548872
 20
142.2980524393
 30
0.0
 10
93.1711613649
 20
142.2803456244
 30
0.0
 10
93.0328125
 20
142.2541667497
 30
0.0
  0
SPLINE
  5
702
100
AcDbEntity
  8
0
100
AcDbSpline
 62
7
  6
CONTINUOUS
 70
0
 71
3
 72
10
 73
6
 74
0
 42
0.0000001
 43
0.0000001
 44
0.0000000001
 40
0.0
 40
0.0
 40
0.0
 40
0.0
 40
0.2500892391
 40
0.5001966798
 40
1.0
 40
1.0
 40
1.0
 40
1.0
 10
54.0462967204
 20
76.6242745523
 30
0.0
 10
53.9705110145
 20
76.676982214
 30
0.0
 10
53.8247076931
 20
76.7909348261
 30
0.0
 10
53.5568342016
 20
77.0453718832
 30
0.0
 10
53.3815678564
 20
77.2618443324
 30
0.0
 10
53.2773898348
 20
77.414101055
 30
0.0
  0
SPLINE
  5
703
100
AcDbEntity
  8
0
100
AcDbSpline
 62
7
  6
CONTINUOUS
 70
0
 71
3
 72
52
 73
48
 74
0
 42
0.0000001
 43
0.0000001
 44
0.0000000001
 40
0.0
 40
0.0
 40
0.0
 40
0.0
 40
0.0668159197
 40
0.1002046798
 40
0.1335681676
 40
0.1668942367
 40
0.2001663752
 40
0.2333615048
 40
0.2664455575
 40
0.2993659592
 40
0.3320372101
 40
0.3643098295
 40
0.3802175702
 40
0.3959014662
 40
0.4112751104
 40
0.426205213
 40
0.4404807241
 40
0.4472785016
 40
0.4537797075
 40
0.45992503
 40
0.4656604734
 40
0.4709615751
 40
0.4758712186
 40
0.4805297041
 40
0.4851525818
 40
0.4899481244
 40
0.4950462994
 40
0.5004923224
 40
0.5062772168
 40
0.5123676444
 40
0.518723799
 40
0.5320815855
 40
0.5461094507
 40
0.5606332966
 40
0.5755338951
 40
0.5907280141
 40
0.6061561524
 40
0.6217747086
 40
0.6375505711
 40
0.669475446
 40
0.7017868791
 40
0.7343875125
 40
0.7672091417
 40
0.8002018438
 40
0.8665461947
 40
0.9332012007
 40
1.0
 40
1.0
 40
1.0
 40
1.0
 10
68.1328125
 20
74.8401119054
 30
0.0
 10
68.4115523684
 20
74.8401119054
 30
0.0
 10
68.8295908353
 20
74.8434759562
 30
0.0
 10
69.3867040877
 20
74.8542241194
 30
0.0
 10
69.8040681272
 20
74.8650992035
 30
0.0
 10
70.2208750936
 20
74.8783556697
 30
0.0
 10
70.6369183117
 20
74.8933810858
 30
0.0
 10
71.0519162384
 20
74.9093256774
 30
0.0
 10
71.4654552919
 20
74.9250142915
 30
0.0
 10
71.8768793883
 20
74.9388073087
 30
0.0
 10
72.2850425907
 20
74.9483286759
 30
0.0
 10
72.622378413
 20
74.9498028806
 30
0.0
 10
72.8887609222
 20
74.9440732574
 30
0.0
 10
73.0845126887
 20
74.9352541573
 30
0.0
 10
73.2758417624
 20
74.9204775807
 30
0.0
 10
73.4604971038
 20
74.8977874922
 30
0.0
 10
73.6082549738
 20
74.8697032847
 30
0.0
 10
73.7192881804
 20
74.8393835551
 30
0.0
 10
73.7959968889
 20
74.8127655626
 30
0.0
 10
73.8660760266
 20
74.7813136721
 30
0.0
 10
73.9277843226
 20
74.7444244911
 30
0.0
 10
73.9791267931
 20
74.7015619226
 30
0.0
 10
74.0178917545
 20
74.6524145906
 30
0.0
 10
74.0418432671
 20
74.5974739619
 30
0.0
 10
74.0498040586
 20
74.5385743065
 30
0.0
 10
74.0426803531
 20
74.4779104787
 30
0.0
 10
74.0225309104
 20
74.4168252063
 30
0.0
 10
73.9914061308
 20
74.3560027509
 30
0.0
 10
73.9510910346
 20
74.2958817251
 30
0.0
 10
73.9031068091
 20
74.2367647373
 30
0.0
 10
73.829345753
 20
74.1582591346
 30
0.0
 10
73.7240922325
 20
74.0644035223
 30
0.0
 10
73.5845324052
 20
73.9588886103
 30
0.0
 10
73.4333854789
 20
73.8586444604
 30
0.0
 10
73.2733173731
 20
73.7635231654
 30
0.0
 10
73.1061523262
 20
73.6733046067
 30
0.0
 10
72.9332092676
 20
73.5877660871
 30
0.0
 10
72.7554600863
 20
73.5067012227
 30
0.0
 10
72.5120861742
 20
73.4039351333
 30
0.0
 10
72.1996330834
 20
73.2860972632
 30
0.0
 10
71.8155237781
 20
73.160585783
 30
0.0
 10
71.4230683194
 20
73.0496852943
 30
0.0
 10
71.0239972077
 20
72.9528342546
 30
0.0
 10
70.4838933904
 20
72.841669819
 30
0.0
 10
69.7989558398
 20
72.7361746514
 30
0.0
 10
68.9683679659
 20
72.6609484162
 30
0.0
 10
68.4114809461
 20
72.6443018817
 30
0.0
 10
68.1328125
 20
72.6443018817
 30
0.0
  0
SPLINE
  5
704
100
AcDbEntity
  8
0
100
AcDbSpline
 62
7
  6
CONTINUOUS
 70
0
 71
3
 72
52
 73
48
 74
0
 42
0.0000001
 43
0.0000001
 44
0.0000000001
 40
0.0
 40
0.0
 40
0.0
 40
0.0
 40
0.0668159197
 40
0.1002046798
 40
0.1335681676
 40
0.1668942367
 40
0.2001663752
 40
0.2333615048
 40
0.2664455575
 40
0.2993659592
 40
0.3320372101
 40
0.3643098295
 40
0.3802175702
 40
0.3959014662
 40
0.4112751104
 40
0.426205213
 40
0.4404807241
 40
0.4472785016
 40
0.4537797075
 40
0.45992503
 40
0.4656604734
 40
0.4709615751
 40
0.4758712186
 40
0.4805297041
 40
0.4851525818
 40
0.4899481244
 40
0.4950462994
 40
0.5004923224
 40
0.5062772168
 40
0.5123676444
 40
0.518723799
 40
0.5320815855
 40
0.5461094507
 40
0.5606332966
 40
0.5755338951
 40
0.5907280141
 40
0.6061561524
 40
0.6217747086
 40
0.6375505711
 40
0.669475446
 40
0.7017868791
 40
0.7343875125
 40
0.7672091417
 40
0.8002018438
 40
0.8665461947
 40
0.9332012007
 40
1.0
 40
1.0
 40
1.0
 40
1.0
 10
68.1328125
 20
74.8401119054
 30
0.0
 10
67.8540726316
 20
74.8401119054
 30
0.0
 10
67.4360341647
 20
74.8434759562
 30
0.0
 10
66.8789209123
 20
74.8542241194
 30
0.0
 10
66.4615568728
 20
74.8650992035
 30
0.0
 10
66.0447499064
 20
74.8783556697
 30
0.0
 10
65.6287066883
 20
74.8933810858
 30
0.0
 10
65.2137087616
 20
74.9093256774
 30
0.0
 10
64.8001697081
 20
74.9250142915
 30
0.0
 10
64.3887456117
 20
74.9388073087
 30
0.0
 10
63.9805824093
 20
74.9483286759
 30
0.0
 10
63.643246587
 20
74.9498028806
 30
0.0
 10
63.3768640778
 20
74.9440732574
 30
0.0
 10
63.1811123113
 20
74.9352541573
 30
0.0
 10
62.9897832376
 20
74.9204775807
 30
0.0
 10
62.8051278962
 20
74.8977874922
 30
0.0
 10
62.6573700262
 20
74.8697032847
 30
0.0
 10
62.5463368196
 20
74.8393835551
 30
0.0
 10
62.4696281111
 20
74.8127655626
 30
0.0
 10
62.3995489734
 20
74.7813136721
 30
0.0
 10
62.3378406774
 20
74.7444244911
 30
0.0
 10
62.2864982069
 20
74.7015619226
 30
0.0
 10
62.2477332455
 20
74.6524145906
 30
0.0
 10
62.2237817329
 20
74.5974739619
 30
0.0
 10
62.2158209414
 20
74.5385743065
 30
0.0
 10
62.2229446469
 20
74.4779104787
 30
0.0
 10
62.2430940896
 20
74.4168252063
 30
0.0
 10
62.2742188692
 20
74.3560027509
 30
0.0
 10
62.3145339654
 20
74.2958817251
 30
0.0
 10
62.3625181909
 20
74.2367647373
 30
0.0
 10
62.436279247
 20
74.1582591346
 30
0.0
 10
62.5415327675
 20
74.0644035223
 30
0.0
 10
62.6810925948
 20
73.9588886103
 30
0.0
 10
62.8322395211
 20
73.8586444604
 30
0.0
 10
62.9923076269
 20
73.7635231654
 30
0.0
 10
63.1594726738
 20
73.6733046067
 30
0.0
 10
63.3324157324
 20
73.5877660871
 30
0.0
 10
63.5101649137
 20
73.5067012227
 30
0.0
 10
63.7535388258
 20
73.4039351333
 30
0.0
 10
64.0659919166
 20
73.2860972632
 30
0.0
 10
64.4501012219
 20
73.160585783
 30
0.0
 10
64.8425566806
 20
73.0496852943
 30
0.0
 10
65.2416277923
 20
72.9528342546
 30
0.0
 10
65.7817316096
 20
72.841669819
 30
0.0
 10
66.4666691602
 20
72.7361746514
 30
0.0
 10
67.2972570341
 20
72.6609484162
 30
0.0
 10
67.8541440539
 20
72.6443018817
 30
0.0
 10
68.1328125
 20
72.6443018817
 30
0.0
  0
SPLINE
  5
705
100
AcDbEntity
  8
0
100
AcDbSpline
 62
7
  6
CONTINUOUS
 70
0
 71
3
 72
17
 73
13
 74
0
 42
0.0000001
 43
0.0000001
 44
0.0000000001
 40
0.0
 40
0.0
 40
0.0
 40
0.0
 40
0.0407013099
 40
0.0825456487
 40
0.1265459525
 40
0.1735003785
 40
0.2780864128
 40
0.3984483421
 40
0.5338297987
 40
0.6817382213
 40
0.8385599523
 40
1.0
 40
1.0
 40
1.0
 40
1.0
 10
45.8209561365
 20
185.9939752283
 30
0.0
 10
45.8376992871
 20
185.9939752283
 30
0.0
 10
45.8717450379
 20
185.9973662488
 30
0.0
 10
45.9218658204
 20
186.0124489942
 30
0.0
 10
45.9708190519
 20
186.0372765891
 30
0.0
 10
46.0362056064
 20
186.084599404
 30
0.0
 10
46.1119958206
 20
186.1684603533
 30
0.0
 10
46.1879689595
 20
186.2965019549
 30
0.0
 10
46.2501194534
 20
186.4510657844
 30
0.0
 10
46.2962166891
 20
186.6265608935
 30
0.0
 10
46.3245989853
 20
186.8165475095
 30
0.0
 10
46.3309561365
 20
186.94756422
 30
0.0
 10
46.3309561365
 20
187.0139752283
 30
0.0
  0
SPLINE
  5
706
100
AcDbEntity
  8
0
100
AcDbSpline
 62
7
  6
CONTINUOUS
 70
0
 71
3
 72
17
 73
13
 74
0
 42
0.0000001
 43
0.0000001
 44
0.0000000001
 40
0.0
 40
0.0
 40
0.0
 40
0.0
 40
0.1614400477
 40
0.3182617787
 40
0.4661702013
 40
0.6015516579
 40
0.7219135872
 40
0.8264996215
 40
0.8734540475
 40
0.9174543513
 40
0.9592986901
 40
1.0
 40
1.0
 40
1.0
 40
1.0
 10
46.3309561365
 20
187.0139752283
 30
0.0
 10
46.3309561365
 20
187.0803862367
 30
0.0
 10
46.3245989853
 20
187.2114029471
 30
0.0
 10
46.2962166891
 20
187.4013895631
 30
0.0
 10
46.2501194534
 20
187.5768846723
 30
0.0
 10
46.1879689595
 20
187.7314485017
 30
0.0
 10
46.1119958206
 20
187.8594901034
 30
0.0
 10
46.0362056064
 20
187.9433510526
 30
0.0
 10
45.9708190519
 20
187.9906738676
 30
0.0
 10
45.9218658204
 20
188.0155014625
 30
0.0
 10
45.8717450379
 20
188.0305842078
 30
0.0
 10
45.8376992871
 20
188.0339752283
 30
0.0
 10
45.8209561365
 20
188.0339752283
 30
0.0
  0
SPLINE
  5
707
100
AcDbEntity
  8
0
100
AcDbSpline
 62
7
  6
CONTINUOUS
 70
0
 71
3
 72
14
 73
10
 74
0
 42
0.0000001
 43
0.0000001
 44
0.0000000001
 40
0.0
 40
0.0
 40
0.0
 40
0.0
 40
0.0954723167
 40
0.1950649672
 40
0.302206765
 40
0.4192628416
 40
0.5475371879
 40
0.6874335482
 40
1.0
 40
1.0
 40
1.0
 40
1.0
 10
43.7116235455
 20
184.0339752283
 30
0.0
 10
43.7264237606
 20
184.0339752283
 30
0.0
 10
43.7567818594
 20
184.0377867909
 30
0.0
 10
43.8009180375
 20
184.0545828109
 30
0.0
 10
43.8433625809
 20
184.0819620015
 30
0.0
 10
43.8835436918
 20
184.1193288937
 30
0.0
 10
43.9210052224
 20
184.1660675634
 30
0.0
 10
43.9684182314
 20
184.242785974
 30
0.0
 10
43.9956027826
 20
184.3080176364
 30
0.0
 10
44.0109561365
 20
184.3539752283
 30
0.0
  0
SPLINE
  5
708
100
AcDbEntity
  8
0
100
AcDbSpline
 62
7
  6
CONTINUOUS
 70
0
 71
3
 72
14
 73
10
 74
0
 42
0.0000001
 43
0.0000001
 44
0.0000000001
 40
0.0
 40
0.0
 40
0.0
 40
0.0
 40
0.3181912009
 40
0.4662564
 40
0.6017819586
 40
0.7222713925
 40
0.8269687405
 40
0.9177393562
 40
1.0
 40
1.0
 40
1.0
 40
1.0
 10
43.5509561365
 20
184.7939752283
 30
0.0
 10
43.5509561365
 20
184.7683371325
 30
0.0
 10
43.5544727676
 20
184.7305835533
 30
0.0
 10
43.5668053129
 20
184.6836032324
 30
0.0
 10
43.5789905806
 20
184.6532960448
 30
0.0
 10
43.5938976765
 20
184.6281802194
 30
0.0
 10
43.6111152999
 20
184.6091250132
 30
0.0
 10
43.6302789462
 20
184.5969030498
 30
0.0
 10
43.6443280265
 20
184.5939752283
 30
0.0
 10
43.6509561365
 20
184.5939752283
 30
0.0
  0
SPLINE
  5
709
100
AcDbEntity
  8
0
100
AcDbSpline
 62
7
  6
CONTINUOUS
 70
0
 71
3
 72
16
 73
12
 74
0
 42
0.0000001
 43
0.0000001
 44
0.0000000001
 40
0.0
 40
0.0
 40
0.0
 40
0.0
 40
0.040711719
 40
0.0825691898
 40
0.1732700703
 40
0.2778851012
 40
0.3982805045
 40
0.5336998152
 40
0.6816493638
 40
0.8385136488
 40
1.0
 40
1.0
 40
1.0
 40
1.0
 10
44.9709561365
 20
185.3139752283
 30
0.0
 10
44.964390347
 20
185.3139752283
 30
0.0
 10
44.9510387675
 20
185.312644057
 30
0.0
 10
44.9241353469
 20
185.3045554943
 30
0.0
 10
44.8912325844
 20
185.2836800048
 30
0.0
 10
44.8568530574
 20
185.2455643021
 30
0.0
 10
44.8270197608
 20
185.1953326215
 30
0.0
 10
44.8026598337
 20
185.1347255034
 30
0.0
 10
44.784578689
 20
185.065902182
 30
0.0
 10
44.7734493653
 20
184.9913982237
 30
0.0
 10
44.7709561365
 20
184.9400189674
 30
0.0
 10
44.7709561365
 20
184.9139752283
 30
0.0
  0
SPLINE
  5
70A
100
AcDbEntity
  8
0
100
AcDbSpline
 62
7
  6
CONTINUOUS
 70
0
 71
3
 72
17
 73
13
 74
0
 42
0.0000001
 43
0.0000001
 44
0.0000000001
 40
0.0
 40
0.0
 40
0.0
 40
0.0
 40
0.1614558821
 40
0.3182926529
 40
0.4662154144
 40
0.6016100086
 40
0.7219836027
 40
0.7762919106
 40
0.8267616009
 40
0.9174463604
 40
0.9592947484
 40
1.0
 40
1.0
 40
1.0
 40
1.0
 10
45.5709561365
 20
185.0739752283
 30
0.0
 10
45.5709561365
 20
185.1260623588
 30
0.0
 10
45.565969623
 20
185.2288215559
 30
0.0
 10
45.5437113507
 20
185.3778264968
 30
0.0
 10
45.5075487574
 20
185.5154837286
 30
0.0
 10
45.4588291425
 20
185.6366645366
 30
0.0
 10
45.4074877794
 20
185.7231986757
 30
0.0
 10
45.3610751337
 20
185.7792879095
 30
0.0
 10
45.3154426143
 20
185.8228986549
 30
0.0
 10
45.2645890401
 20
185.8551377355
 30
0.0
 10
45.2107926654
 20
185.8713128449
 30
0.0
 10
45.1840880195
 20
185.8739752283
 30
0.0
 10
45.1709561365
 20
185.8739752283
 30
0.0
  0
SPLINE
  5
70B
100
AcDbEntity
  8
0
100
AcDbSpline
 62
7
  6
CONTINUOUS
 70
0
 71
3
 72
23
 73
19
 74
0
 42
0.0000001
 43
0.0000001
 44
0.0000000001
 40
0.0
 40
0.0
 40
0.0
 40
0.0
 40
0.1900623231
 40
0.3699517678
 40
0.5353955027
 40
0.6114005341
 40
0.6822198975
 40
0.7473153096
 40
0.8061399118
 40
0.8581450755
 40
0.9027948238
 40
0.9395908864
 40
0.9549105523
 40
0.9681216431
 40
0.9792003994
 40
0.9881489685
 40
0.995022179
 40
1.0
 40
1.0
 40
1.0
 40
1.0
 10
43.2328125
 20
197.898333304
 30
0.0
 10
43.4490111943
 20
197.9148333068
 30
0.0
 10
43.8689637943
 20
197.959942714
 30
0.0
 10
44.4716127858
 20
198.0612410572
 30
0.0
 10
44.940731706
 20
198.1671777506
 30
0.0
 10
45.2848046487
 20
198.2596221068
 30
0.0
 10
45.5166161167
 20
198.3283699653
 30
0.0
 10
45.7279336053
 20
198.3970177153
 30
0.0
 10
45.9171224957
 20
198.4640815023
 30
0.0
 10
46.0825752392
 20
198.5280931367
 30
0.0
 10
46.2227102446
 20
198.587660563
 30
0.0
 10
46.3225289698
 20
198.6349338804
 30
0.0
 10
46.3883231815
 20
198.669964696
 30
0.0
 10
46.4273669305
 20
198.6927488421
 30
0.0
 10
46.459092152
 20
198.7135433879
 30
0.0
 10
46.4834709157
 20
198.7322969383
 30
0.0
 10
46.5004817995
 20
198.74885926
 30
0.0
 10
46.5081987567
 20
198.7603148539
 30
0.0
 10
46.5101410245
 20
198.7656511909
 30
0.0
  0
SPLINE
  5
70C
100
AcDbEntity
  8
0
100
AcDbSpline
 62
7
  6
CONTINUOUS
 70
0
 71
3
 72
10
 73
6
 74
0
 42
0.0000001
 43
0.0000001
 44
0.0000000001
 40
0.0
 40
0.0
 40
0.0
 40
0.0
 40
0.2483100878
 40
0.4995074415
 40
1.0
 40
1.0
 40
1.0
 40
1.0
 10
42.4328125
 20
197.6089002468
 30
0.0
 10
42.4901904183
 20
197.6510314228
 30
0.0
 10
42.6123745396
 20
197.7269884277
 30
0.0
 10
42.8755764912
 20
197.8421311903
 30
0.0
 10
43.0897490133
 20
197.8874148851
 30
0.0
 10
43.2328125
 20
197.898333304
 30
0.0
  0
SPLINE
  5
70D
100
AcDbEntity
  8
0
100
AcDbSpline
 62
7
  6
CONTINUOUS
 70
0
 71
3
 72
11
 73
7
 74
0
 42
0.0000001
 43
0.0000001
 44
0.0000000001
 40
0.0
 40
0.0
 40
0.0
 40
0.0
 40
0.246499059
 40
0.4945984509
 40
0.7455500806
 40
1.0
 40
1.0
 40
1.0
 40
1.0
 10
41.9328125
 20
196.645087442
 30
0.0
 10
41.9328125
 20
196.7374617916
 30
0.0
 10
41.9553909022
 20
196.9235707775
 30
0.0
 10
42.0551024808
 20
197.187301577
 30
0.0
 10
42.2151991141
 20
197.4229087137
 30
0.0
 10
42.3559531735
 20
197.5524643579
 30
0.0
 10
42.4328125
 20
197.6089002468
 30
0.0
  0
SPLINE
  5
70E
100
AcDbEntity
  8
0
100
AcDbSpline
 62
7
  6
CONTINUOUS
 70
0
 71
3
 72
23
 73
19
 74
0
 42
0.0000001
 43
0.0000001
 44
0.0000000001
 40
0.0
 40
0.0
 40
0.0
 40
0.0
 40
0.1900623231
 40
0.3699517678
 40
0.5353955027
 40
0.6114005341
 40
0.6822198975
 40
0.7473153096
 40
0.8061399118
 40
0.8581450755
 40
0.9027948238
 40
0.9395908864
 40
0.9549105523
 40
0.9681216431
 40
0.9792003994
 40
0.9881489685
 40
0.995022179
 40
1.0
 40
1.0
 40
1.0
 40
1.0
 10
93.0328125
 20
197.898333304
 30
0.0
 10
92.8166138057
 20
197.9148333068
 30
0.0
 10
92.3966612057
 20
197.959942714
 30
0.0
 10
91.7940122142
 20
198.0612410572
 30
0.0
 10
91.324893294
 20
198.1671777506
 30
0.0
 10
90.9808203513
 20
198.2596221068
 30
0.0
 10
90.7490088833
 20
198.3283699653
 30
0.0
 10
90.5376913947
 20
198.3970177153
 30
0.0
 10
90.3485025043
 20
198.4640815023
 30
0.0
 10
90.1830497608
 20
198.5280931367
 30
0.0
 10
90.0429147554
 20
198.587660563
 30
0.0
 10
89.9430960302
 20
198.6349338804
 30
0.0
 10
89.8773018185
 20
198.669964696
 30
0.0
 10
89.8382580695
 20
198.6927488421
 30
0.0
 10
89.806532848
 20
198.7135433879
 30
0.0
 10
89.7821540843
 20
198.7322969383
 30
0.0
 10
89.7651432005
 20
198.74885926
 30
0.0
 10
89.7574262433
 20
198.7603148539
 30
0.0
 10
89.7554839755
 20
198.7656511909
 30
0.0
  0
SPLINE
  5
70F
100
AcDbEntity
  8
0
100
AcDbSpline
 62
7
  6
CONTINUOUS
 70
0
 71
3
 72
10
 73
6
 74
0
 42
0.0000001
 43
0.0000001
 44
0.0000000001
 40
0.0
 40
0.0
 40
0.0
 40
0.0
 40
0.2483100878
 40
0.4995074415
 40
1.0
 40
1.0
 40
1.0
 40
1.0
 10
93.8328125
 20
197.6089002468
 30
0.0
 10
93.7754345817
 20
197.6510314228
 30
0.0
 10
93.6532504604
 20
197.7269884277
 30
0.0
 10
93.3900485088
 20
197.8421311903
 30
0.0
 10
93.1758759867
 20
197.8874148851
 30
0.0
 10
93.0328125
 20
197.898333304
 30
0.0
  0
SPLINE
  5
710
100
AcDbEntity
  8
0
100
AcDbSpline
 62
7
  6
CONTINUOUS
 70
0
 71
3
 72
11
 73
7
 74
0
 42
0.0000001
 43
0.0000001
 44
0.0000000001
 40
0.0
 40
0.0
 40
0.0
 40
0.0
 40
0.246499059
 40
0.4945984509
 40
0.7455500806
 40
1.0
 40
1.0
 40
1.0
 40
1.0
 10
94.3328125
 20
196.645087442
 30
0.0
 10
94.3328125
 20
196.7374617916
 30
0.0
 10
94.3102340978
 20
196.9235707775
 30
0.0
 10
94.2105225192
 20
197.187301577
 30
0.0
 10
94.0504258859
 20
197.4229087137
 30
0.0
 10
93.9096718265
 20
197.5524643579
 30
0.0
 10
93.8328125
 20
197.6089002468
 30
0.0
  0
SPLINE
  5
711
100
AcDbEntity
  8
0
100
AcDbSpline
 62
7
  6
CONTINUOUS
 70
0
 71
3
 72
17
 73
13
 74
0
 42
0.0000001
 43
0.0000001
 44
0.0000000001
 40
0.0
 40
0.0
 40
0.0
 40
0.0
 40
0.1614558821
 40
0.3182926529
 40
0.4662154144
 40
0.6016100086
 40
0.7219836027
 40
0.7762919106
 40
0.8267616009
 40
0.9174463604
 40
0.9592947484
 40
1.0
 40
1.0
 40
1.0
 40
1.0
 10
43.2109561365
 20
184.8339752283
 30
0.0
 10
43.2109561365
 20
184.7818880978
 30
0.0
 10
43.2159426499
 20
184.6791289007
 30
0.0
 10
43.2382009222
 20
184.5301239599
 30
0.0
 10
43.2743635155
 20
184.3924667281
 30
0.0
 10
43.3230831305
 20
184.27128592
 30
0.0
 10
43.3744244936
 20
184.1847517809
 30
0.0
 10
43.4208371393
 20
184.1286625471
 30
0.0
 10
43.4664696587
 20
184.0850518018
 30
0.0
 10
43.5173232328
 20
184.0528127211
 30
0.0
 10
43.5711196076
 20
184.0366376118
 30
0.0
 10
43.5978242535
 20
184.0339752283
 30
0.0
 10
43.6109561365
 20
184.0339752283
 30
0.0
  0
SPLINE
  5
712
100
AcDbEntity
  8
0
100
AcDbSpline
 62
7
  6
CONTINUOUS
 70
0
 71
3
 72
47
 73
43
 74
0
 42
0.0000001
 43
0.0000001
 44
0.0000000001
 40
0.0
 40
0.0
 40
0.0
 40
0.0
 40
0.0647492979
 40
0.129483322
 40
0.161843648
 40
0.1941993433
 40
0.2265524792
 40
0.2589064061
 40
0.2912653392
 40
0.3236327271
 40
0.3560053654
 40
0.3721899089
 40
0.3883624697
 40
0.4045066377
 40
0.4205902326
 40
0.4365497038
 40
0.4522619126
 40
0.4599690134
 40
0.4675273
 40
0.4748997776
 40
0.4820601214
 40
0.4890072562
 40
0.4957733173
 40
0.5024159842
 40
0.5089991508
 40
0.5221622949
 40
0.5355414709
 40
0.5492010721
 40
0.5631346435
 40
0.5773159164
 40
0.5917164503
 40
0.6063104489
 40
0.6210758416
 40
0.6510449162
 40
0.6815106928
 40
0.7123841671
 40
0.7435958243
 40
0.7750891255
 40
0.8068165638
 40
0.8708066249
 40
0.935284799
 40
1.0
 40
1.0
 40
1.0
 40
1.0
 10
68.1328125
 20
197.9891171512
 30
0.0
 10
67.8540505712
 20
197.9891171512
 30
0.0
 10
67.2965609583
 20
197.9809692437
 30
0.0
 10
66.6003617453
 20
197.9495019994
 30
0.0
 10
66.0444454784
 20
197.9096374405
 30
0.0
 10
65.6282456367
 20
197.8715641999
 30
0.0
 10
65.2130154364
 20
197.824231731
 30
0.0
 10
64.7991254243
 20
197.7661341378
 30
0.0
 10
64.387149928
 20
197.6951888954
 30
0.0
 10
63.9780980526
 20
197.6084310081
 30
0.0
 10
63.6410539314
 20
197.5193225843
 30
0.0
 10
63.3755446975
 20
197.4344736419
 30
0.0
 10
63.1793539862
 20
197.3627721976
 30
0.0
 10
62.987398722
 20
197.2814220164
 30
0.0
 10
62.8017814495
 20
197.1883399551
 30
0.0
 10
62.6261366772
 20
197.0809404064
 30
0.0
 10
62.4920834082
 20
196.9761295047
 30
0.0
 10
62.397899431
 20
196.881458581
 30
0.0
 10
62.3362947156
 20
196.8056826625
 30
0.0
 10
62.2854140124
 20
196.7250111119
 30
0.0
 10
62.247419215
 20
196.6403146071
 30
0.0
 10
62.2240072337
 20
196.5531224792
 30
0.0
 10
62.2158759432
 20
196.465434065
 30
0.0
 10
62.2224624243
 20
196.3792251891
 30
0.0
 10
62.2487689292
 20
196.2682967954
 30
0.0
 10
62.3102910164
 20
196.1379302821
 30
0.0
 10
62.4144607836
 20
195.9987836165
 30
0.0
 10
62.5396011366
 20
195.8738239668
 30
0.0
 10
62.6798598969
 20
195.7608493693
 30
0.0
 10
62.8314457349
 20
195.6579723292
 30
0.0
 10
62.9918084618
 20
195.5637640245
 30
0.0
 10
63.1591689191
 20
195.4770901976
 30
0.0
 10
63.3910774578
 20
195.3698801676
 30
0.0
 10
63.6925314445
 20
195.2510433508
 30
0.0
 10
64.0662309811
 20
195.1285266947
 30
0.0
 10
64.4504937967
 20
195.0226370456
 30
0.0
 10
64.8430001528
 20
194.9313966214
 30
0.0
 10
65.24207227
 20
194.8533518379
 30
0.0
 10
65.7826807942
 20
194.7652142759
 30
0.0
 10
66.4678806708
 20
194.6835486383
 30
0.0
 10
67.2978993854
 20
194.6263477752
 30
0.0
 10
67.8541973671
 20
194.6138017169
 30
0.0
 10
68.1328125
 20
194.6138017169
 30
0.0
  0
SPLINE
  5
713
100
AcDbEntity
  8
0
100
AcDbSpline
 62
7
  6
CONTINUOUS
 70
0
 71
3
 72
47
 73
43
 74
0
 42
0.0000001
 43
0.0000001
 44
0.0000000001
 40
0.0
 40
0.0
 40
0.0
 40
0.0
 40
0.0647492979
 40
0.129483322
 40
0.161843648
 40
0.1941993433
 40
0.2265524792
 40
0.2589064061
 40
0.2912653392
 40
0.3236327271
 40
0.3560053654
 40
0.3721899089
 40
0.3883624697
 40
0.4045066377
 40
0.4205902326
 40
0.4365497038
 40
0.4522619126
 40
0.4599690134
 40
0.4675273
 40
0.4748997776
 40
0.4820601214
 40
0.4890072562
 40
0.4957733173
 40
0.5024159842
 40
0.5089991508
 40
0.5221622949
 40
0.5355414709
 40
0.5492010721
 40
0.5631346435
 40
0.5773159164
 40
0.5917164503
 40
0.6063104489
 40
0.6210758416
 40
0.6510449162
 40
0.6815106928
 40
0.7123841671
 40
0.7435958243
 40
0.7750891255
 40
0.8068165638
 40
0.8708066249
 40
0.935284799
 40
1.0
 40
1.0
 40
1.0
 40
1.0
 10
68.1328125
 20
197.9891171512
 30
0.0
 10
68.4115744288
 20
197.9891171512
 30
0.0
 10
68.9690640417
 20
197.9809692437
 30
0.0
 10
69.6652632547
 20
197.9495019994
 30
0.0
 10
70.2211795216
 20
197.9096374405
 30
0.0
 10
70.6373793633
 20
197.8715641999
 30
0.0
 10
71.0526095636
 20
197.824231731
 30
0.0
 10
71.4664995757
 20
197.7661341378
 30
0.0
 10
71.878475072
 20
197.6951888954
 30
0.0
 10
72.2875269474
 20
197.6084310081
 30
0.0
 10
72.6245710686
 20
197.5193225843
 30
0.0
 10
72.8900803025
 20
197.4344736419
 30
0.0
 10
73.0862710138
 20
197.3627721976
 30
0.0
 10
73.278226278
 20
197.2814220164
 30
0.0
 10
73.4638435505
 20
197.1883399551
 30
0.0
 10
73.6394883228
 20
197.0809404064
 30
0.0
 10
73.7735415918
 20
196.9761295047
 30
0.0
 10
73.867725569
 20
196.881458581
 30
0.0
 10
73.9293302844
 20
196.8056826625
 30
0.0
 10
73.9802109876
 20
196.7250111119
 30
0.0
 10
74.018205785
 20
196.6403146071
 30
0.0
 10
74.0416177663
 20
196.5531224792
 30
0.0
 10
74.0497490568
 20
196.465434065
 30
0.0
 10
74.0431625757
 20
196.3792251891
 30
0.0
 10
74.0168560708
 20
196.2682967954
 30
0.0
 10
73.9553339836
 20
196.1379302821
 30
0.0
 10
73.8511642164
 20
195.9987836165
 30
0.0
 10
73.7260238634
 20
195.8738239668
 30
0.0
 10
73.5857651031
 20
195.7608493693
 30
0.0
 10
73.4341792651
 20
195.6579723292
 30
0.0
 10
73.2738165382
 20
195.5637640245
 30
0.0
 10
73.1064560809
 20
195.4770901976
 30
0.0
 10
72.8745475422
 20
195.3698801676
 30
0.0
 10
72.5730935555
 20
195.2510433508
 30
0.0
 10
72.1993940189
 20
195.1285266947
 30
0.0
 10
71.8151312033
 20
195.0226370456
 30
0.0
 10
71.4226248472
 20
194.9313966214
 30
0.0
 10
71.02355273
 20
194.8533518379
 30
0.0
 10
70.4829442058
 20
194.7652142759
 30
0.0
 10
69.7977443292
 20
194.6835486383
 30
0.0
 10
68.9677256146
 20
194.6263477752
 30
0.0
 10
68.4114276329
 20
194.6138017169
 30
0.0
 10
68.1328125
 20
194.6138017169
 30
0.0
  0
SPLINE
  5
714
100
AcDbEntity
  8
2_FEATURE
100
AcDbSpline
 62
7
  6
CONTINUOUS
 70
0
 71
3
 72
17
 73
13
 74
0
 42
0.0000001
 43
0.0000001
 44
0.0000000001
 40
0.0
 40
0.0
 40
0.0
 40
0.0
 40
0.2256024406
 40
0.423825125
 40
0.5938371592
 40
0.7349252533
 40
0.8464939143
 40
0.9280712961
 40
0.9574999912
 40
0.9793117472
 40
0.9934827739
 40
1.0
 40
1.0
 40
1.0
 40
1.0
 10
42.3347362886
 20
179.7788353634
 30
0.0
 10
42.3045188984
 20
179.7807550771
 30
0.0
 10
42.2477550652
 20
179.7844196535
 30
0.0
 10
42.1682307784
 20
179.7897010492
 30
0.0
 10
42.1000310992
 20
179.794331145
 30
0.0
 10
42.0434387611
 20
179.7982353787
 30
0.0
 10
41.998688802
 20
179.8013417405
 30
0.0
 10
41.9688883552
 20
179.8034143103
 30
0.0
 10
41.9511036321
 20
179.8046115623
 30
0.0
 10
41.9423436867
 20
179.8052052118
 30
0.0
 10
41.9366507479
 20
179.8055275003
 30
0.0
 10
41.933877932
 20
179.8057153141
 30
0.0
 10
41.9330032491
 20
179.8057153788
 30
0.0
  0
SPLINE
  5
715
100
AcDbEntity
  8
0
100
AcDbSpline
 62
7
  6
CONTINUOUS
 70
0
 71
3
 72
9
 73
5
 74
0
 42
0.0000001
 43
0.0000001
 44
0.0000000001
 40
0.0
 40
0.0
 40
0.0
 40
0.0
 40
0.2485773539
 40
1.0
 40
1.0
 40
1.0
 40
1.0
 10
56.6841116286
 20
198.7855489171
 30
0.0
 10
56.6321499973
 20
198.7885217844
 30
0.0
 10
56.4230696058
 20
198.7995692134
 30
0.0
 10
56.2136753865
 20
198.8057153965
 30
0.0
 10
56.0563440897
 20
198.8057153965
 30
0.0
  0
SPLINE
  5
716
100
AcDbEntity
  8
0
100
AcDbSpline
 62
7
  6
CONTINUOUS
 70
0
 71
3
 72
16
 73
12
 74
0
 42
0.0000001
 43
0.0000001
 44
0.0000000001
 40
0.0
 40
0.0
 40
0.0
 40
0.0
 40
0.040711719
 40
0.0825691898
 40
0.1732700703
 40
0.2778851012
 40
0.3982805045
 40
0.5336998152
 40
0.6816493638
 40
0.8385136488
 40
1.0
 40
1.0
 40
1.0
 40
1.0
 10
43.8109561365
 20
184.5939752283
 30
0.0
 10
43.817521926
 20
184.5939752283
 30
0.0
 10
43.8308735054
 20
184.5953063996
 30
0.0
 10
43.8577769261
 20
184.6033949623
 30
0.0
 10
43.8906796885
 20
184.6242704518
 30
0.0
 10
43.9250592156
 20
184.6623861545
 30
0.0
 10
43.9548925122
 20
184.7126178352
 30
0.0
 10
43.9792524393
 20
184.7732249532
 30
0.0
 10
43.997333584
 20
184.8420482746
 30
0.0
 10
44.0084629077
 20
184.916552233
 30
0.0
 10
44.0109561365
 20
184.9679314892
 30
0.0
 10
44.0109561365
 20
184.9939752283
 30
0.0
  0
SPLINE
  5
717
100
AcDbEntity
  8
0
100
AcDbSpline
 62
7
  6
CONTINUOUS
 70
0
 71
3
 72
16
 73
12
 74
0
 42
0.0000001
 43
0.0000001
 44
0.0000000001
 40
0.0
 40
0.0
 40
0.0
 40
0.0
 40
0.0850482329
 40
0.1316392273
 40
0.1813735312
 40
0.2908098512
 40
0.4136377035
 40
0.5485524923
 40
0.6932742061
 40
0.8448693639
 40
1.0
 40
1.0
 40
1.0
 40
1.0
 10
45.907611217
 20
188.0191797277
 30
0.0
 10
45.8768910535
 20
188.0085990791
 30
0.0
 10
45.8319664895
 20
187.9839948712
 30
0.0
 10
45.7785453927
 20
187.9397643943
 30
0.0
 10
45.7239551624
 20
187.882966007
 30
0.0
 10
45.6617206161
 20
187.7942653379
 30
0.0
 10
45.599498831
 20
187.6680924007
 30
0.0
 10
45.5490937626
 20
187.5224699072
 30
0.0
 10
45.5119764038
 20
187.3616806173
 30
0.0
 10
45.4892447684
 20
187.1904862626
 30
0.0
 10
45.4841612172
 20
187.0732402069
 30
0.0
 10
45.4841612172
 20
187.0139752283
 30
0.0
  0
SPLINE
  5
718
100
AcDbEntity
  8
0
100
AcDbSpline
 62
7
  6
CONTINUOUS
 70
0
 71
3
 72
14
 73
10
 74
0
 42
0.0000001
 43
0.0000001
 44
0.0000000001
 40
0.0
 40
0.0
 40
0.0
 40
0.0
 40
0.3181912009
 40
0.4662564
 40
0.6017819586
 40
0.7222713925
 40
0.8269687405
 40
0.9177393562
 40
1.0
 40
1.0
 40
1.0
 40
1.0
 10
45.2309561365
 20
185.1139752283
 30
0.0
 10
45.2309561365
 20
185.1396133242
 30
0.0
 10
45.2274395054
 20
185.1773669034
 30
0.0
 10
45.2151069601
 20
185.2243472243
 30
0.0
 10
45.2029216923
 20
185.2546544119
 30
0.0
 10
45.1880145964
 20
185.2797702373
 30
0.0
 10
45.170796973
 20
185.2988254434
 30
0.0
 10
45.1516333268
 20
185.3110474069
 30
0.0
 10
45.1375842464
 20
185.3139752283
 30
0.0
 10
45.1309561365
 20
185.3139752283
 30
0.0
  0
SPLINE
  5
719
100
AcDbEntity
  8
2_FEATURE
100
AcDbSpline
 62
7
  6
CONTINUOUS
 70
0
 71
3
 72
11
 73
7
 74
0
 42
0.0000001
 43
0.0000001
 44
0.0000000001
 40
0.0
 40
0.0
 40
0.0
 40
0.0
 40
0.2164242144
 40
0.4485642873
 40
0.7051219109
 40
1.0
 40
1.0
 40
1.0
 40
1.0
 10
45.554533095
 20
179.1807801193
 30
0.0
 10
45.6419983248
 20
179.1536823353
 30
0.0
 10
45.8181313833
 20
179.0795292559
 30
0.0
 10
46.0680638265
 20
178.9135604216
 30
0.0
 10
46.3057700984
 20
178.6795987524
 30
0.0
 10
46.4355643008
 20
178.4828209187
 30
0.0
 10
46.4918519769
 20
178.3714806075
 30
0.0
  0
SPLINE
  5
71A
100
AcDbEntity
  8
2_FEATURE
100
AcDbSpline
 62
7
  6
CONTINUOUS
 70
0
 71
3
 72
10
 73
6
 74
0
 42
0.0000001
 43
0.0000001
 44
0.0000000001
 40
0.0
 40
0.0
 40
0.0
 40
0.0
 40
0.240055317
 40
0.4881293859
 40
1.0
 40
1.0
 40
1.0
 40
1.0
 10
46.4918519769
 20
178.3714806075
 30
0.0
 10
46.5243725015
 20
178.3071533464
 30
0.0
 10
46.586630272
 20
178.1743787912
 30
0.0
 10
46.7021519115
 20
177.8971615602
 30
0.0
 10
46.7798413531
 20
177.6824937379
 30
0.0
 10
46.8304680092
 20
177.5373738972
 30
0.0
  0
SPLINE
  5
71B
100
AcDbEntity
  8
0
100
AcDbSpline
 62
7
  6
CONTINUOUS
 70
0
 71
3
 72
11
 73
7
 74
0
 42
0.0000001
 43
0.0000001
 44
0.0000000001
 40
0.0
 40
0.0
 40
0.0
 40
0.0
 40
0.2164242144
 40
0.4485642873
 40
0.7051219109
 40
1.0
 40
1.0
 40
1.0
 40
1.0
 10
90.711091905
 20
179.1807801193
 30
0.0
 10
90.6236266752
 20
179.1536823353
 30
0.0
 10
90.4474936167
 20
179.0795292559
 30
0.0
 10
90.1975611735
 20
178.9135604216
 30
0.0
 10
89.9598549016
 20
178.6795987524
 30
0.0
 10
89.8300606992
 20
178.4828209187
 30
0.0
 10
89.7737730231
 20
178.3714806075
 30
0.0
  0
SPLINE
  5
71C
100
AcDbEntity
  8
0
100
AcDbSpline
 62
7
  6
CONTINUOUS
 70
0
 71
3
 72
10
 73
6
 74
0
 42
0.0000001
 43
0.0000001
 44
0.0000000001
 40
0.0
 40
0.0
 40
0.0
 40
0.0
 40
0.240055317
 40
0.4881293859
 40
1.0
 40
1.0
 40
1.0
 40
1.0
 10
89.7737730231
 20
178.3714806075
 30
0.0
 10
89.7412524985
 20
178.3071533464
 30
0.0
 10
89.678994728
 20
178.1743787912
 30
0.0
 10
89.5634730885
 20
177.8971615602
 30
0.0
 10
89.4857836469
 20
177.6824937379
 30
0.0
 10
89.4351569908
 20
177.5373738972
 30
0.0
  0
SPLINE
  5
71D
100
AcDbEntity
  8
0
100
AcDbSpline
 62
7
  6
CONTINUOUS
 70
0
 71
3
 72
14
 73
10
 74
0
 42
0.0000001
 43
0.0000001
 44
0.0000000001
 40
0.0
 40
0.0
 40
0.0
 40
0.0
 40
0.0954723167
 40
0.1950649672
 40
0.302206765
 40
0.4192628416
 40
0.5475371879
 40
0.6874335482
 40
1.0
 40
1.0
 40
1.0
 40
1.0
 10
45.0702887274
 20
185.8739752283
 30
0.0
 10
45.0554885123
 20
185.8739752283
 30
0.0
 10
45.0251304135
 20
185.8701636658
 30
0.0
 10
44.9809942354
 20
185.8533676457
 30
0.0
 10
44.9385496921
 20
185.8259884552
 30
0.0
 10
44.8983685812
 20
185.7886215629
 30
0.0
 10
44.8609070505
 20
185.7418828933
 30
0.0
 10
44.8134940415
 20
185.6651644827
 30
0.0
 10
44.7863094903
 20
185.5999328202
 30
0.0
 10
44.7709561365
 20
185.5539752283
 30
0.0
  0
SPLINE
  5
71E
100
AcDbEntity
  8
0
100
AcDbSpline
 62
7
  6
CONTINUOUS
 70
0
 71
3
 72
17
 73
13
 74
0
 42
0.0000001
 43
0.0000001
 44
0.0000000001
 40
0.0
 40
0.0
 40
0.0
 40
0.0
 40
0.0407013099
 40
0.0825456487
 40
0.1265459525
 40
0.1735003785
 40
0.2780864128
 40
0.3984483421
 40
0.5338297987
 40
0.6817382213
 40
0.8385599523
 40
1.0
 40
1.0
 40
1.0
 40
1.0
 10
45.8209561365
 20
188.0339752283
 30
0.0
 10
45.8042129859
 20
188.0339752283
 30
0.0
 10
45.7701672351
 20
188.0305842078
 30
0.0
 10
45.7200464525
 20
188.0155014625
 30
0.0
 10
45.6710932211
 20
187.9906738676
 30
0.0
 10
45.6057066665
 20
187.9433510526
 30
0.0
 10
45.5299164523
 20
187.8594901034
 30
0.0
 10
45.4539433134
 20
187.7314485017
 30
0.0
 10
45.3917928195
 20
187.5768846723
 30
0.0
 10
45.3456955839
 20
187.4013895631
 30
0.0
 10
45.3173132876
 20
187.2114029471
 30
0.0
 10
45.3109561365
 20
187.0803862367
 30
0.0
 10
45.3109561365
 20
187.0139752283
 30
0.0
  0
SPLINE
  5
71F
100
AcDbEntity
  8
0
100
AcDbSpline
 62
7
  6
CONTINUOUS
 70
0
 71
3
 72
17
 73
13
 74
0
 42
0.0000001
 43
0.0000001
 44
0.0000000001
 40
0.0
 40
0.0
 40
0.0
 40
0.0
 40
0.1614400477
 40
0.3182617787
 40
0.4661702013
 40
0.6015516579
 40
0.7219135872
 40
0.8264996215
 40
0.8734540475
 40
0.9174543513
 40
0.9592986901
 40
1.0
 40
1.0
 40
1.0
 40
1.0
 10
45.3109561365
 20
187.0139752283
 30
0.0
 10
45.3109561365
 20
186.94756422
 30
0.0
 10
45.3173132876
 20
186.8165475095
 30
0.0
 10
45.3456955839
 20
186.6265608935
 30
0.0
 10
45.3917928195
 20
186.4510657844
 30
0.0
 10
45.4539433134
 20
186.2965019549
 30
0.0
 10
45.5299164523
 20
186.1684603533
 30
0.0
 10
45.6057066665
 20
186.084599404
 30
0.0
 10
45.6710932211
 20
186.0372765891
 30
0.0
 10
45.7200464525
 20
186.0124489942
 30
0.0
 10
45.7701672351
 20
185.9973662488
 30
0.0
 10
45.8042129859
 20
185.9939752283
 30
0.0
 10
45.8209561365
 20
185.9939752283
 30
0.0
  0
SPLINE
  5
720
100
AcDbEntity
  8
0
100
AcDbSpline
 62
7
  6
CONTINUOUS
 70
0
 71
3
 72
17
 73
13
 74
0
 42
0.0000001
 43
0.0000001
 44
0.0000000001
 40
0.0
 40
0.0
 40
0.0
 40
0.0
 40
0.2256024406
 40
0.423825125
 40
0.5938371592
 40
0.7349252533
 40
0.8464939143
 40
0.9280712961
 40
0.9574999912
 40
0.9793117472
 40
0.9934827739
 40
1.0
 40
1.0
 40
1.0
 40
1.0
 10
93.9308887114
 20
179.7788353634
 30
0.0
 10
93.9611061016
 20
179.7807550771
 30
0.0
 10
94.0178699348
 20
179.7844196535
 30
0.0
 10
94.0973942216
 20
179.7897010492
 30
0.0
 10
94.1655939008
 20
179.794331145
 30
0.0
 10
94.2221862389
 20
179.7982353787
 30
0.0
 10
94.266936198
 20
179.8013417405
 30
0.0
 10
94.2967366448
 20
179.8034143103
 30
0.0
 10
94.3145213679
 20
179.8046115623
 30
0.0
 10
94.3232813133
 20
179.8052052118
 30
0.0
 10
94.3289742521
 20
179.8055275003
 30
0.0
 10
94.331747068
 20
179.8057153141
 30
0.0
 10
94.3326217509
 20
179.8057153788
 30
0.0
  0
SPLINE
  5
721
100
AcDbEntity
  8
0
100
AcDbSpline
 62
7
  6
CONTINUOUS
 70
0
 71
3
 72
9
 73
5
 74
0
 42
0.0000001
 43
0.0000001
 44
0.0000000001
 40
0.0
 40
0.0
 40
0.0
 40
0.0
 40
0.2485773539
 40
1.0
 40
1.0
 40
1.0
 40
1.0
 10
79.5815133714
 20
198.7855489171
 30
0.0
 10
79.6334750027
 20
198.7885217844
 30
0.0
 10
79.8425553942
 20
198.7995692134
 30
0.0
 10
80.0519496135
 20
198.8057153965
 30
0.0
 10
80.2092809103
 20
198.8057153965
 30
0.0
  0
SPLINE
  5
722
100
AcDbEntity
  8
0
100
AcDbSpline
 62
7
  6
CONTINUOUS
 70
0
 71
3
 72
16
 73
12
 74
0
 42
0.0000001
 43
0.0000001
 44
0.0000000001
 40
0.0
 40
0.0
 40
0.0
 40
0.0
 40
0.1551306361
 40
0.3067257939
 40
0.4514475077
 40
0.5863622965
 40
0.7091901488
 40
0.8186264688
 40
0.8683607727
 40
0.9149517671
 40
1.0
 40
1.0
 40
1.0
 40
1.0
 10
45.4841612172
 20
187.0139752283
 30
0.0
 10
45.4841612172
 20
186.9547102498
 30
0.0
 10
45.4892447684
 20
186.8374641941
 30
0.0
 10
45.5119764038
 20
186.6662698394
 30
0.0
 10
45.5490937626
 20
186.5054805494
 30
0.0
 10
45.599498831
 20
186.3598580559
 30
0.0
 10
45.6617206161
 20
186.2336851187
 30
0.0
 10
45.7239551624
 20
186.1449844496
 30
0.0
 10
45.7785453927
 20
186.0881860624
 30
0.0
 10
45.8319664895
 20
186.0439555855
 30
0.0
 10
45.8768910535
 20
186.0193513775
 30
0.0
 10
45.907611217
 20
186.0087707289
 30
0.0
  0
SPLINE
  5
723
100
AcDbEntity
  8
0
100
AcDbSpline
 62
7
  6
CONTINUOUS
 70
0
 71
3
 72
16
 73
12
 74
0
 42
0.0000001
 43
0.0000001
 44
0.0000000001
 40
0.0
 40
0.0
 40
0.0
 40
0.0
 40
0.1614872879
 40
0.318350692
 40
0.4663002593
 40
0.6017192972
 40
0.7221149502
 40
0.8267299979
 40
0.9174303568
 40
0.9592891824
 40
1.0
 40
1.0
 40
1.0
 40
1.0
 10
44.1841612172
 20
184.9939752283
 30
0.0
 10
44.1841612172
 20
184.9679313396
 30
0.0
 10
44.1816679609
 20
184.916552075
 30
0.0
 10
44.1705386344
 20
184.8420481216
 30
0.0
 10
44.1524576304
 20
184.7732249326
 30
0.0
 10
44.1280973629
 20
184.712617982
 30
0.0
 10
44.0982643923
 20
184.6623861036
 30
0.0
 10
44.0638848236
 20
184.6242705186
 30
0.0
 10
44.0309819904
 20
184.603394802
 30
0.0
 10
44.0040784799
 20
184.5953066139
 30
0.0
 10
43.990726861
 20
184.5939752283
 30
0.0
 10
43.9841612172
 20
184.5939752283
 30
0.0
  0
SPLINE
  5
724
100
AcDbEntity
  8
0
100
AcDbSpline
 62
7
  6
CONTINUOUS
 70
0
 71
3
 72
15
 73
11
 74
0
 42
0.0000001
 43
0.0000001
 44
0.0000000001
 40
0.0
 40
0.0
 40
0.0
 40
0.0
 40
0.1551306721
 40
0.3067276002
 40
0.4514581594
 40
0.5863901199
 40
0.7092443934
 40
0.8187152503
 40
0.9149203606
 40
1.0
 40
1.0
 40
1.0
 40
1.0
 10
43.3841612172
 20
184.8339752283
 30
0.0
 10
43.3841612172
 20
184.7875143868
 30
0.0
 10
43.3881446796
 20
184.6955986015
 30
0.0
 10
43.405957149
 20
184.561387187
 30
0.0
 10
43.4350427962
 20
184.4353228856
 30
0.0
 10
43.4745409091
 20
184.3211473991
 30
0.0
 10
43.5233056228
 20
184.2221765892
 30
0.0
 10
43.5800966381
 20
184.1412141687
 30
0.0
 10
43.6435325592
 20
184.0805875932
 30
0.0
 10
43.6919359749
 20
184.0539962533
 30
0.0
 10
43.716017952
 20
184.0456694613
 30
0.0
  0
SPLINE
  5
725
100
AcDbEntity
  8
0
100
AcDbSpline
 62
7
  6
CONTINUOUS
 70
0
 71
3
 72
12
 73
8
 74
0
 42
0.0000001
 43
0.0000001
 44
0.0000000001
 40
0.0
 40
0.0
 40
0.0
 40
0.0
 40
0.2005560573
 40
0.3122317535
 40
0.4324927122
 40
0.6993805116
 40
1.0
 40
1.0
 40
1.0
 40
1.0
 10
45.1759698776
 20
185.8611966192
 30
0.0
 10
45.1512426486
 20
185.8517531287
 30
0.0
 10
45.1154392456
 20
185.8295783539
 30
0.0
 10
45.0738816347
 20
185.790383331
 30
0.0
 10
45.0315688098
 20
185.7397382072
 30
0.0
 10
44.9847987357
 20
185.6613239946
 30
0.0
 10
44.9567328449
 20
185.5916062071
 30
0.0
 10
44.9441612172
 20
185.5539752283
 30
0.0
  0
SPLINE
  5
726
100
AcDbEntity
  8
0
100
AcDbSpline
 62
7
  6
CONTINUOUS
 70
0
 71
3
 72
14
 73
10
 74
0
 42
0.0000001
 43
0.0000001
 44
0.0000000001
 40
0.0
 40
0.0
 40
0.0
 40
0.0
 40
0.0822612894
 40
0.1730312446
 40
0.2777283118
 40
0.3982184099
 40
0.5337433909
 40
0.6818094776
 40
1.0
 40
1.0
 40
1.0
 40
1.0
 10
45.3041612172
 20
185.3139752283
 30
0.0
 10
45.310789378
 20
185.3139752283
 30
0.0
 10
45.3248385087
 20
185.3110474798
 30
0.0
 10
45.3440018705
 20
185.2988251759
 30
0.0
 10
45.3612199124
 20
185.2797704054
 30
0.0
 10
45.3761264797
 20
185.2546542496
 30
0.0
 10
45.3883122829
 20
185.2243472382
 30
0.0
 10
45.4006442741
 20
185.1773667695
 30
0.0
 10
45.4041612172
 20
185.1396132648
 30
0.0
 10
45.4041612172
 20
185.1139752283
 30
0.0
  0
SPLINE
  5
727
100
AcDbEntity
  8
0
100
AcDbSpline
 62
7
  6
CONTINUOUS
 70
0
 71
3
 72
15
 73
11
 74
0
 42
0.0000001
 43
0.0000001
 44
0.0000000001
 40
0.0
 40
0.0
 40
0.0
 40
0.0
 40
0.1160614309
 40
0.2335535807
 40
0.3536445156
 40
0.4770484873
 40
0.603941021
 40
0.7339734334
 40
0.8663588225
 40
1.0
 40
1.0
 40
1.0
 40
1.0
 10
152.9524601838
 20
120.1227323586
 30
0.0
 10
152.9524601838
 20
120.1805467357
 30
0.0
 10
152.9391137537
 20
120.2973076152
 30
0.0
 10
152.8800645092
 20
120.4647380494
 30
0.0
 10
152.784492747
 20
120.6186619244
 30
0.0
 10
152.6563475282
 20
120.7531040208
 30
0.0
 10
152.5007240714
 20
120.8631145666
 30
0.0
 10
152.3236150358
 20
120.9446703462
 30
0.0
 10
152.1318290306
 20
120.9948162483
 30
0.0
 10
151.9990316655
 20
121.0060782705
 30
0.0
 10
151.9324601838
 20
121.0060782705
 30
0.0
  0
SPLINE
  5
728
100
AcDbEntity
  8
0
100
AcDbSpline
 62
7
  6
CONTINUOUS
 70
0
 71
3
 72
15
 73
11
 74
0
 42
0.0000001
 43
0.0000001
 44
0.0000000001
 40
0.0
 40
0.0
 40
0.0
 40
0.0
 40
0.1336411775
 40
0.2660265666
 40
0.396058979
 40
0.5229515127
 40
0.6463554844
 40
0.7664464193
 40
0.8839385691
 40
1.0
 40
1.0
 40
1.0
 40
1.0
 10
151.9324601838
 20
121.0060782705
 30
0.0
 10
151.865888702
 20
121.0060782705
 30
0.0
 10
151.7330913369
 20
120.9948162483
 30
0.0
 10
151.5413053317
 20
120.9446703462
 30
0.0
 10
151.3641962961
 20
120.8631145666
 30
0.0
 10
151.2085728393
 20
120.7531040208
 30
0.0
 10
151.0804276205
 20
120.6186619244
 30
0.0
 10
150.9848558583
 20
120.4647380494
 30
0.0
 10
150.9258066138
 20
120.2973076152
 30
0.0
 10
150.9124601838
 20
120.1805467357
 30
0.0
 10
150.9124601838
 20
120.1227323586
 30
0.0
  0
SPLINE
  5
729
100
AcDbEntity
  8
0
100
AcDbSpline
 62
7
  6
CONTINUOUS
 70
0
 71
3
 72
15
 73
11
 74
0
 42
0.0000001
 43
0.0000001
 44
0.0000000001
 40
0.0
 40
0.0
 40
0.0
 40
0.0
 40
0.1336413284
 40
0.2660265797
 40
0.3960589844
 40
0.5229515258
 40
0.646355502
 40
0.7664464348
 40
0.8839385777
 40
1.0
 40
1.0
 40
1.0
 40
1.0
 10
149.7524601838
 20
124.6433849664
 30
0.0
 10
149.7002471924
 20
124.6433849664
 30
0.0
 10
149.5960923732
 20
124.634552072
 30
0.0
 10
149.4456719637
 20
124.5952219249
 30
0.0
 10
149.3067629323
 20
124.5312566689
 30
0.0
 10
149.1847052929
 20
124.4449738889
 30
0.0
 10
149.0841992362
 20
124.3395290803
 30
0.0
 10
149.0092410247
 20
124.2188044338
 30
0.0
 10
148.9629279471
 20
124.0874864182
 30
0.0
 10
148.9524601838
 20
123.9959092543
 30
0.0
 10
148.9524601838
 20
123.9505646434
 30
0.0
  0
SPLINE
  5
72A
100
AcDbEntity
  8
0
100
AcDbSpline
 62
7
  6
CONTINUOUS
 70
0
 71
3
 72
15
 73
11
 74
0
 42
0.0000001
 43
0.0000001
 44
0.0000000001
 40
0.0
 40
0.0
 40
0.0
 40
0.0
 40
0.1160622192
 40
0.2335536987
 40
0.3536445018
 40
0.4770484629
 40
0.6039410297
 40
0.7339733104
 40
0.866357758
 40
1.0
 40
1.0
 40
1.0
 40
1.0
 10
149.5124601838
 20
123.6041544819
 30
0.0
 10
149.5124601838
 20
123.5814820238
 30
0.0
 10
149.5176940336
 20
123.5356933977
 30
0.0
 10
149.5408508797
 20
123.4700345141
 30
0.0
 10
149.5783297955
 20
123.4096723025
 30
0.0
 10
149.6285827152
 20
123.3569498192
 30
0.0
 10
149.6896115979
 20
123.3138085544
 30
0.0
 10
149.7590659583
 20
123.2818260863
 30
0.0
 10
149.8342760722
 20
123.2621607332
 30
0.0
 10
149.8863535131
 20
123.2577443203
 30
0.0
 10
149.9124601838
 20
123.2577443203
 30
0.0
  0
SPLINE
  5
72B
100
AcDbEntity
  8
0
100
AcDbSpline
 62
7
  6
CONTINUOUS
 70
0
 71
3
 72
13
 73
9
 74
0
 42
0.0000001
 43
0.0000001
 44
0.0000000001
 40
0.0
 40
0.0
 40
0.0
 40
0.0
 40
0.2655958412
 40
0.5219612711
 40
0.6456213529
 40
0.7659615724
 40
0.8836953317
 40
1.0
 40
1.0
 40
1.0
 40
1.0
 10
150.0324601838
 20
121.1446423351
 30
0.0
 10
150.0583481778
 20
121.1446423351
 30
0.0
 10
150.1096408009
 20
121.1532329379
 30
0.0
 10
150.1656759663
 20
121.1850787842
 30
0.0
 10
150.1995208909
 20
121.2206045252
 30
0.0
 10
150.2182660337
 20
121.2507877459
 30
0.0
 10
150.2298428612
 20
121.2836166128
 30
0.0
 10
150.2324601838
 20
121.3065110389
 30
0.0
 10
150.2324601838
 20
121.3178474159
 30
0.0
  0
SPLINE
  5
72C
100
AcDbEntity
  8
0
100
AcDbSpline
 62
7
  6
CONTINUOUS
 70
0
 71
3
 72
13
 73
9
 74
0
 42
0.0000001
 43
0.0000001
 44
0.0000000001
 40
0.0
 40
0.0
 40
0.0
 40
0.0
 40
0.1200944383
 40
0.2407784658
 40
0.3626074151
 40
0.4860451709
 40
0.7385219631
 40
1.0
 40
1.0
 40
1.0
 40
1.0
 10
150.7924601838
 20
121.4229264507
 30
0.0
 10
150.7924601838
 20
121.4484337632
 30
0.0
 10
150.78881981
 20
121.4996472673
 30
0.0
 10
150.7725406111
 20
121.5751676912
 30
0.0
 10
150.7456900125
 20
121.6483804677
 30
0.0
 10
150.6960515047
 20
121.7420382187
 30
0.0
 10
150.6092175185
 20
121.8479395668
 30
0.0
 10
150.5205292225
 20
121.9135711552
 30
0.0
 10
150.4724601838
 20
121.9413857066
 30
0.0
  0
SPLINE
  5
72D
100
AcDbEntity
  8
2_FEATURE
100
AcDbSpline
 62
7
  6
CONTINUOUS
 70
0
 71
3
 72
35
 73
31
 74
0
 42
0.0000001
 43
0.0000001
 44
0.0000000001
 40
0.0
 40
0.0
 40
0.0
 40
0.0
 40
0.031457183
 40
0.0625117424
 40
0.0931939007
 40
0.1235686867
 40
0.1537321789
 40
0.1838030018
 40
0.2139111864
 40
0.2441864255
 40
0.2747466233
 40
0.3056876903
 40
0.3688699703
 40
0.4011856464
 40
0.4338957852
 40
0.5
 40
0.5661042148
 40
0.5988143536
 40
0.6311300297
 40
0.6943123097
 40
0.7252533767
 40
0.7558135745
 40
0.7860888136
 40
0.8161969982
 40
0.8462678211
 40
0.8764313133
 40
0.9068060993
 40
0.9374882576
 40
0.968542817
 40
1.0
 40
1.0
 40
1.0
 40
1.0
 10
155.4242003519
 20
91.0600758163
 30
0.0
 10
155.4242003519
 20
91.1911583784
 30
0.0
 10
155.4108367877
 20
91.4518652671
 30
0.0
 10
155.349769448
 20
91.8361033484
 30
0.0
 10
155.2484101187
 20
92.2071226356
 30
0.0
 10
155.1079738019
 20
92.5611903917
 30
0.0
 10
154.9301768601
 20
92.8951651464
 30
0.0
 10
154.7171117626
 20
93.2064515305
 30
0.0
 10
154.4711041004
 20
93.4929918955
 30
0.0
 10
154.1946331002
 20
93.753175911
 30
0.0
 10
153.8902044229
 20
93.9857563281
 30
0.0
 10
153.4477951553
 20
94.2594384679
 30
0.0
 10
152.9618322197
 20
94.4716921588
 30
0.0
 10
152.4484477905
 20
94.6211274351
 30
0.0
 10
151.912359207
 20
94.7298334861
 30
0.0
 10
151.2242003519
 20
94.784022446
 30
0.0
 10
150.5360414968
 20
94.7298334861
 30
0.0
 10
149.9999529133
 20
94.6211274351
 30
0.0
 10
149.4865684841
 20
94.4716921588
 30
0.0
 10
149.0006055485
 20
94.2594384679
 30
0.0
 10
148.5581962809
 20
93.9857563281
 30
0.0
 10
148.2537676037
 20
93.753175911
 30
0.0
 10
147.9772966034
 20
93.4929918955
 30
0.0
 10
147.7312889412
 20
93.2064515305
 30
0.0
 10
147.5182238437
 20
92.8951651464
 30
0.0
 10
147.3404269019
 20
92.5611903917
 30
0.0
 10
147.1999905851
 20
92.2071226356
 30
0.0
 10
147.0986312558
 20
91.8361033484
 30
0.0
 10
147.0375639162
 20
91.4518652671
 30
0.0
 10
147.0242003519
 20
91.1911583784
 30
0.0
 10
147.0242003519
 20
91.0600758163
 30
0.0
  0
SPLINE
  5
72E
100
AcDbEntity
  8
2_FEATURE
100
AcDbSpline
 62
7
  6
CONTINUOUS
 70
0
 71
3
 72
33
 73
29
 74
0
 42
0.0000001
 43
0.0000001
 44
0.0000000001
 40
0.0
 40
0.0
 40
0.0
 40
0.0
 40
0.0312246291
 40
0.0619650306
 40
0.0922790435
 40
0.122262392
 40
0.1520420326
 40
0.1817655718
 40
0.2115888644
 40
0.2416639616
 40
0.2721275725
 40
0.303090678
 40
0.3667110312
 40
0.4326231921
 40
0.5
 40
0.5673768079
 40
0.6332889688
 40
0.696909322
 40
0.7278724275
 40
0.7583360384
 40
0.7884111356
 40
0.8182344282
 40
0.8479579674
 40
0.877737608
 40
0.9077209565
 40
0.9380349694
 40
0.9687753709
 40
1.0
 40
1.0
 40
1.0
 40
1.0
 10
147.0242003519
 20
84.1926518609
 30
0.0
 10
147.0242003519
 20
84.0643418995
 30
0.0
 10
147.0377153963
 20
83.8094813573
 30
0.0
 10
147.0993612824
 20
83.4345687132
 30
0.0
 10
147.2012866113
 20
83.0737833494
 30
0.0
 10
147.3420117557
 20
82.7305633146
 30
0.0
 10
147.5196531516
 20
82.4076931026
 30
0.0
 10
147.7320628061
 20
82.1073962672
 30
0.0
 10
147.9769675671
 20
81.8313810511
 30
0.0
 10
148.2520389134
 20
81.5809554735
 30
0.0
 10
148.5549703001
 20
81.3571359211
 30
0.0
 10
148.9965761568
 20
81.0930776453
 30
0.0
 10
149.6078421297
 20
80.835514944
 30
0.0
 10
150.3987578438
 20
80.6494381669
 30
0.0
 10
151.2242003519
 20
80.5868651339
 30
0.0
 10
152.04964286
 20
80.6494381669
 30
0.0
 10
152.8405585741
 20
80.835514944
 30
0.0
 10
153.451824547
 20
81.0930776453
 30
0.0
 10
153.8934304037
 20
81.3571359211
 30
0.0
 10
154.1963617904
 20
81.5809554735
 30
0.0
 10
154.4714331367
 20
81.8313810511
 30
0.0
 10
154.7163378977
 20
82.1073962672
 30
0.0
 10
154.9287475522
 20
82.4076931026
 30
0.0
 10
155.1063889481
 20
82.7305633146
 30
0.0
 10
155.2471140925
 20
83.0737833494
 30
0.0
 10
155.3490394214
 20
83.4345687132
 30
0.0
 10
155.4106853075
 20
83.8094813573
 30
0.0
 10
155.4242003519
 20
84.0643418995
 30
0.0
 10
155.4242003519
 20
84.1926518609
 30
0.0
  0
SPLINE
  5
72F
100
AcDbEntity
  8
0
100
AcDbSpline
 62
7
  6
CONTINUOUS
 70
0
 71
3
 72
13
 73
9
 74
0
 42
0.0000001
 43
0.0000001
 44
0.0000000001
 40
0.0
 40
0.0
 40
0.0
 40
0.0
 40
0.2655958412
 40
0.5219612711
 40
0.6456213529
 40
0.7659615724
 40
0.8836953317
 40
1.0
 40
1.0
 40
1.0
 40
1.0
 10
149.7124601838
 20
124.0544876918
 30
0.0
 10
149.6865721897
 20
124.0544876918
 30
0.0
 10
149.6352795666
 20
124.0458970891
 30
0.0
 10
149.5792444012
 20
124.0140512427
 30
0.0
 10
149.5453994766
 20
123.9785255017
 30
0.0
 10
149.5266543338
 20
123.948342281
 30
0.0
 10
149.5150775063
 20
123.9155134142
 30
0.0
 10
149.5124601838
 20
123.892618988
 30
0.0
 10
149.5124601838
 20
123.8812826111
 30
0.0
  0
SPLINE
  5
730
100
AcDbEntity
  8
0
100
AcDbSpline
 62
7
  6
CONTINUOUS
 70
0
 71
3
 72
15
 73
11
 74
0
 42
0.0000001
 43
0.0000001
 44
0.0000000001
 40
0.0
 40
0.0
 40
0.0
 40
0.0
 40
0.1160614309
 40
0.2335535807
 40
0.3536445156
 40
0.4770484873
 40
0.603941021
 40
0.7339734334
 40
0.8663588225
 40
1.0
 40
1.0
 40
1.0
 40
1.0
 10
150.9124601838
 20
120.1227323586
 30
0.0
 10
150.9124601838
 20
120.0649179816
 30
0.0
 10
150.9258066138
 20
119.9481571021
 30
0.0
 10
150.9848558583
 20
119.7807266679
 30
0.0
 10
151.0804276205
 20
119.6268027929
 30
0.0
 10
151.2085728393
 20
119.4923606965
 30
0.0
 10
151.3641962961
 20
119.3823501507
 30
0.0
 10
151.5413053317
 20
119.3007943711
 30
0.0
 10
151.7330913369
 20
119.250648469
 30
0.0
 10
151.865888702
 20
119.2393864468
 30
0.0
 10
151.9324601838
 20
119.2393864468
 30
0.0
  0
SPLINE
  5
731
100
AcDbEntity
  8
0
100
AcDbSpline
 62
7
  6
CONTINUOUS
 70
0
 71
3
 72
15
 73
11
 74
0
 42
0.0000001
 43
0.0000001
 44
0.0000000001
 40
0.0
 40
0.0
 40
0.0
 40
0.0
 40
0.1160622192
 40
0.2335536987
 40
0.3536445018
 40
0.4770484629
 40
0.6039410297
 40
0.7339733104
 40
0.866357758
 40
1.0
 40
1.0
 40
1.0
 40
1.0
 10
150.2324601838
 20
121.5949755451
 30
0.0
 10
150.2324601838
 20
121.6176480032
 30
0.0
 10
150.2272263339
 20
121.6634366292
 30
0.0
 10
150.2040694878
 20
121.7290955129
 30
0.0
 10
150.166590572
 20
121.7894577244
 30
0.0
 10
150.1163376523
 20
121.8421802077
 30
0.0
 10
150.0553087696
 20
121.8853214725
 30
0.0
 10
149.9858544092
 20
121.9173039406
 30
0.0
 10
149.9106442953
 20
121.9369692937
 30
0.0
 10
149.8585668544
 20
121.9413857066
 30
0.0
 10
149.8324601838
 20
121.9413857066
 30
0.0
  0
SPLINE
  5
732
100
AcDbEntity
  8
0
100
AcDbSpline
 62
7
  6
CONTINUOUS
 70
0
 71
3
 72
16
 73
12
 74
0
 42
0.0000001
 43
0.0000001
 44
0.0000000001
 40
0.0
 40
0.0
 40
0.0
 40
0.0
 40
0.2037917478
 40
0.3836097152
 40
0.5387386114
 40
0.6691108366
 40
0.7757123437
 40
0.8614078161
 40
0.9324478873
 40
0.9659170059
 40
1.0
 40
1.0
 40
1.0
 40
1.0
 10
162.5273852022
 20
142.2348750688
 30
0.0
 10
162.5471754597
 20
142.2420781334
 30
0.0
 10
162.5846078746
 20
142.2551561825
 30
0.0
 10
162.6378786366
 20
142.271410544
 30
0.0
 10
162.6846463578
 20
142.2827571762
 30
0.0
 10
162.7247696433
 20
142.2889255942
 30
0.0
 10
162.7582421735
 20
142.2896509202
 30
0.0
 10
162.7852983642
 20
142.2847033469
 30
0.0
 10
162.8028728283
 20
142.2746695491
 30
0.0
 10
162.8122318262
 20
142.2636715109
 30
0.0
 10
162.81550078
 20
142.257433292
 30
0.0
 10
162.8168182595
 20
142.2541667497
 30
0.0
  0
SPLINE
  5
733
100
AcDbEntity
  8
0
100
AcDbSpline
 62
7
  6
CONTINUOUS
 70
0
 71
3
 72
15
 73
11
 74
0
 42
0.0000001
 43
0.0000001
 44
0.0000000001
 40
0.0
 40
0.0
 40
0.0
 40
0.0
 40
0.1336413284
 40
0.2660265797
 40
0.3960589844
 40
0.5229515258
 40
0.646355502
 40
0.7664464348
 40
0.8839385777
 40
1.0
 40
1.0
 40
1.0
 40
1.0
 10
149.9924601838
 20
120.5557450605
 30
0.0
 10
150.0446731751
 20
120.5557450605
 30
0.0
 10
150.1488279943
 20
120.5645779549
 30
0.0
 10
150.2992484038
 20
120.6039081021
 30
0.0
 10
150.4381574352
 20
120.667873358
 30
0.0
 10
150.5602150746
 20
120.7541561381
 30
0.0
 10
150.6607211313
 20
120.8596009466
 30
0.0
 10
150.7356793428
 20
120.9803255931
 30
0.0
 10
150.7819924204
 20
121.1116436087
 30
0.0
 10
150.7924601838
 20
121.2032207726
 30
0.0
 10
150.7924601838
 20
121.2485653836
 30
0.0
  0
SPLINE
  5
734
100
AcDbEntity
  8
0
100
AcDbSpline
 62
7
  6
CONTINUOUS
 70
0
 71
3
 72
15
 73
11
 74
0
 42
0.0000001
 43
0.0000001
 44
0.0000000001
 40
0.0
 40
0.0
 40
0.0
 40
0.0
 40
0.1160119245
 40
0.2339305553
 40
0.3545926652
 40
0.4784326563
 40
0.6054509754
 40
0.7352448681
 40
0.8670819513
 40
1.0
 40
1.0
 40
1.0
 40
1.0
 10
150.9188995778
 20
120.1236317992
 30
0.0
 10
150.925875613
 20
120.0701180202
 30
0.0
 10
150.9514436881
 20
119.9633858799
 30
0.0
 10
151.0222745933
 20
119.8132411084
 30
0.0
 10
151.1232626487
 20
119.6769302641
 30
0.0
 10
151.2508832831
 20
119.55898164
 30
0.0
 10
151.4008225293
 20
119.4631372587
 30
0.0
 10
151.5681248807
 20
119.3924362508
 30
0.0
 10
151.7472462149
 20
119.3491045464
 30
0.0
 10
151.8706292134
 20
119.3393864468
 30
0.0
 10
151.9324601838
 20
119.3393864468
 30
0.0
  0
SPLINE
  5
735
100
AcDbEntity
  8
0
100
AcDbSpline
 62
7
  6
CONTINUOUS
 70
0
 71
3
 72
25
 73
21
 74
0
 42
0.0000001
 43
0.0000001
 44
0.0000000001
 40
0.0
 40
0.0
 40
0.0
 40
0.0
 40
0.0132328521
 40
0.0304319365
 40
0.0561781369
 40
0.0935662315
 40
0.1504872896
 40
0.1923707724
 40
0.2505036181
 40
0.2883120701
 40
0.3323479405
 40
0.3803602378
 40
0.4285863581
 40
0.5168321546
 40
0.5922739468
 40
0.7137873396
 40
0.8071798557
 40
0.8791555548
 40
0.9705051661
 40
1.0
 40
1.0
 40
1.0
 40
1.0
 10
162.9076021066
 20
74.8401119054
 30
0.0
 10
162.8909429149
 20
74.8491150394
 30
0.0
 10
162.8519677048
 20
74.8685920497
 30
0.0
 10
162.7775346763
 20
74.899171817
 30
0.0
 10
162.6669598887
 20
74.9316250982
 30
0.0
 10
162.495974798
 20
74.9551242538
 30
0.0
 10
162.2998630211
 20
74.9428885745
 30
0.0
 10
162.080423097
 20
74.8933771845
 30
0.0
 10
161.8946206814
 20
74.8253932335
 30
0.0
 10
161.7135789041
 20
74.7395266134
 30
0.0
 10
161.5511843928
 20
74.6489601806
 30
0.0
 10
161.3820932035
 20
74.5406378304
 30
0.0
 10
161.1675769308
 20
74.3866660763
 30
0.0
 10
160.9325834293
 20
74.1946066447
 30
0.0
 10
160.6317720917
 20
73.9186967418
 30
0.0
 10
160.3416518817
 20
73.6209478495
 30
0.0
 10
160.0691552261
 20
73.3138801256
 30
0.0
 10
159.8337663537
 20
73.0318601976
 30
0.0
 10
159.6626408308
 20
72.8154107519
 30
0.0
 10
159.5577519046
 20
72.6779526307
 30
0.0
 10
159.5322866723
 20
72.6443018817
 30
0.0
  0
SPLINE
  5
736
100
AcDbEntity
  8
0
100
AcDbSpline
 62
7
  6
CONTINUOUS
 70
0
 71
3
 72
28
 73
24
 74
0
 42
0.0000001
 43
0.0000001
 44
0.0000000001
 40
0.0
 40
0.0
 40
0.0
 40
0.0
 40
0.062596759
 40
0.1224745261
 40
0.1795020089
 40
0.2070784165
 40
0.2341717537
 40
0.2609704119
 40
0.2877118804
 40
0.3146610498
 40
0.342079127
 40
0.3701916053
 40
0.3991642164
 40
0.4290920125
 40
0.4600009229
 40
0.5245604679
 40
0.5921492302
 40
0.6616958097
 40
0.7320434745
 40
0.8020669812
 40
0.8707112309
 40
0.936994507
 40
1.0
 40
1.0
 40
1.0
 40
1.0
 10
160.7242003519
 20
103.0087110346
 30
0.0
 10
160.8574280561
 20
102.9898024301
 30
0.0
 10
161.1195552377
 20
102.9617445987
 30
0.0
 10
161.5060942693
 20
102.9572355905
 30
0.0
 10
161.8158627566
 20
102.9940103535
 30
0.0
 10
162.0488724941
 20
103.0532844335
 30
0.0
 10
162.2138978294
 20
103.1128268331
 30
0.0
 10
162.3700898949
 20
103.1887903277
 30
0.0
 10
162.5165115339
 20
103.2816859804
 30
0.0
 10
162.6523625759
 20
103.3915831372
 30
0.0
 10
162.7770968091
 20
103.5180899802
 30
0.0
 10
162.8904871974
 20
103.6604046996
 30
0.0
 10
162.9926236564
 20
103.8174115692
 30
0.0
 10
163.0838716241
 20
103.987780122
 30
0.0
 10
163.1933030821
 20
104.2343489343
 30
0.0
 10
163.304397422
 20
104.5676293155
 30
0.0
 10
163.4038201006
 20
104.9900356311
 30
0.0
 10
163.4775426794
 20
105.4301618079
 30
0.0
 10
163.5309672214
 20
105.8783619185
 30
0.0
 10
163.568544556
 20
106.3261720144
 30
0.0
 10
163.5937347702
 20
106.7660700705
 30
0.0
 10
163.6090557547
 20
107.1913116904
 30
0.0
 10
163.6139282192
 20
107.4692164366
 30
0.0
 10
163.6150089916
 20
107.6046536053
 30
0.0
  0
SPLINE
  5
737
100
AcDbEntity
  8
0
100
AcDbSpline
 62
7
  6
CONTINUOUS
 70
0
 71
3
 72
12
 73
8
 74
0
 42
0.0000001
 43
0.0000001
 44
0.0000000001
 40
0.0
 40
0.0
 40
0.0
 40
0.0
 40
0.1246943061
 40
0.249650516
 40
0.5000699326
 40
0.7504983196
 40
1.0
 40
1.0
 40
1.0
 40
1.0
 10
163.6150089916
 20
107.6046536053
 30
0.0
 10
163.6163275075
 20
107.7698836508
 30
0.0
 10
163.6211473852
 20
108.1006762514
 30
0.0
 10
163.63840552
 20
108.7631175377
 30
0.0
 10
163.6709110893
 20
109.5917665096
 30
0.0
 10
163.7106920914
 20
110.5852609555
 30
0.0
 10
163.7242003519
 20
111.2477213523
 30
0.0
 10
163.7242003519
 20
111.5783417941
 30
0.0
  0
SPLINE
  5
738
100
AcDbEntity
  8
0
100
AcDbSpline
 62
7
  6
CONTINUOUS
 70
0
 71
3
 72
13
 73
9
 74
0
 42
0.0000001
 43
0.0000001
 44
0.0000000001
 40
0.0
 40
0.0
 40
0.0
 40
0.0
 40
0.1283506169
 40
0.2560983729
 40
0.3828434352
 40
0.5084243414
 40
0.7560779863
 40
1.0
 40
1.0
 40
1.0
 40
1.0
 10
158.7242003519
 20
107.5688863404
 30
0.0
 10
158.818306211
 20
107.5688863404
 30
0.0
 10
159.0062796689
 20
107.5807370885
 30
0.0
 10
159.2828154488
 20
107.6322387788
 30
0.0
 10
159.5500865923
 20
107.7128267764
 30
0.0
 10
159.8900357779
 20
107.8511235278
 30
0.0
 10
160.2877411423
 20
108.0700646067
 30
0.0
 10
160.5826309978
 20
108.2782636579
 30
0.0
 10
160.7242003519
 20
108.3875458877
 30
0.0
  0
SPLINE
  5
739
100
AcDbEntity
  8
0
100
AcDbSpline
 62
7
  6
CONTINUOUS
 70
0
 71
3
 72
15
 73
11
 74
0
 42
0.0000001
 43
0.0000001
 44
0.0000000001
 40
0.0
 40
0.0
 40
0.0
 40
0.0
 40
0.1336411775
 40
0.2660265666
 40
0.396058979
 40
0.5229515127
 40
0.6463554844
 40
0.7664464193
 40
0.8839385691
 40
1.0
 40
1.0
 40
1.0
 40
1.0
 10
151.9324601838
 20
119.2393864468
 30
0.0
 10
151.9990316655
 20
119.2393864468
 30
0.0
 10
152.1318290306
 20
119.250648469
 30
0.0
 10
152.3236150358
 20
119.3007943711
 30
0.0
 10
152.5007240714
 20
119.3823501507
 30
0.0
 10
152.6563475282
 20
119.4923606965
 30
0.0
 10
152.784492747
 20
119.6268027929
 30
0.0
 10
152.8800645092
 20
119.7807266679
 30
0.0
 10
152.9391137537
 20
119.9481571021
 30
0.0
 10
152.9524601838
 20
120.0649179816
 30
0.0
 10
152.9524601838
 20
120.1227323586
 30
0.0
  0
SPLINE
  5
73A
100
AcDbEntity
  8
0
100
AcDbSpline
 62
7
  6
CONTINUOUS
 70
0
 71
3
 72
13
 73
9
 74
0
 42
0.0000001
 43
0.0000001
 44
0.0000000001
 40
0.0
 40
0.0
 40
0.0
 40
0.0
 40
0.1200944383
 40
0.2407784658
 40
0.3626074151
 40
0.4860451709
 40
0.7385219631
 40
1.0
 40
1.0
 40
1.0
 40
1.0
 10
148.9524601838
 20
123.7762035762
 30
0.0
 10
148.9524601838
 20
123.7506962638
 30
0.0
 10
148.9561005575
 20
123.6994827597
 30
0.0
 10
148.9723797564
 20
123.6239623357
 30
0.0
 10
148.999230355
 20
123.5507495592
 30
0.0
 10
149.0488688628
 20
123.4570918082
 30
0.0
 10
149.135702849
 20
123.3511904601
 30
0.0
 10
149.224391145
 20
123.2855588718
 30
0.0
 10
149.2724601838
 20
123.2577443203
 30
0.0
  0
SPLINE
  5
73B
100
AcDbEntity
  8
2_FEATURE
100
AcDbSpline
 62
7
  6
CONTINUOUS
 70
0
 71
3
 72
13
 73
9
 74
0
 42
0.0000001
 43
0.0000001
 44
0.0000000001
 40
0.0
 40
0.0
 40
0.0
 40
0.0
 40
0.2501313053
 40
0.5000689277
 40
0.6250977253
 40
0.7500990665
 40
0.875067948
 40
1.0
 40
1.0
 40
1.0
 40
1.0
 10
142.0417529314
 20
137.8785694564
 30
0.0
 10
142.2381497698
 20
137.7575075922
 30
0.0
 10
142.6286704135
 20
137.5119461985
 30
0.0
 10
143.0839266675
 20
137.1538866802
 30
0.0
 10
143.4007118257
 20
136.8174629438
 30
0.0
 10
143.6054118419
 20
136.5372893481
 30
0.0
 10
143.7662730909
 20
136.2296048406
 30
0.0
 10
143.836470501
 20
136.0083666482
 30
0.0
 10
143.8602901983
 20
135.8956229992
 30
0.0
  0
SPLINE
  5
73C
100
AcDbEntity
  8
2_FEATURE
100
AcDbSpline
 62
7
  6
CONTINUOUS
 70
0
 71
3
 72
13
 73
9
 74
0
 42
0.0000001
 43
0.0000001
 44
0.0000000001
 40
0.0
 40
0.0
 40
0.0
 40
0.0
 40
0.244725309
 40
0.4916817319
 40
0.6165194786
 40
0.7425649995
 40
0.870208685
 40
1.0
 40
1.0
 40
1.0
 40
1.0
 10
144.0992650748
 20
120.5841906028
 30
0.0
 10
144.0727612082
 20
120.4360167655
 30
0.0
 10
144.002003655
 20
120.1411603255
 30
0.0
 10
143.8675829596
 20
119.7852338076
 30
0.0
 10
143.7282810698
 20
119.5122252875
 30
0.0
 10
143.6051851123
 20
119.3142083074
 30
0.0
 10
143.4612875829
 20
119.12680399
 30
0.0
 10
143.3500264513
 20
119.0132978991
 30
0.0
 10
143.2899655629
 20
118.9607066765
 30
0.0
  0
SPLINE
  5
73D
100
AcDbEntity
  8
2_FEATURE
100
AcDbSpline
 62
7
  6
CONTINUOUS
 70
0
 71
3
 72
9
 73
5
 74
0
 42
0.0000001
 43
0.0000001
 44
0.0000000001
 40
0.0
 40
0.0
 40
0.0
 40
0.0
 40
0.4968462237
 40
1.0
 40
1.0
 40
1.0
 40
1.0
 10
143.2899655629
 20
118.9607066765
 30
0.0
 10
143.1627952535
 20
118.8493519031
 30
0.0
 10
142.8905822143
 20
118.6437253815
 30
0.0
 10
142.6023688182
 20
118.4627337083
 30
0.0
 10
142.4558588527
 20
118.3742065042
 30
0.0
  0
SPLINE
  5
73E
100
AcDbEntity
  8
0
100
AcDbSpline
 62
7
  6
CONTINUOUS
 70
0
 71
3
 72
15
 73
11
 74
0
 42
0.0000001
 43
0.0000001
 44
0.0000000001
 40
0.0
 40
0.0
 40
0.0
 40
0.0
 40
0.1329180487
 40
0.2647551319
 40
0.3945490246
 40
0.5215673437
 40
0.6454073348
 40
0.7660694447
 40
0.8839880755
 40
1.0
 40
1.0
 40
1.0
 40
1.0
 10
151.9324601838
 20
119.3393864468
 30
0.0
 10
151.9942911541
 20
119.3393864468
 30
0.0
 10
152.1176741526
 20
119.3491045464
 30
0.0
 10
152.2967954868
 20
119.3924362508
 30
0.0
 10
152.4640978382
 20
119.4631372587
 30
0.0
 10
152.6140370844
 20
119.55898164
 30
0.0
 10
152.7416577188
 20
119.6769302641
 30
0.0
 10
152.8426457742
 20
119.8132411084
 30
0.0
 10
152.9134766794
 20
119.9633858799
 30
0.0
 10
152.9390447545
 20
120.0701180202
 30
0.0
 10
152.9460207897
 20
120.1236317992
 30
0.0
  0
SPLINE
  5
73F
100
AcDbEntity
  8
0
100
AcDbSpline
 62
7
  6
CONTINUOUS
 70
0
 71
3
 72
13
 73
9
 74
0
 42
0.0000001
 43
0.0000001
 44
0.0000000001
 40
0.0
 40
0.0
 40
0.0
 40
0.0
 40
0.1163056034
 40
0.2340381578
 40
0.3543786586
 40
0.4780389219
 40
0.7344046123
 40
1.0
 40
1.0
 40
1.0
 40
1.0
 10
149.5124601838
 20
123.9812826111
 30
0.0
 10
149.5124601838
 20
123.9926190744
 30
0.0
 10
149.5150773892
 20
124.015513515
 30
0.0
 10
149.5266546987
 20
124.0483421513
 30
0.0
 10
149.5453991922
 20
124.078525675
 30
0.0
 10
149.5792447926
 20
124.1140509175
 30
0.0
 10
149.6352796025
 20
124.1458969815
 30
0.0
 10
149.6865722446
 20
124.1544876918
 30
0.0
 10
149.7124601838
 20
124.1544876918
 30
0.0
  0
SPLINE
  5
740
100
AcDbEntity
  8
0
100
AcDbSpline
 62
7
  6
CONTINUOUS
 70
0
 71
3
 72
11
 73
7
 74
0
 42
0.0000001
 43
0.0000001
 44
0.0000000001
 40
0.0
 40
0.0
 40
0.0
 40
0.0
 40
0.2406448821
 40
0.4865733815
 40
0.7395297225
 40
1.0
 40
1.0
 40
1.0
 40
1.0
 10
148.9615122171
 20
123.7776401296
 30
0.0
 10
148.9693581346
 20
123.7351957967
 30
0.0
 10
148.9955630139
 20
123.6509680046
 30
0.0
 10
149.0632435313
 20
123.5356601628
 30
0.0
 10
149.1564672406
 20
123.4350201343
 30
0.0
 10
149.2320225543
 20
123.3811430517
 30
0.0
 10
149.2724601838
 20
123.3577443203
 30
0.0
  0
SPLINE
  5
741
100
AcDbEntity
  8
0
100
AcDbSpline
 62
7
  6
CONTINUOUS
 70
0
 71
3
 72
15
 73
11
 74
0
 42
0.0000001
 43
0.0000001
 44
0.0000000001
 40
0.0
 40
0.0
 40
0.0
 40
0.0
 40
0.1327086001
 40
0.2643803179
 40
0.3940909184
 40
0.5211245943
 40
0.6450696187
 40
0.7658879068
 40
0.8839474993
 40
1.0
 40
1.0
 40
1.0
 40
1.0
 10
149.9924601838
 20
120.6557450605
 30
0.0
 10
150.0399426877
 20
120.6557450605
 30
0.0
 10
150.134701482
 20
120.6630526923
 30
0.0
 10
150.2724537097
 20
120.6956486211
 30
0.0
 10
150.4014932646
 20
120.7488768592
 30
0.0
 10
150.5177211776
 20
120.8211289708
 30
0.0
 10
150.6174584868
 20
120.9102050314
 30
0.0
 10
150.6974839033
 20
121.013395016
 30
0.0
 10
150.7551327914
 20
121.1274175576
 30
0.0
 10
150.7774806433
 20
121.2088529374
 30
0.0
 10
150.7842919051
 20
121.2498135138
 30
0.0
  0
SPLINE
  5
742
100
AcDbEntity
  8
0
100
AcDbSpline
 62
7
  6
CONTINUOUS
 70
0
 71
3
 72
15
 73
11
 74
0
 42
0.0000001
 43
0.0000001
 44
0.0000000001
 40
0.0
 40
0.0
 40
0.0
 40
0.0
 40
0.1336430174
 40
0.266026714
 40
0.3960590079
 40
0.5229514845
 40
0.6463554764
 40
0.7664462926
 40
0.8839371026
 40
1.0
 40
1.0
 40
1.0
 40
1.0
 10
149.8324601838
 20
122.0413857066
 30
0.0
 10
149.8585670053
 20
122.0413857066
 30
0.0
 10
149.9106444517
 20
122.0369692409
 30
0.0
 10
149.9858545523
 20
122.0173039062
 30
0.0
 10
150.0553088501
 20
121.9853216008
 30
0.0
 10
150.1163373932
 20
121.9421799195
 30
0.0
 10
150.1665906762
 20
121.8894578278
 30
0.0
 10
150.20406946
 20
121.8290956328
 30
0.0
 10
150.2272262702
 20
121.7634367614
 30
0.0
 10
150.2324601838
 20
121.7176481352
 30
0.0
 10
150.2324601838
 20
121.6949755451
 30
0.0
  0
ELLIPSE
  5
743
100
AcDbEntity
  8
0
100
AcDbEllipse
 62
7
  6
CONTINUOUS
 10
94.2905297255
 20
137.5785694564
 30
0.0
 11
0.0
 21
12.5
 31
0.0
 40
0.3639702343
 41
1.4907107468
 42
1.5707963268
  0
ELLIPSE
  5
744
100
AcDbEntity
  8
0
100
AcDbEllipse
 62
7
  6
CONTINUOUS
 10
41.9750952745
 20
137.5785694564
 30
0.0
 11
0.0
 21
12.5
 31
0.0
 40
0.3639702343
 41
-1.5707963268
 42
-1.4907107468
  0
ELLIPSE
  5
745
100
AcDbEntity
  8
0
100
AcDbEllipse
 62
7
  6
CONTINUOUS
 10
94.7773874038
 20
139.8057153965
 30
0.0
 11
-0.0
 21
40.0
 31
0.0
 40
0.5773502692
 41
0.0366626814
 42
0.1769984954
  0
ELLIPSE
  5
746
100
AcDbEntity
  8
2_FEATURE
100
AcDbEllipse
 62
7
  6
CONTINUOUS
 10
41.4882375962
 20
139.8057153965
 30
0.0
 11
-0.0
 21
40.0
 31
0.0
 40
0.5773502692
 41
-0.1769984954
 42
-0.0366626814
  0
ENDSEC
  0
SECTION
  2
OBJECTS
  0
DICTIONARY
  5
C
100
AcDbDictionary
280
0
281
1
  3
ACAD_GROUP
350
D
  3
ACAD_MLINESTYLE
350
17
  3
ACAD_LAYOUT
350
1A
  3
ACAD_PLOTSETTINGS
350
19
  3
ACAD_PLOTSTYLENAME
350
E
  3
ACAD_TABLESTYLE
350
       747
  0
DICTIONARY
  5
D
102
{ACAD_REACTORS
330
C
102
}
100
AcDbDictionary
280
0
281
1
  0
ACDBDICTIONARYWDFLT
  5
E
102
{ACAD_REACTORS
330
C
102
}
100
AcDbDictionary
281
1
  3
Normal
350
F
100
AcDbDictionaryWithDefault
340
F
  0
DICTIONARY
  5
17
102
{ACAD_REACTORS
330
C
102
}
100
AcDbDictionary
280
0
281
1
  3
Standard
350
18
  0
DICTIONARY
  5
747
330
C
100
AcDbDictionary
281
1
  3
Standard
350
       74A
  3
Standard1
350
       74B
  0
DICTIONARY
  5
19
102
{ACAD_REACTORS
330
C
102
}
100
AcDbDictionary
281
1
  0
DICTIONARY
  5
1A
102
{ACAD_REACTORS
330
C
102
}
100
AcDbDictionary
281
1
  3
Model
350
748
  3
Layout1
350
749
  0
ACDBPLACEHOLDER
  5
F
102
{ACAD_REACTORS
330
E
102
}
  0
MLINESTYLE
  5
18
102
{ACAD_REACTORS
330
17
102
}
100
AcDbMlineStyle
  2
STANDARD
 70
0
  3

 62
256
 51
90.0
 52
90.0
 71
2
 49
0.5
 62
256
  6
BYLAYER
 49
-0.5
 62
256
  6
BYLAYER
  0
LAYOUT
  5
748
102
{ACAD_REACTORS
330
1A
102
}
100
AcDbPlotSettings
  1

  2
none_device
  4

  6

 40
0.0
 41
0.0
 42
0.0
 43
0.0
 44
210.0
 45
297.0
 46
0.0
 47
0.0
 48
0.0
 49
0.0
140
0.0
141
0.0
142
1.0
143
1.0
 70
1024
 72
1
 73
0
 74
0
  7

 75
0
147
1.0
148
0.0
149
0.0
100
AcDbLayout
  1
Model
 70
0
 71
0
 10
0.0
 20
0.0
 11
210.0
 21
297.0
 12
0.0
 22
0.0
 32
0.0
 14
0.0
 24
0.0
 34
0.0
 15
0.0
 25
0.0
 35
0.0
146
0.0
 13
0.0
 23
0.0
 33
0.0
 16
1.0
 26
0.0
 36
0.0
 17
0.0
 27
1.0
 37
0.0
 76
0
330
20F
345
0
346
0
  0
LAYOUT
  5
749
102
{ACAD_REACTORS
330
1A
102
}
100
AcDbPlotSettings
  1

  2
none_device
  4

  6

 40
0.0
 41
0.0
 42
0.0
 43
0.0
 44
210.0
 45
297.0
 46
0.0
 47
0.0
 48
0.0
 49
0.0
140
0.0
141
0.0
142
1.0
143
1.0
 70
0
 72
1
 73
0
 74
0
  7

 75
0
147
1.0
148
0.0
149
0.0
100
AcDbLayout
  1
Layout1
 70
0
 71
1
 10
0.0
 20
0.0
 11
210.0
 21
297.0
 12
0.0
 22
0.0
 32
0.0
 14
0.0
 24
0.0
 34
0.0
 15
0.0
 25
0.0
 35
0.0
146
0.0
 13
0.0
 23
0.0
 33
0.0
 16
1.0
 26
0.0
 36
0.0
 17
0.0
 27
1.0
 37
0.0
 76
0
330
210
345
0
346
0
  0
TABLESTYLE
  5
74A
102
{ACAD_REACTORS
330
747
330
344
102
}
330
747
100
AcDbTableStyle
  3
Standard
 70
0
 71
0
 40
0.06
 41
0.06
280
1
281
1
  7
Standard
140
0.18
170
1
 62
0
 63
7
283
0
  7
Standard
140
0.18
170
1
 62
0
 63
7
283
0
  7
Standard
140
0.18
170
1
 62
0
 63
7
283
0
  0
TABLESTYLE
  5
74B
102
{ACAD_REACTORS
330
747
102
}
330
747
100
AcDbTableStyle
  3
Standard1
 70
1
 71
0
 40
0.06
 41
0.06
280
1
281
1
  7
Standard
140
0.18
170
1
 62
0
 63
7
283
0
  7
Standard
140
0.18
170
1
 62
0
 63
7
283
0
  7
Standard
140
0.18
170
1
 62
0
 63
7
283
0
  0
ENDSEC
  0
EOF
