999
DXF file: uni_2800.dxf
999
Pro/ENGINEER 2015290 by Parametric Technology Corporation
  0
SECTION
  2
HEADER
  9
$ACADVER
  1
AC1027
  9
$DWGCODEPAGE
  3
ANSI_1252
  9
$EXTMAX
 10
210.0
 20
297.0
 30
0.0
  9
$EXTMIN
 10
0.0
 20
0.0
 30
0.0
  9
$LIMMIN
 10
0.0
 20
0.0
  9
$LIMMAX
 10
210.0
 20
297.0
  9
$VIEWCTR
 10
105.0
 20
148.5
  9
$VIEWSIZE
 40
297.0
  9
$CLAYER
  8
0
  9
$LTSCALE
 40
19.36
  9
$CELTYPE
  6
BYLAYER
  9
$DIMSCALE
 40
1.0
  9
$DIMASZ
 40
3.5
  9
$DIMEXO
 40
1.0
  9
$DIMDLI
 40
13.376
  9
$DIMEXE
 40
2.0
  9
$DIMCEN
 40
3.168
  9
$DIMLFAC
 40
1.0
  9
$DIMBLK
  1
_FILLED
  9
$DIMALT
 70
0
  9
$DIMALTF
 40
0.0393700787
  9
$DIMTXT
 40
3.5
  9
$DIMTOL
 70
1
  9
$DIMLIM
 70
0
  9
$DIMTFAC
 40
1.0
  9
$DIMTP
 40
0.01
  9
$DIMTM
 40
0.01
  9
$DIMGAP
 40
0.625
  9
$DIMDSEP
 70
46
  9
$AUNITS
 70
0
  9
$PDMODE
 70
3
  9
$PDSIZE
 40
0.3125
  9
$HANDSEED
  5
3F6
  9
$TILEMODE
 70
1
  9
$MEASUREMENT
 70
1
  9
$INSUNITS
 70
4
  0
ENDSEC
  0
SECTION
  2
CLASSES
  0
CLASS
  1
ACDBDICTIONARYWDFLT
  2
AcDbDictionaryWithDefault
  3
AutoCAD 2000
 90
0
 91
1
280
0
281
0
  0
CLASS
  1
ACDBPLACEHOLDER
  2
AcDbPlaceHolder
  3
AutoCAD 2000
 90
0
 91
1
280
0
281
0
  0
CLASS
  1
LAYOUT
  2
AcDbLayout
  3
AutoCAD 2000
 90
0
 91
0
280
0
281
0
  0
CLASS
  1
TABLESTYLE
  2
AcDbTableStyle
  3
ObjectDBX Classes
 90
2047
 91
1
280
0
281
0
  0
CLASS
  1
ACAD_TABLE
  2
AcDbTable
  3
ObjectDBX Classes
 90
1025
 91
1
280
0
281
1
  0
ENDSEC
  0
SECTION
  2
TABLES
  0
TABLE
  2
VPORT
  5
8
100
AcDbSymbolTable
 70
2
  0
VPORT
  5
1F4
100
AcDbSymbolTableRecord
100
AcDbViewportTableRecord
  2
*ACTIVE
 70
0
 10
0.0
 20
0.0
 11
1.0
 21
1.0
 12
105.0
 22
148.5
 13
0.0
 23
0.0
 14
1.0
 24
1.0
 15
0.0
 25
0.0
 16
0.0
 26
0.0
 36
1.0
 17
0.0
 27
0.0
 37
0.0
 40
297.0
 41
0.7070707071
 42
50.0
 43
0.0
 44
0.0
 50
0.0
 51
0.0
 71
0
 72
100
 73
1
 74
1
 75
0
 76
0
 77
0
 78
0
  0
ENDTAB
  0
TABLE
  2
LTYPE
  5
5
100
AcDbSymbolTable
 70
6
  0
LTYPE
  5
14
100
AcDbSymbolTableRecord
100
AcDbLinetypeTableRecord
  2
BYBLOCK
 70
0
  3

 72
65
 73
0
 40
0.0
  0
LTYPE
  5
15
100
AcDbSymbolTableRecord
100
AcDbLinetypeTableRecord
  2
BYLAYER
 70
0
  3

 72
65
 73
0
 40
0.0
  0
LTYPE
  5
16
100
AcDbSymbolTableRecord
100
AcDbLinetypeTableRecord
  2
CONTINUOUS
 70
64
  3
Solid line
 72
65
 73
0
 40
0.0
  0
LTYPE
  5
1F5
100
AcDbSymbolTableRecord
100
AcDbLinetypeTableRecord
  2
CENTER
 70
64
  3
____ _ ____ _ ____ _ ____ _ ____ _ ____ _ ____
 72
65
 73
4
 40
0.6
 49
0.375
 74
0
 49
-0.075
 74
0
 49
0.075
 74
0
 49
-0.075
 74
0
  0
LTYPE
  5
1F6
100
AcDbSymbolTableRecord
100
AcDbLinetypeTableRecord
  2
HIDDEN
 70
64
  3
- - - - - - - - - - - - - - - - - - - -
 72
65
 73
2
 40
0.2
 49
0.1
 74
0
 49
-0.1
 74
0
  0
LTYPE
  5
1F7
100
AcDbSymbolTableRecord
100
AcDbLinetypeTableRecord
  2
PHANTOM
 70
64
  3
_____ _ _ _____ _ _ _____ _ _ _____
 72
65
 73
6
 40
0.8
 49
0.45
 74
0
 49
-0.05
 74
0
 49
0.1
 74
0
 49
-0.05
 74
0
 49
0.1
 74
0
 49
-0.05
 74
0
  0
LTYPE
  5
1F8
100
AcDbSymbolTableRecord
100
AcDbLinetypeTableRecord
  2
DOT
 70
64
  3
. . . . . . . . . . . . . . . . . . . .
 72
65
 73
2
 40
0.2
 49
0.1
 74
0
 49
-0.1
 74
0
  0
LTYPE
  5
1F9
100
AcDbSymbolTableRecord
100
AcDbLinetypeTableRecord
  2
DASHED
 70
64
  3
- - - - - - - - - - - - - - - - - - - -
 72
65
 73
2
 40
0.2
 49
0.1
 74
0
 49
-0.1
 74
0
  0
ENDTAB
  0
TABLE
  2
LAYER
  5
2
100
AcDbSymbolTable
 70
36
  0
LAYER
  5
10
100
AcDbSymbolTableRecord
100
AcDbLayerTableRecord
  2
0
 70
0
 62
7
  6
CONTINUOUS
370
-3
390
F
  0
LAYER
  5
1FA
100
AcDbSymbolTableRecord
100
AcDbLayerTableRecord
  2
DEFAULT_1
 70
0
 62
7
  6
CENTER
370
-3
390
F
  0
LAYER
  5
1FB
100
AcDbSymbolTableRecord
100
AcDbLayerTableRecord
  2
DEFAULT_2
 70
0
 62
8
  6
HIDDEN
370
-3
390
F
  0
LAYER
  5
1FC
100
AcDbSymbolTableRecord
100
AcDbLayerTableRecord
  2
DEFAULT_3
 70
0
 62
7
  6
PHANTOM
370
-3
390
F
  0
LAYER
  5
1FD
100
AcDbSymbolTableRecord
100
AcDbLayerTableRecord
  2
AXES
 70
0
 62
7
  6
CONTINUOUS
370
-3
390
F
  0
LAYER
  5
1FE
100
AcDbSymbolTableRecord
100
AcDbLayerTableRecord
  2
CSYS
 70
0
 62
7
  6
CONTINUOUS
370
-3
390
F
  0
LAYER
  5
1FF
100
AcDbSymbolTableRecord
100
AcDbLayerTableRecord
  2
CURVES
 70
0
 62
7
  6
CONTINUOUS
370
-3
390
F
  0
LAYER
  5
200
100
AcDbSymbolTableRecord
100
AcDbLayerTableRecord
  2
NOTES
 70
0
 62
7
  6
CONTINUOUS
370
-3
390
F
  0
LAYER
  5
201
100
AcDbSymbolTableRecord
100
AcDbLayerTableRecord
  2
PLANES
 70
0
 62
7
  6
CONTINUOUS
370
-3
390
F
  0
LAYER
  5
202
100
AcDbSymbolTableRecord
100
AcDbLayerTableRecord
  2
QUILT
 70
0
 62
7
  6
CONTINUOUS
370
-3
390
F
  0
LAYER
  5
203
100
AcDbSymbolTableRecord
100
AcDbLayerTableRecord
  2
SURFACE
 70
0
 62
7
  6
CONTINUOUS
370
-3
390
F
  0
ENDTAB
  0
TABLE
  2
STYLE
  5
3
100
AcDbSymbolTable
 70
1
  0
STYLE
  5
11
100
AcDbSymbolTableRecord
100
AcDbTextStyleTableRecord
  2
STANDARD
 70
0
 40
0.0
 41
0.8
 50
0.0
 71
0
 42
0.2
  3
txt
  4

  0
STYLE
  5
204
100
AcDbSymbolTableRecord
100
AcDbTextStyleTableRecord
  2
TEXTSTYLE_1
 70
0
 40
0.0
 41
0.8
 50
0.0
 71
0
 42
0.2
  3
gdt
  4

  0
STYLE
  5
205
100
AcDbSymbolTableRecord
100
AcDbTextStyleTableRecord
  2
TEXTSTYLE_2
 70
0
 40
0.0
 41
0.6
 50
0.0
 71
0
 42
0.2
  3
txt
  4

  0
STYLE
  5
206
100
AcDbSymbolTableRecord
100
AcDbTextStyleTableRecord
  2
TEXTSTYLE_3
 70
0
 40
0.0
 41
1.0
 50
0.0
 71
0
 42
0.2
  3
ftb_____.ttf
  4

  0
STYLE
  5
207
100
AcDbSymbolTableRecord
100
AcDbTextStyleTableRecord
  2
TEXTSTYLE_4
 70
0
 40
0.0
 41
1.0
 50
0.0
 71
0
 42
0.2
  3
fti_____.ttf
  4

  0
STYLE
  5
208
100
AcDbSymbolTableRecord
100
AcDbTextStyleTableRecord
  2
TEXTSTYLE_5
 70
0
 40
0.0
 41
1.0
 50
0.0
 71
0
 42
0.2
  3
frutiger light.ttf
  4

  0
STYLE
  5
209
100
AcDbSymbolTableRecord
100
AcDbTextStyleTableRecord
  2
TEXTSTYLE_6
 70
0
 40
0.0
 41
0.7
 50
0.0
 71
0
 42
0.2
  3
txt
  4

  0
STYLE
  5
20A
100
AcDbSymbolTableRecord
100
AcDbTextStyleTableRecord
  2
TEXTSTYLE_7
 70
0
 40
0.0
 41
0.8
 50
0.0
 71
0
 42
0.2
  3
txt
  4

  0
ENDTAB
  0
TABLE
  2
VIEW
  5
6
100
AcDbSymbolTable
 70
0
  0
ENDTAB
  0
TABLE
  2
UCS
  5
7
100
AcDbSymbolTable
 70
0
  0
ENDTAB
  0
TABLE
  2
APPID
  5
9
100
AcDbSymbolTable
 70
1
  0
APPID
  5
20B
100
AcDbSymbolTableRecord
100
AcDbRegAppTableRecord
  2
ACAD
 70
0
  0
ENDTAB
  0
TABLE
  2
BLOCK_RECORD
  5
1
100
AcDbSymbolTable
 70
0
  0
BLOCK_RECORD
  5
20C
100
AcDbSymbolTableRecord
100
AcDbBlockTableRecord
  2
*Model_Space
  0
BLOCK_RECORD
  5
20D
100
AcDbSymbolTableRecord
100
AcDbBlockTableRecord
  2
*Paper_Space
  0
BLOCK_RECORD
  5
20E
100
AcDbSymbolTableRecord
100
AcDbBlockTableRecord
  2
UNI_LOGO2_BL1
  0
BLOCK_RECORD
  5
20F
100
AcDbSymbolTableRecord
100
AcDbBlockTableRecord
  2
AMMEAAL_LOGO_BL0
  0
BLOCK_RECORD
  5
210
100
AcDbSymbolTableRecord
100
AcDbBlockTableRecord
  2
*T1
  0
ENDTAB
  0
TABLE
  2
DIMSTYLE
  5
A
100
AcDbSymbolTable
 70
1
100
AcDbDimStyleTable
 71
0
  0
DIMSTYLE
105
211
100
AcDbSymbolTableRecord
100
AcDbDimStyleTableRecord
  2
STANDARD
 70
0
  3

  4

 40
1.0
 41
3.5
 42
1.0
 43
0.38
 44
2.0
 45
0.0
 46
0.0
 47
0.01
 48
0.01
140
3.5
141
0.09
142
0.0
143
25.4
144
1.0
145
0.0
146
1.0
147
0.625
 71
1.0
 72
0.0
 73
0
 74
0
 75
0
 76
0
 77
1
 78
0
170
0
171
2
172
0
173
0
174
0
175
0
176
0
177
0
178
5
270
2
271
2
272
2
273
2
274
2
275
0
280
0
281
0
282
0
283
1
284
0
285
0
286
0
287
3
288
0
340
11
278
46
  0
ENDTAB
  0
ENDSEC
  0
SECTION
  2
BLOCKS
  0
BLOCK
  5
20
100
AcDbEntity
  8
0
100
AcDbBlockBegin
  2
*Model_Space
 70
0
 10
0.0
 20
0.0
 30
0.0
  3
*Model_Space
  1

  0
ENDBLK
  5
21
100
AcDbEntity
  8
0
100
AcDbBlockEnd
  0
BLOCK
  5
1C
100
AcDbEntity
  8
0
100
AcDbBlockBegin
  2
*Paper_Space
 70
0
 10
0.0
 20
0.0
 30
0.0
  3
*Paper_Space
  1

  0
ENDBLK
  5
1D
100
AcDbEntity
  8
0
100
AcDbBlockEnd
  0
BLOCK
  5
212
100
AcDbEntity
  8
0
100
AcDbBlockBegin
 62
2
  6
CONTINUOUS
  2
UNI_LOGO2_BL1
 70
64
 10
173.3924355793
 20
35.4837666925
  3
UNI_LOGO2_BL1
  1

  0
TEXT
  5
213
100
AcDbEntity
  8
0
100
AcDbText
 62
7
  6
CONTINUOUS
 10
164.4507205878
 20
30.5765230696
  7
TEXTSTYLE_4
 40
1.0655737705
  1
The brand for plastic modular belts and chains
 41
1.0
 72
0
100
AcDbText
  0
LINE
  5
214
100
AcDbEntity
  8
0
100
AcDbLine
 62
7
  6
CONTINUOUS
 10
149.3705039683
 20
36.0575371843
 11
149.3705039683
 21
33.9263896433
  0
LINE
  5
215
100
AcDbEntity
  8
0
100
AcDbLine
 62
7
  6
CONTINUOUS
 10
149.6595664615
 20
30.9354583476
 11
149.6595664615
 21
31.0322494069
  0
LINE
  5
216
100
AcDbEntity
  8
0
100
AcDbLine
 62
7
  6
CONTINUOUS
 10
149.3705039683
 20
30.9999857205
 11
149.4283164701
 21
30.8064036019
  0
LINE
  5
217
100
AcDbEntity
  8
0
100
AcDbLine
 62
7
  6
CONTINUOUS
 10
150.7639465913
 20
33.8444224302
 11
150.7639465913
 21
36.0575371843
  0
LINE
  5
218
100
AcDbEntity
  8
0
100
AcDbLine
 62
7
  6
CONTINUOUS
 10
151.6830039132
 20
32.0001601351
 11
151.6830039132
 21
30.4837666925
  0
LINE
  5
219
100
AcDbEntity
  8
0
100
AcDbLine
 62
7
  6
CONTINUOUS
 10
151.9720664683
 20
30.4837666925
 11
151.9720664683
 21
31.2258315706
  0
LINE
  5
21A
100
AcDbEntity
  8
0
100
AcDbLine
 62
7
  6
CONTINUOUS
 10
151.9720664683
 20
31.3548863163
 11
151.9720664683
 21
32.0001601351
  0
LINE
  5
21B
100
AcDbEntity
  8
0
100
AcDbLine
 62
7
  6
CONTINUOUS
 10
149.4283164701
 20
31.1935678842
 11
149.3705039683
 21
30.9999857205
  0
LINE
  5
21C
100
AcDbEntity
  8
0
100
AcDbLine
 62
7
  6
CONTINUOUS
 10
149.7751914546
 20
30.7741399155
 11
149.6595664615
 21
30.9354583476
  0
LINE
  5
21D
100
AcDbEntity
  8
0
100
AcDbLine
 62
7
  6
CONTINUOUS
 10
150.8736290235
 20
31.2903589434
 11
150.9314414683
 21
31.1935678842
  0
LINE
  5
21E
100
AcDbEntity
  8
0
100
AcDbLine
 62
7
  6
CONTINUOUS
 10
151.2205040235
 20
31.1935678842
 11
151.1626914132
 21
31.3226226299
  0
LINE
  5
21F
100
AcDbEntity
  8
0
100
AcDbLine
 62
7
  6
CONTINUOUS
 10
152.6491924929
 20
36.0575371843
 11
152.6491924929
 21
34.2542584958
  0
LINE
  5
220
100
AcDbEntity
  8
0
100
AcDbLine
 62
7
  6
CONTINUOUS
 10
152.6491924929
 20
32.9427830859
 11
152.6491924929
 21
32.287045381
  0
LINE
  5
221
100
AcDbEntity
  8
0
100
AcDbLine
 62
7
  6
CONTINUOUS
 10
153.0126914683
 20
31.1290405113
 11
153.0126914683
 21
30.4837666925
  0
LINE
  5
222
100
AcDbEntity
  8
0
100
AcDbLine
 62
7
  6
CONTINUOUS
 10
153.3017538581
 20
30.4837666925
 11
153.3017538581
 21
31.1290405113
  0
LINE
  5
223
100
AcDbEntity
  8
0
100
AcDbLine
 62
7
  6
CONTINUOUS
 10
149.6595664615
 20
31.0322494069
 11
149.7173789683
 21
31.1613041978
  0
LINE
  5
224
100
AcDbEntity
  8
0
100
AcDbLine
 62
7
  6
CONTINUOUS
 10
149.4283164701
 20
30.8064036019
 11
149.5439414683
 21
30.6773488336
  0
LINE
  5
225
100
AcDbEntity
  8
0
100
AcDbLine
 62
7
  6
CONTINUOUS
 10
152.9548788581
 20
31.258095257
 11
153.0126914683
 21
31.1290405113
  0
LINE
  5
226
100
AcDbEntity
  8
0
100
AcDbLine
 62
7
  6
CONTINUOUS
 10
153.7642540786
 20
30.7741399155
 11
153.8220663581
 21
30.6450851472
  0
LINE
  5
227
100
AcDbEntity
  8
0
100
AcDbLine
 62
7
  6
CONTINUOUS
 10
153.3017538581
 20
31.1290405113
 11
153.2439415786
 21
31.2903589434
  0
LINE
  5
228
100
AcDbEntity
  8
0
100
AcDbLine
 62
7
  6
CONTINUOUS
 10
153.7642540786
 20
31.3226226299
 11
153.7642540786
 21
31.258095257
  0
LINE
  5
229
100
AcDbEntity
  8
0
100
AcDbLine
 62
7
  6
CONTINUOUS
 10
153.7642540786
 20
30.8709309748
 11
153.7642540786
 21
30.7741399155
  0
LINE
  5
22A
100
AcDbEntity
  8
0
100
AcDbLine
 62
7
  6
CONTINUOUS
 10
154.0426351159
 20
32.287045381
 11
154.0426351159
 21
36.0575371843
  0
LINE
  5
22B
100
AcDbEntity
  8
0
100
AcDbLine
 62
7
  6
CONTINUOUS
 10
154.0533164683
 20
30.7418762065
 11
154.0533164683
 21
30.8064036019
  0
LINE
  5
22C
100
AcDbEntity
  8
0
100
AcDbLine
 62
7
  6
CONTINUOUS
 10
154.3705039683
 20
36.0575371843
 11
154.3705039683
 21
32.287045381
  0
LINE
  5
22D
100
AcDbEntity
  8
0
100
AcDbLine
 62
7
  6
CONTINUOUS
 10
151.1626914132
 20
30.6773488336
 11
151.2205040235
 21
30.8064036019
  0
LINE
  5
22E
100
AcDbEntity
  8
0
100
AcDbLine
 62
7
  6
CONTINUOUS
 10
155.5564416889
 20
30.5805577631
 11
155.4986287478
 21
30.7418762065
  0
LINE
  5
22F
100
AcDbEntity
  8
0
100
AcDbLine
 62
7
  6
CONTINUOUS
 10
155.2095666889
 20
31.258095257
 11
155.2095666889
 21
31.1613041978
  0
LINE
  5
230
100
AcDbEntity
  8
0
100
AcDbLine
 62
7
  6
CONTINUOUS
 10
155.2095666889
 20
31.0322494069
 11
155.2095666889
 21
30.8386672883
  0
LINE
  5
231
100
AcDbEntity
  8
0
100
AcDbLine
 62
7
  6
CONTINUOUS
 10
155.4986287478
 20
30.7418762065
 11
155.4986287478
 21
31.258095257
  0
LINE
  5
232
100
AcDbEntity
  8
0
100
AcDbLine
 62
7
  6
CONTINUOUS
 10
155.7639465913
 20
32.287045381
 11
155.7639465913
 21
34.0903240696
  0
LINE
  5
233
100
AcDbEntity
  8
0
100
AcDbLine
 62
7
  6
CONTINUOUS
 10
155.7639465913
 20
35.4017994794
 11
155.7639465913
 21
36.0575371843
  0
LINE
  5
234
100
AcDbEntity
  8
0
100
AcDbLine
 62
7
  6
CONTINUOUS
 10
156.0767541889
 20
32.0001601351
 11
156.0767541889
 21
31.838841703
  0
LINE
  5
235
100
AcDbEntity
  8
0
100
AcDbLine
 62
7
  6
CONTINUOUS
 10
156.0767541889
 20
31.5162047484
 11
156.0767541889
 21
30.4837666925
  0
LINE
  5
236
100
AcDbEntity
  8
0
100
AcDbLine
 62
7
  6
CONTINUOUS
 10
156.3658162478
 20
30.4837666925
 11
156.3658162478
 21
31.5162047484
  0
LINE
  5
237
100
AcDbEntity
  8
0
100
AcDbLine
 62
7
  6
CONTINUOUS
 10
156.3658162478
 20
31.838841703
 11
156.3658162478
 21
32.0001601351
  0
LINE
  5
238
100
AcDbEntity
  8
0
100
AcDbLine
 62
7
  6
CONTINUOUS
 10
150.9314414683
 20
30.8064036019
 11
150.8736290235
 21
30.7096125201
  0
LINE
  5
239
100
AcDbEntity
  8
0
100
AcDbLine
 62
7
  6
CONTINUOUS
 10
153.2439415786
 20
31.2903589434
 11
153.1861289683
 21
31.3548863163
  0
LINE
  5
23A
100
AcDbEntity
  8
0
100
AcDbLine
 62
7
  6
CONTINUOUS
 10
154.1111290786
 20
30.6773488336
 11
154.0533164683
 21
30.7418762065
  0
LINE
  5
23B
100
AcDbEntity
  8
0
100
AcDbLine
 62
7
  6
CONTINUOUS
 10
155.2673789683
 20
30.548294071
 11
155.3251912478
 21
30.4837666925
  0
LINE
  5
23C
100
AcDbEntity
  8
0
100
AcDbLine
 62
7
  6
CONTINUOUS
 10
155.2095666889
 20
30.6450851472
 11
155.2673789683
 21
30.548294071
  0
LINE
  5
23D
100
AcDbEntity
  8
0
100
AcDbLine
 62
7
  6
CONTINUOUS
 10
155.6142539683
 20
30.4837666925
 11
155.5564416889
 21
30.5805577631
  0
LINE
  5
23E
100
AcDbEntity
  8
0
100
AcDbLine
 62
7
  6
CONTINUOUS
 10
155.4986287478
 20
31.258095257
 11
155.4408164683
 21
31.3548863163
  0
LINE
  5
23F
100
AcDbEntity
  8
0
100
AcDbLine
 62
7
  6
CONTINUOUS
 10
156.8283164683
 20
31.5162047484
 11
156.8283164683
 21
30.4837666925
  0
LINE
  5
240
100
AcDbEntity
  8
0
100
AcDbLine
 62
7
  6
CONTINUOUS
 10
157.1173791889
 20
30.4837666925
 11
157.1173791889
 21
31.2258315706
  0
LINE
  5
241
100
AcDbEntity
  8
0
100
AcDbLine
 62
7
  6
CONTINUOUS
 10
157.1173791889
 20
31.3548863163
 11
157.1173791889
 21
31.5162047484
  0
LINE
  5
242
100
AcDbEntity
  8
0
100
AcDbLine
 62
7
  6
CONTINUOUS
 10
157.6491924929
 20
34.5001601351
 11
157.6491924929
 21
32.287045381
  0
LINE
  5
243
100
AcDbEntity
  8
0
100
AcDbLine
 62
7
  6
CONTINUOUS
 10
149.5439414683
 20
31.3226226299
 11
149.4283164701
 21
31.1935678842
  0
LINE
  5
244
100
AcDbEntity
  8
0
100
AcDbLine
 62
7
  6
CONTINUOUS
 10
149.7173789683
 20
31.1613041978
 11
149.7751914546
 21
31.2258315706
  0
LINE
  5
245
100
AcDbEntity
  8
0
100
AcDbLine
 62
7
  6
CONTINUOUS
 10
149.5439414683
 20
30.6773488336
 11
149.6595664615
 21
30.6128214495
  0
LINE
  5
246
100
AcDbEntity
  8
0
100
AcDbLine
 62
7
  6
CONTINUOUS
 10
149.9486289546
 20
30.6773488336
 11
149.7751914546
 21
30.7741399155
  0
LINE
  5
247
100
AcDbEntity
  8
0
100
AcDbLine
 62
7
  6
CONTINUOUS
 10
155.1517537478
 20
31.3226226299
 11
155.2095666889
 21
31.258095257
  0
LINE
  5
248
100
AcDbEntity
  8
0
100
AcDbLine
 62
7
  6
CONTINUOUS
 10
158.1001912478
 20
31.258095257
 11
158.1580041889
 21
31.0967768249
  0
LINE
  5
249
100
AcDbEntity
  8
0
100
AcDbLine
 62
7
  6
CONTINUOUS
 10
158.4470662478
 20
31.0967768249
 11
158.3892539683
 21
31.258095257
  0
LINE
  5
24A
100
AcDbEntity
  8
0
100
AcDbLine
 62
7
  6
CONTINUOUS
 10
158.1580041889
 20
31.0967768249
 11
158.1580041889
 21
30.4837666925
  0
LINE
  5
24B
100
AcDbEntity
  8
0
100
AcDbLine
 62
7
  6
CONTINUOUS
 10
158.4470662478
 20
30.4837666925
 11
158.4470662478
 21
31.0967768249
  0
LINE
  5
24C
100
AcDbEntity
  8
0
100
AcDbLine
 62
7
  6
CONTINUOUS
 10
158.9095664683
 20
31.3226226299
 11
158.9095664683
 21
31.258095257
  0
LINE
  5
24D
100
AcDbEntity
  8
0
100
AcDbLine
 62
7
  6
CONTINUOUS
 10
159.0426351159
 20
32.287045381
 11
159.0426351159
 21
34.418192922
  0
LINE
  5
24E
100
AcDbEntity
  8
0
100
AcDbLine
 62
7
  6
CONTINUOUS
 10
159.3705039683
 20
36.0575371843
 11
159.3705039683
 21
32.287045381
  0
LINE
  5
24F
100
AcDbEntity
  8
0
100
AcDbLine
 62
7
  6
CONTINUOUS
 10
154.0533164683
 20
30.8064036019
 11
154.1111290786
 21
30.9031946612
  0
LINE
  5
250
100
AcDbEntity
  8
0
100
AcDbLine
 62
7
  6
CONTINUOUS
 10
149.6595664615
 20
30.6128214495
 11
149.8330039821
 21
30.548294071
  0
LINE
  5
251
100
AcDbEntity
  8
0
100
AcDbLine
 62
7
  6
CONTINUOUS
 10
151.1626914132
 20
31.3226226299
 11
150.9892539132
 21
31.4194136891
  0
LINE
  5
252
100
AcDbEntity
  8
0
100
AcDbLine
 62
7
  6
CONTINUOUS
 10
153.8220663581
 20
30.6450851472
 11
153.9955038581
 21
30.548294071
  0
LINE
  5
253
100
AcDbEntity
  8
0
100
AcDbLine
 62
7
  6
CONTINUOUS
 10
152.8392539683
 20
31.3226226299
 11
152.9548788581
 21
31.258095257
  0
LINE
  5
254
100
AcDbEntity
  8
0
100
AcDbLine
 62
7
  6
CONTINUOUS
 10
153.1861289683
 20
31.3548863163
 11
153.0705040786
 21
31.4194136891
  0
LINE
  5
255
100
AcDbEntity
  8
0
100
AcDbLine
 62
7
  6
CONTINUOUS
 10
158.9095664683
 20
30.7418762065
 11
159.0251916889
 21
30.6128214495
  0
LINE
  5
256
100
AcDbEntity
  8
0
100
AcDbLine
 62
7
  6
CONTINUOUS
 10
159.2564414683
 20
30.6773488336
 11
159.1986291889
 21
30.7418762065
  0
LINE
  5
257
100
AcDbEntity
  8
0
100
AcDbLine
 62
7
  6
CONTINUOUS
 10
158.9095664683
 20
31.258095257
 11
159.0251916889
 21
31.1290405113
  0
LINE
  5
258
100
AcDbEntity
  8
0
100
AcDbLine
 62
7
  6
CONTINUOUS
 10
158.3892539683
 20
31.258095257
 11
158.3314416889
 21
31.3548863163
  0
LINE
  5
259
100
AcDbEntity
  8
0
100
AcDbLine
 62
7
  6
CONTINUOUS
 10
160.7595660273
 20
30.6773488336
 11
160.7595660273
 21
30.7418762065
  0
LINE
  5
25A
100
AcDbEntity
  8
0
100
AcDbLine
 62
7
  6
CONTINUOUS
 10
160.7639465913
 20
32.287045381
 11
160.7639465913
 21
36.0575371843
  0
LINE
  5
25B
100
AcDbEntity
  8
0
100
AcDbLine
 62
7
  6
CONTINUOUS
 10
153.8220663581
 20
31.3871500027
 11
153.7642540786
 21
31.3226226299
  0
LINE
  5
25C
100
AcDbEntity
  8
0
100
AcDbLine
 62
7
  6
CONTINUOUS
 10
150.7001914408
 20
31.3548863163
 11
150.8736290235
 21
31.2903589434
  0
LINE
  5
25D
100
AcDbEntity
  8
0
100
AcDbLine
 62
7
  6
CONTINUOUS
 10
155.4408164683
 20
31.3548863163
 11
155.3251912478
 21
31.4194136891
  0
LINE
  5
25E
100
AcDbEntity
  8
0
100
AcDbLine
 62
7
  6
CONTINUOUS
 10
159.2564414683
 20
31.1935678842
 11
159.1986291889
 21
31.258095257
  0
LINE
  5
25F
100
AcDbEntity
  8
0
100
AcDbLine
 62
7
  6
CONTINUOUS
 10
160.4126916889
 20
30.8064036019
 11
160.4705039683
 21
30.7418762065
  0
LINE
  5
260
100
AcDbEntity
  8
0
100
AcDbLine
 62
7
  6
CONTINUOUS
 10
160.7595660273
 20
30.7418762065
 11
160.6439414683
 21
30.8709309748
  0
LINE
  5
261
100
AcDbEntity
  8
0
100
AcDbLine
 62
7
  6
CONTINUOUS
 10
160.4126916889
 20
31.3226226299
 11
160.4705039683
 21
31.258095257
  0
LINE
  5
262
100
AcDbEntity
  8
0
100
AcDbLine
 62
7
  6
CONTINUOUS
 10
160.7595660273
 20
31.258095257
 11
160.6439414683
 21
31.3871500027
  0
LINE
  5
263
100
AcDbEntity
  8
0
100
AcDbLine
 62
7
  6
CONTINUOUS
 10
154.0533164683
 20
31.258095257
 11
154.1111290786
 21
31.3226226299
  0
LINE
  5
264
100
AcDbEntity
  8
0
100
AcDbLine
 62
7
  6
CONTINUOUS
 10
153.8798789683
 20
30.9999857205
 11
153.7642540786
 21
30.8709309748
  0
LINE
  5
265
100
AcDbEntity
  8
0
100
AcDbLine
 62
7
  6
CONTINUOUS
 10
155.2095666889
 20
30.8386672883
 11
155.1517537478
 21
30.7741399155
  0
LINE
  5
266
100
AcDbEntity
  8
0
100
AcDbLine
 62
7
  6
CONTINUOUS
 10
155.1517537478
 20
30.5805577631
 11
155.2095666889
 21
30.6450851472
  0
LINE
  5
267
100
AcDbEntity
  8
0
100
AcDbLine
 62
7
  6
CONTINUOUS
 10
153.9955038581
 20
30.548294071
 11
154.1111290786
 21
30.5160303817
  0
LINE
  5
268
100
AcDbEntity
  8
0
100
AcDbLine
 62
7
  6
CONTINUOUS
 10
150.9892539132
 20
31.4194136891
 11
150.7580039683
 21
31.483941062
  0
LINE
  5
269
100
AcDbEntity
  8
0
100
AcDbLine
 62
7
  6
CONTINUOUS
 10
154.3423788581
 20
30.6128214495
 11
154.1111290786
 21
30.6773488336
  0
LINE
  5
26A
100
AcDbEntity
  8
0
100
AcDbLine
 62
7
  6
CONTINUOUS
 10
153.0705040786
 20
31.4194136891
 11
152.8970665786
 21
31.483941062
  0
LINE
  5
26B
100
AcDbEntity
  8
0
100
AcDbLine
 62
7
  6
CONTINUOUS
 10
155.3251912478
 20
31.4194136891
 11
155.1517537478
 21
31.483941062
  0
LINE
  5
26C
100
AcDbEntity
  8
0
100
AcDbLine
 62
7
  6
CONTINUOUS
 10
157.9845666889
 20
31.3226226299
 11
158.1001912478
 21
31.258095257
  0
LINE
  5
26D
100
AcDbEntity
  8
0
100
AcDbLine
 62
7
  6
CONTINUOUS
 10
158.3314416889
 20
31.3548863163
 11
158.2158164683
 21
31.4194136891
  0
LINE
  5
26E
100
AcDbEntity
  8
0
100
AcDbLine
 62
7
  6
CONTINUOUS
 10
149.8330039821
 20
30.548294071
 11
150.0064414821
 21
30.5160303817
  0
LINE
  5
26F
100
AcDbEntity
  8
0
100
AcDbLine
 62
7
  6
CONTINUOUS
 10
150.2955039959
 20
30.6128214495
 11
149.9486289546
 21
30.6773488336
  0
LINE
  5
270
100
AcDbEntity
  8
0
100
AcDbLine
 62
7
  6
CONTINUOUS
 10
152.7236290786
 20
31.3548863163
 11
152.8392539683
 21
31.3226226299
  0
LINE
  5
271
100
AcDbEntity
  8
0
100
AcDbLine
 62
7
  6
CONTINUOUS
 10
155.0361291889
 20
31.3548863163
 11
155.1517537478
 21
31.3226226299
  0
LINE
  5
272
100
AcDbEntity
  8
0
100
AcDbLine
 62
7
  6
CONTINUOUS
 10
159.3720666889
 20
30.6450851472
 11
159.2564414683
 21
30.6773488336
  0
LINE
  5
273
100
AcDbEntity
  8
0
100
AcDbLine
 62
7
  6
CONTINUOUS
 10
157.8689414683
 20
31.3548863163
 11
157.9845666889
 21
31.3226226299
  0
LINE
  5
274
100
AcDbEntity
  8
0
100
AcDbLine
 62
7
  6
CONTINUOUS
 10
159.0251916889
 20
30.6128214495
 11
159.1986291889
 21
30.548294071
  0
LINE
  5
275
100
AcDbEntity
  8
0
100
AcDbLine
 62
7
  6
CONTINUOUS
 10
158.2158164683
 20
31.4194136891
 11
158.0423789683
 21
31.483941062
  0
LINE
  5
276
100
AcDbEntity
  8
0
100
AcDbLine
 62
7
  6
CONTINUOUS
 10
159.4298789683
 20
31.1290405113
 11
159.2564414683
 21
31.1935678842
  0
LINE
  5
277
100
AcDbEntity
  8
0
100
AcDbLine
 62
7
  6
CONTINUOUS
 10
160.2392541889
 20
30.8709309748
 11
160.4126916889
 21
30.8064036019
  0
LINE
  5
278
100
AcDbEntity
  8
0
100
AcDbLine
 62
7
  6
CONTINUOUS
 10
160.6439414683
 20
31.3871500027
 11
160.4705039683
 21
31.4516773756
  0
LINE
  5
279
100
AcDbEntity
  8
0
100
AcDbLine
 62
7
  6
CONTINUOUS
 10
159.0251916889
 20
31.1290405113
 11
159.2564414683
 21
31.0322494069
  0
LINE
  5
27A
100
AcDbEntity
  8
0
100
AcDbLine
 62
7
  6
CONTINUOUS
 10
160.6439414683
 20
30.8709309748
 11
160.4126916889
 21
30.967722034
  0
LINE
  5
27B
100
AcDbEntity
  8
0
100
AcDbLine
 62
7
  6
CONTINUOUS
 10
159.1986291889
 20
31.258095257
 11
159.2564414683
 21
31.3226226299
  0
LINE
  5
27C
100
AcDbEntity
  8
0
100
AcDbLine
 62
7
  6
CONTINUOUS
 10
149.6595664615
 20
31.3871500027
 11
149.5439414683
 21
31.3226226299
  0
LINE
  5
27D
100
AcDbEntity
  8
0
100
AcDbLine
 62
7
  6
CONTINUOUS
 10
149.7751914546
 20
31.2258315706
 11
149.9486289546
 21
31.3226226299
  0
LINE
  5
27E
100
AcDbEntity
  8
0
100
AcDbLine
 62
7
  6
CONTINUOUS
 10
152.0876915235
 20
31.4194136891
 11
151.9720664683
 21
31.3548863163
  0
LINE
  5
27F
100
AcDbEntity
  8
0
100
AcDbLine
 62
7
  6
CONTINUOUS
 10
151.9720664683
 20
31.2258315706
 11
152.0876915235
 21
31.2903589434
  0
LINE
  5
280
100
AcDbEntity
  8
0
100
AcDbLine
 62
7
  6
CONTINUOUS
 10
150.9892539132
 20
30.5805577631
 11
151.1626914132
 21
30.6773488336
  0
LINE
  5
281
100
AcDbEntity
  8
0
100
AcDbLine
 62
7
  6
CONTINUOUS
 10
150.0064414821
 20
30.5160303817
 11
150.3533164408
 21
30.4837666925
  0
LINE
  5
282
100
AcDbEntity
  8
0
100
AcDbLine
 62
7
  6
CONTINUOUS
 10
154.1111290786
 20
30.5160303817
 11
154.3423788581
 21
30.4837666925
  0
LINE
  5
283
100
AcDbEntity
  8
0
100
AcDbLine
 62
7
  6
CONTINUOUS
 10
152.4923789683
 20
31.3871500027
 11
152.7236290786
 21
31.3548863163
  0
LINE
  5
284
100
AcDbEntity
  8
0
100
AcDbLine
 62
7
  6
CONTINUOUS
 10
154.8048790786
 20
31.3871500027
 11
155.0361291889
 21
31.3548863163
  0
LINE
  5
285
100
AcDbEntity
  8
0
100
AcDbLine
 62
7
  6
CONTINUOUS
 10
159.2564414683
 20
31.0322494069
 11
160.2392541889
 21
30.8709309748
  0
LINE
  5
286
100
AcDbEntity
  8
0
100
AcDbLine
 62
7
  6
CONTINUOUS
 10
160.4126916889
 20
30.967722034
 11
159.4298789683
 21
31.1290405113
  0
LINE
  5
287
100
AcDbEntity
  8
0
100
AcDbLine
 62
7
  6
CONTINUOUS
 10
152.8970665786
 20
31.483941062
 11
152.7236290786
 21
31.5162047484
  0
LINE
  5
288
100
AcDbEntity
  8
0
100
AcDbLine
 62
7
  6
CONTINUOUS
 10
159.1986291889
 20
30.548294071
 11
159.3720666889
 21
30.5160303817
  0
LINE
  5
289
100
AcDbEntity
  8
0
100
AcDbLine
 62
7
  6
CONTINUOUS
 10
158.0423789683
 20
31.483941062
 11
157.8689414683
 21
31.5162047484
  0
LINE
  5
28A
100
AcDbEntity
  8
0
100
AcDbLine
 62
7
  6
CONTINUOUS
 10
160.2970664683
 20
31.3548863163
 11
160.4126916889
 21
31.3226226299
  0
LINE
  5
28B
100
AcDbEntity
  8
0
100
AcDbLine
 62
7
  6
CONTINUOUS
 10
160.4705039683
 20
30.7418762065
 11
160.4126916889
 21
30.6773488336
  0
LINE
  5
28C
100
AcDbEntity
  8
0
100
AcDbLine
 62
7
  6
CONTINUOUS
 10
159.0251916889
 20
31.4194136891
 11
158.9095664683
 21
31.3226226299
  0
LINE
  5
28D
100
AcDbEntity
  8
0
100
AcDbLine
 62
7
  6
CONTINUOUS
 10
153.9376915786
 20
31.4516773756
 11
153.8220663581
 21
31.3871500027
  0
LINE
  5
28E
100
AcDbEntity
  8
0
100
AcDbLine
 62
7
  6
CONTINUOUS
 10
153.9955038581
 20
31.0645131385
 11
153.8798789683
 21
30.9999857205
  0
LINE
  5
28F
100
AcDbEntity
  8
0
100
AcDbLine
 62
7
  6
CONTINUOUS
 10
154.1111290786
 20
30.9031946612
 11
154.2267539683
 21
30.967722034
  0
LINE
  5
290
100
AcDbEntity
  8
0
100
AcDbLine
 62
7
  6
CONTINUOUS
 10
151.6830039132
 20
30.4837666925
 11
151.9720664683
 21
30.4837666925
  0
LINE
  5
291
100
AcDbEntity
  8
0
100
AcDbLine
 62
7
  6
CONTINUOUS
 10
153.0126914683
 20
30.4837666925
 11
153.3017538581
 21
30.4837666925
  0
LINE
  5
292
100
AcDbEntity
  8
0
100
AcDbLine
 62
7
  6
CONTINUOUS
 10
154.3423788581
 20
30.4837666925
 11
154.6892538581
 21
30.4837666925
  0
LINE
  5
293
100
AcDbEntity
  8
0
100
AcDbLine
 62
7
  6
CONTINUOUS
 10
155.3251912478
 20
30.4837666925
 11
155.6142539683
 21
30.4837666925
  0
LINE
  5
294
100
AcDbEntity
  8
0
100
AcDbLine
 62
7
  6
CONTINUOUS
 10
156.0767541889
 20
30.4837666925
 11
156.3658162478
 21
30.4837666925
  0
LINE
  5
295
100
AcDbEntity
  8
0
100
AcDbLine
 62
7
  6
CONTINUOUS
 10
156.8283164683
 20
30.4837666925
 11
157.1173791889
 21
30.4837666925
  0
LINE
  5
296
100
AcDbEntity
  8
0
100
AcDbLine
 62
7
  6
CONTINUOUS
 10
158.1580041889
 20
30.4837666925
 11
158.4470662478
 21
30.4837666925
  0
LINE
  5
297
100
AcDbEntity
  8
0
100
AcDbLine
 62
7
  6
CONTINUOUS
 10
159.7189416889
 20
30.4837666925
 11
160.0658166889
 21
30.4837666925
  0
LINE
  5
298
100
AcDbEntity
  8
0
100
AcDbLine
 62
7
  6
CONTINUOUS
 10
160.0658166889
 20
30.6128214495
 11
159.7189416889
 21
30.6128214495
  0
LINE
  5
299
100
AcDbEntity
  8
0
100
AcDbLine
 62
7
  6
CONTINUOUS
 10
154.6892538581
 20
30.6128214495
 11
154.3423788581
 21
30.6128214495
  0
LINE
  5
29A
100
AcDbEntity
  8
0
100
AcDbLine
 62
7
  6
CONTINUOUS
 10
159.1986291889
 20
30.7418762065
 11
158.9095664683
 21
30.7418762065
  0
LINE
  5
29B
100
AcDbEntity
  8
0
100
AcDbLine
 62
7
  6
CONTINUOUS
 10
151.2205040235
 20
30.8064036019
 11
150.9314414683
 21
30.8064036019
  0
LINE
  5
29C
100
AcDbEntity
  8
0
100
AcDbLine
 62
7
  6
CONTINUOUS
 10
150.2955039959
 20
31.3871500027
 11
150.7001914408
 21
31.3548863163
  0
LINE
  5
29D
100
AcDbEntity
  8
0
100
AcDbLine
 62
7
  6
CONTINUOUS
 10
150.7580039683
 20
31.483941062
 11
150.3533164408
 21
31.5162047484
  0
LINE
  5
29E
100
AcDbEntity
  8
0
100
AcDbLine
 62
7
  6
CONTINUOUS
 10
159.3720666889
 20
30.5160303817
 11
159.7189416889
 21
30.4837666925
  0
LINE
  5
29F
100
AcDbEntity
  8
0
100
AcDbLine
 62
7
  6
CONTINUOUS
 10
159.7189416889
 20
30.6128214495
 11
159.3720666889
 21
30.6450851472
  0
LINE
  5
2A0
100
AcDbEntity
  8
0
100
AcDbLine
 62
7
  6
CONTINUOUS
 10
155.1517537478
 20
31.483941062
 11
154.8048790786
 21
31.5162047484
  0
LINE
  5
2A1
100
AcDbEntity
  8
0
100
AcDbLine
 62
7
  6
CONTINUOUS
 10
159.9501914683
 20
31.3871500027
 11
160.2970664683
 21
31.3548863163
  0
LINE
  5
2A2
100
AcDbEntity
  8
0
100
AcDbLine
 62
7
  6
CONTINUOUS
 10
160.2970664683
 20
31.483941062
 11
159.9501914683
 21
31.5162047484
  0
LINE
  5
2A3
100
AcDbEntity
  8
0
100
AcDbLine
 62
7
  6
CONTINUOUS
 10
157.6376916889
 20
31.3871500027
 11
157.8689414683
 21
31.3548863163
  0
LINE
  5
2A4
100
AcDbEntity
  8
0
100
AcDbLine
 62
7
  6
CONTINUOUS
 10
160.4705039683
 20
31.4516773756
 11
160.2970664683
 21
31.483941062
  0
LINE
  5
2A5
100
AcDbEntity
  8
0
100
AcDbLine
 62
7
  6
CONTINUOUS
 10
160.6439414683
 20
30.5805577631
 11
160.7595660273
 21
30.6773488336
  0
LINE
  5
2A6
100
AcDbEntity
  8
0
100
AcDbLine
 62
7
  6
CONTINUOUS
 10
155.1517537478
 20
30.7741399155
 11
154.9783162478
 21
30.6773488336
  0
LINE
  5
2A7
100
AcDbEntity
  8
0
100
AcDbLine
 62
7
  6
CONTINUOUS
 10
157.2330037478
 20
31.4194136891
 11
157.1173791889
 21
31.3548863163
  0
LINE
  5
2A8
100
AcDbEntity
  8
0
100
AcDbLine
 62
7
  6
CONTINUOUS
 10
157.1173791889
 20
31.2258315706
 11
157.2330037478
 21
31.2903589434
  0
LINE
  5
2A9
100
AcDbEntity
  8
0
100
AcDbLine
 62
7
  6
CONTINUOUS
 10
149.8330039821
 20
31.4516773756
 11
149.6595664615
 21
31.3871500027
  0
LINE
  5
2AA
100
AcDbEntity
  8
0
100
AcDbLine
 62
7
  6
CONTINUOUS
 10
152.2611288581
 20
31.483941062
 11
152.0876915235
 21
31.4194136891
  0
LINE
  5
2AB
100
AcDbEntity
  8
0
100
AcDbLine
 62
7
  6
CONTINUOUS
 10
152.0876915235
 20
31.2903589434
 11
152.2611288581
 21
31.3548863163
  0
LINE
  5
2AC
100
AcDbEntity
  8
0
100
AcDbLine
 62
7
  6
CONTINUOUS
 10
150.8736290235
 20
30.7096125201
 11
150.7001914408
 21
30.6450851472
  0
LINE
  5
2AD
100
AcDbEntity
  8
0
100
AcDbLine
 62
7
  6
CONTINUOUS
 10
160.2970664683
 20
30.6450851472
 11
160.0658166889
 21
30.6128214495
  0
LINE
  5
2AE
100
AcDbEntity
  8
0
100
AcDbLine
 62
7
  6
CONTINUOUS
 10
154.6892538581
 20
30.4837666925
 11
154.9783162478
 21
30.5160303817
  0
LINE
  5
2AF
100
AcDbEntity
  8
0
100
AcDbLine
 62
7
  6
CONTINUOUS
 10
160.0658166889
 20
30.4837666925
 11
160.4126916889
 21
30.5160303817
  0
LINE
  5
2B0
100
AcDbEntity
  8
0
100
AcDbLine
 62
7
  6
CONTINUOUS
 10
150.3533164408
 20
30.4837666925
 11
150.7580039683
 21
30.5160303817
  0
LINE
  5
2B1
100
AcDbEntity
  8
0
100
AcDbLine
 62
7
  6
CONTINUOUS
 10
150.7001914408
 20
30.6450851472
 11
150.2955039959
 21
30.6128214495
  0
LINE
  5
2B2
100
AcDbEntity
  8
0
100
AcDbLine
 62
7
  6
CONTINUOUS
 10
154.5736289683
 20
31.0322494069
 11
155.2095666889
 21
31.0322494069
  0
LINE
  5
2B3
100
AcDbEntity
  8
0
100
AcDbLine
 62
7
  6
CONTINUOUS
 10
155.2095666889
 20
31.1613041978
 11
154.5736289683
 21
31.1613041978
  0
LINE
  5
2B4
100
AcDbEntity
  8
0
100
AcDbLine
 62
7
  6
CONTINUOUS
 10
150.9314414683
 20
31.1935678842
 11
151.2205040235
 21
31.1935678842
  0
LINE
  5
2B5
100
AcDbEntity
  8
0
100
AcDbLine
 62
7
  6
CONTINUOUS
 10
153.7642540786
 20
31.258095257
 11
154.0533164683
 21
31.258095257
  0
LINE
  5
2B6
100
AcDbEntity
  8
0
100
AcDbLine
 62
7
  6
CONTINUOUS
 10
160.4705039683
 20
31.258095257
 11
160.7595660273
 21
31.258095257
  0
LINE
  5
2B7
100
AcDbEntity
  8
0
100
AcDbLine
 62
7
  6
CONTINUOUS
 10
154.4580040786
 20
31.3871500027
 11
154.8048790786
 21
31.3871500027
  0
LINE
  5
2B8
100
AcDbEntity
  8
0
100
AcDbLine
 62
7
  6
CONTINUOUS
 10
159.6033164683
 20
31.3871500027
 11
159.9501914683
 21
31.3871500027
  0
LINE
  5
2B9
100
AcDbEntity
  8
0
100
AcDbLine
 62
7
  6
CONTINUOUS
 10
159.9501914683
 20
31.5162047484
 11
159.6033164683
 21
31.5162047484
  0
LINE
  5
2BA
100
AcDbEntity
  8
0
100
AcDbLine
 62
7
  6
CONTINUOUS
 10
157.8689414683
 20
31.5162047484
 11
157.6376916889
 21
31.5162047484
  0
LINE
  5
2BB
100
AcDbEntity
  8
0
100
AcDbLine
 62
7
  6
CONTINUOUS
 10
157.1173791889
 20
31.5162047484
 11
156.8283164683
 21
31.5162047484
  0
LINE
  5
2BC
100
AcDbEntity
  8
0
100
AcDbLine
 62
7
  6
CONTINUOUS
 10
156.3658162478
 20
31.5162047484
 11
156.0767541889
 21
31.5162047484
  0
LINE
  5
2BD
100
AcDbEntity
  8
0
100
AcDbLine
 62
7
  6
CONTINUOUS
 10
154.8048790786
 20
31.5162047484
 11
154.4580040786
 21
31.5162047484
  0
LINE
  5
2BE
100
AcDbEntity
  8
0
100
AcDbLine
 62
7
  6
CONTINUOUS
 10
152.7236290786
 20
31.5162047484
 11
152.4923789683
 21
31.5162047484
  0
LINE
  5
2BF
100
AcDbEntity
  8
0
100
AcDbLine
 62
7
  6
CONTINUOUS
 10
156.0767541889
 20
31.838841703
 11
156.3658162478
 21
31.838841703
  0
LINE
  5
2C0
100
AcDbEntity
  8
0
100
AcDbLine
 62
7
  6
CONTINUOUS
 10
156.3658162478
 20
32.0001601351
 11
156.0767541889
 21
32.0001601351
  0
LINE
  5
2C1
100
AcDbEntity
  8
0
100
AcDbLine
 62
7
  6
CONTINUOUS
 10
151.9720664683
 20
32.0001601351
 11
151.6830039132
 21
32.0001601351
  0
LINE
  5
2C2
100
AcDbEntity
  8
0
100
AcDbLine
 62
7
  6
CONTINUOUS
 10
151.0098482306
 20
32.287045381
 11
151.4224195792
 21
32.287045381
  0
LINE
  5
2C3
100
AcDbEntity
  8
0
100
AcDbLine
 62
7
  6
CONTINUOUS
 10
152.6491924929
 20
32.287045381
 11
154.0426351159
 21
32.287045381
  0
LINE
  5
2C4
100
AcDbEntity
  8
0
100
AcDbLine
 62
7
  6
CONTINUOUS
 10
154.3705039683
 20
32.287045381
 11
155.7639465913
 21
32.287045381
  0
LINE
  5
2C5
100
AcDbEntity
  8
0
100
AcDbLine
 62
7
  6
CONTINUOUS
 10
157.6491924929
 20
32.287045381
 11
159.0426351159
 21
32.287045381
  0
LINE
  5
2C6
100
AcDbEntity
  8
0
100
AcDbLine
 62
7
  6
CONTINUOUS
 10
159.3705039683
 20
32.287045381
 11
160.7639465913
 21
32.287045381
  0
LINE
  5
2C7
100
AcDbEntity
  8
0
100
AcDbLine
 62
7
  6
CONTINUOUS
 10
157.4064412478
 20
31.483941062
 11
157.2330037478
 21
31.4194136891
  0
LINE
  5
2C8
100
AcDbEntity
  8
0
100
AcDbLine
 62
7
  6
CONTINUOUS
 10
154.9783162478
 20
30.5160303817
 11
155.1517537478
 21
30.5805577631
  0
LINE
  5
2C9
100
AcDbEntity
  8
0
100
AcDbLine
 62
7
  6
CONTINUOUS
 10
160.4126916889
 20
30.5160303817
 11
160.6439414683
 21
30.5805577631
  0
LINE
  5
2CA
100
AcDbEntity
  8
0
100
AcDbLine
 62
7
  6
CONTINUOUS
 10
160.4126916889
 20
30.6773488336
 11
160.2970664683
 21
30.6450851472
  0
LINE
  5
2CB
100
AcDbEntity
  8
0
100
AcDbLine
 62
7
  6
CONTINUOUS
 10
159.3720666889
 20
31.3548863163
 11
159.6033164683
 21
31.3871500027
  0
LINE
  5
2CC
100
AcDbEntity
  8
0
100
AcDbLine
 62
7
  6
CONTINUOUS
 10
157.4064412478
 20
31.3548863163
 11
157.6376916889
 21
31.3871500027
  0
LINE
  5
2CD
100
AcDbEntity
  8
0
100
AcDbLine
 62
7
  6
CONTINUOUS
 10
154.3423788581
 20
30.9999857205
 11
154.5736289683
 21
31.0322494069
  0
LINE
  5
2CE
100
AcDbEntity
  8
0
100
AcDbLine
 62
7
  6
CONTINUOUS
 10
157.6376916889
 20
31.5162047484
 11
157.4064412478
 21
31.483941062
  0
LINE
  5
2CF
100
AcDbEntity
  8
0
100
AcDbLine
 62
7
  6
CONTINUOUS
 10
154.2267539683
 20
31.3548863163
 11
154.4580040786
 21
31.3871500027
  0
LINE
  5
2D0
100
AcDbEntity
  8
0
100
AcDbLine
 62
7
  6
CONTINUOUS
 10
159.6033164683
 20
31.5162047484
 11
159.2564414683
 21
31.483941062
  0
LINE
  5
2D1
100
AcDbEntity
  8
0
100
AcDbLine
 62
7
  6
CONTINUOUS
 10
154.5736289683
 20
31.1613041978
 11
154.2267539683
 21
31.1290405113
  0
LINE
  5
2D2
100
AcDbEntity
  8
0
100
AcDbLine
 62
7
  6
CONTINUOUS
 10
150.3533164408
 20
31.5162047484
 11
150.0064414821
 21
31.483941062
  0
LINE
  5
2D3
100
AcDbEntity
  8
0
100
AcDbLine
 62
7
  6
CONTINUOUS
 10
154.4580040786
 20
31.5162047484
 11
154.0533164683
 21
31.483941062
  0
LINE
  5
2D4
100
AcDbEntity
  8
0
100
AcDbLine
 62
7
  6
CONTINUOUS
 10
151.8295203618
 20
33.4345863646
 11
151.1737826569
 21
33.4345863646
  0
LINE
  5
2D5
100
AcDbEntity
  8
0
100
AcDbLine
 62
7
  6
CONTINUOUS
 10
157.2330037478
 20
31.2903589434
 11
157.4064412478
 21
31.3548863163
  0
LINE
  5
2D6
100
AcDbEntity
  8
0
100
AcDbLine
 62
7
  6
CONTINUOUS
 10
159.2564414683
 20
31.3226226299
 11
159.3720666889
 21
31.3548863163
  0
LINE
  5
2D7
100
AcDbEntity
  8
0
100
AcDbLine
 62
7
  6
CONTINUOUS
 10
159.2564414683
 20
31.483941062
 11
159.0251916889
 21
31.4194136891
  0
LINE
  5
2D8
100
AcDbEntity
  8
0
100
AcDbLine
 62
7
  6
CONTINUOUS
 10
154.9783162478
 20
30.6773488336
 11
154.6892538581
 21
30.6128214495
  0
LINE
  5
2D9
100
AcDbEntity
  8
0
100
AcDbLine
 62
7
  6
CONTINUOUS
 10
152.2611288581
 20
31.3548863163
 11
152.4923789683
 21
31.3871500027
  0
LINE
  5
2DA
100
AcDbEntity
  8
0
100
AcDbLine
 62
7
  6
CONTINUOUS
 10
152.4923789683
 20
31.5162047484
 11
152.2611288581
 21
31.483941062
  0
LINE
  5
2DB
100
AcDbEntity
  8
0
100
AcDbLine
 62
7
  6
CONTINUOUS
 10
150.0642539683
 20
31.3548863163
 11
150.2955039959
 21
31.3871500027
  0
LINE
  5
2DC
100
AcDbEntity
  8
0
100
AcDbLine
 62
7
  6
CONTINUOUS
 10
156.5836187224
 20
34.9099962007
 11
157.2393564274
 21
34.9099962007
  0
LINE
  5
2DD
100
AcDbEntity
  8
0
100
AcDbLine
 62
7
  6
CONTINUOUS
 10
154.2267539683
 20
30.967722034
 11
154.3423788581
 21
30.9999857205
  0
LINE
  5
2DE
100
AcDbEntity
  8
0
100
AcDbLine
 62
7
  6
CONTINUOUS
 10
154.2267539683
 20
31.1290405113
 11
153.9955038581
 21
31.0645131385
  0
LINE
  5
2DF
100
AcDbEntity
  8
0
100
AcDbLine
 62
7
  6
CONTINUOUS
 10
154.1111290786
 20
31.3226226299
 11
154.2267539683
 21
31.3548863163
  0
LINE
  5
2E0
100
AcDbEntity
  8
0
100
AcDbLine
 62
7
  6
CONTINUOUS
 10
150.7580039683
 20
30.5160303817
 11
150.9892539132
 21
30.5805577631
  0
LINE
  5
2E1
100
AcDbEntity
  8
0
100
AcDbLine
 62
7
  6
CONTINUOUS
 10
154.0533164683
 20
31.483941062
 11
153.9376915786
 21
31.4516773756
  0
LINE
  5
2E2
100
AcDbEntity
  8
0
100
AcDbLine
 62
7
  6
CONTINUOUS
 10
150.0064414821
 20
31.483941062
 11
149.8330039821
 21
31.4516773756
  0
LINE
  5
2E3
100
AcDbEntity
  8
0
100
AcDbLine
 62
7
  6
CONTINUOUS
 10
160.7639465913
 20
36.0575371843
 11
159.3705039683
 21
36.0575371843
  0
LINE
  5
2E4
100
AcDbEntity
  8
0
100
AcDbLine
 62
7
  6
CONTINUOUS
 10
157.4032908536
 20
36.0575371843
 11
156.990719505
 21
36.0575371843
  0
LINE
  5
2E5
100
AcDbEntity
  8
0
100
AcDbLine
 62
7
  6
CONTINUOUS
 10
155.7639465913
 20
36.0575371843
 11
154.3705039683
 21
36.0575371843
  0
LINE
  5
2E6
100
AcDbEntity
  8
0
100
AcDbLine
 62
7
  6
CONTINUOUS
 10
154.0426351159
 20
36.0575371843
 11
152.6491924929
 21
36.0575371843
  0
LINE
  5
2E7
100
AcDbEntity
  8
0
100
AcDbLine
 62
7
  6
CONTINUOUS
 10
150.7639465913
 20
36.0575371843
 11
149.3705039683
 21
36.0575371843
  0
LINE
  5
2E8
100
AcDbEntity
  8
0
100
AcDbLine
 62
7
  6
CONTINUOUS
 10
149.9486289546
 20
31.3226226299
 11
150.0642539683
 21
31.3548863163
  0
CIRCLE
  5
2E9
100
AcDbEntity
  8
0
100
AcDbCircle
 62
7
  6
CONTINUOUS
 10
160.0672252798
 20
38.3936027581
 40
2.0901639344
  0
ARC
  5
2EA
100
AcDbEntity
  8
0
100
AcDbCircle
 62
7
  6
CONTINUOUS
 10
151.0098482306
 20
33.9263896433
 40
1.6393442623
100
AcDbArc
 50
180.0
 51
270.0
  0
ARC
  5
2EB
100
AcDbEntity
  8
0
100
AcDbCircle
 62
7
  6
CONTINUOUS
 10
157.4032908536
 20
34.418192922
 40
1.6393442623
100
AcDbArc
 50
0.0
 51
90.0
  0
ARC
  5
2EC
100
AcDbEntity
  8
0
100
AcDbCircle
 62
7
  6
CONTINUOUS
 10
151.4224195792
 20
33.7624552171
 40
1.4754098361
100
AcDbArc
 50
270.0
 51
326.2510114041
  0
ARC
  5
2ED
100
AcDbEntity
  8
0
100
AcDbCircle
 62
7
  6
CONTINUOUS
 10
156.990719505
 20
34.5821273482
 40
1.4754098361
100
AcDbArc
 50
90.0
 51
146.2510114041
  0
ARC
  5
2EE
100
AcDbEntity
  8
0
100
AcDbCircle
 62
7
  6
CONTINUOUS
 10
151.8295203618
 20
34.2542584958
 40
0.8196721311
100
AcDbArc
 50
270.0
 51
360.0
  0
ARC
  5
2EF
100
AcDbEntity
  8
0
100
AcDbCircle
 62
7
  6
CONTINUOUS
 10
156.5836187224
 20
34.0903240696
 40
0.8196721311
100
AcDbArc
 50
90.0
 51
180.0
  0
ARC
  5
2F0
100
AcDbEntity
  8
0
100
AcDbCircle
 62
7
  6
CONTINUOUS
 10
151.1737826569
 20
33.8444224302
 40
0.4098360656
100
AcDbArc
 50
180.0
 51
270.0
  0
ARC
  5
2F1
100
AcDbEntity
  8
0
100
AcDbCircle
 62
7
  6
CONTINUOUS
 10
157.2393564274
 20
34.5001601351
 40
0.4098360656
100
AcDbArc
 50
0.0
 51
90.0
  0
SOLID
  5
2F2
100
AcDbEntity
  8
0
100
AcDbTrace
 62
7
  6
CONTINUOUS
 10
156.0767541889
 20
31.8388420633
 11
156.0767541889
 21
32.0001605469
 12
156.3658162478
 22
31.8388420633
 13
156.3658162478
 23
32.0001605469
  0
LWPOLYLINE
  5
2F3
100
AcDbEntity
  8
0
100
AcDbPolyline
 62
7
  6
CONTINUOUS
 90
13
 70
0
 10
150.3533164408
 20
31.5162050961
 10
150.7580039683
 20
31.4839407928
 10
150.9892539132
 20
31.4194137026
 10
151.1626914132
 20
31.3226223092
 10
151.2205040235
 20
31.1935681288
 10
150.9314414683
 20
31.1935681288
 10
150.8736290235
 20
31.2903595223
 10
150.7001914408
 20
31.3548866125
 10
150.2955039959
 20
31.3871493993
 10
149.6595664615
 20
31.3871493993
 10
149.8330039821
 20
31.4516780059
 10
150.0064414821
 20
31.4839407928
 10
150.3533164408
 20
31.5162050961
  0
HATCH
  5
2F4
100
AcDbEntity
  8
0
100
AcDbHatch
 62
7
  6
CONTINUOUS
 10
0.0
 20
0.0
 30
0.0
210
0.0
220
0.0
230
1.0
  2
SOLID
 70
1
 71
1
 91
1
 92
1
 93
12
 72
1
 10
150.3533164408
 20
31.5162050961
 11
150.7580039683
 21
31.4839407928
 72
1
 10
150.7580039683
 20
31.4839407928
 11
150.9892539132
 21
31.4194137026
 72
1
 10
150.9892539132
 20
31.4194137026
 11
151.1626914132
 21
31.3226223092
 72
1
 10
151.1626914132
 20
31.3226223092
 11
151.2205040235
 21
31.1935681288
 72
1
 10
151.2205040235
 20
31.1935681288
 11
150.9314414683
 21
31.1935681288
 72
1
 10
150.9314414683
 20
31.1935681288
 11
150.8736290235
 21
31.2903595223
 72
1
 10
150.8736290235
 20
31.2903595223
 11
150.7001914408
 21
31.3548866125
 72
1
 10
150.7001914408
 20
31.3548866125
 11
150.2955039959
 21
31.3871493993
 72
1
 10
150.2955039959
 20
31.3871493993
 11
149.6595664615
 21
31.3871493993
 72
1
 10
149.6595664615
 20
31.3871493993
 11
149.8330039821
 21
31.4516780059
 72
1
 10
149.8330039821
 20
31.4516780059
 11
150.0064414821
 21
31.4839407928
 72
1
 10
150.0064414821
 20
31.4839407928
 11
150.3533164408
 21
31.5162050961
 97
1
330
2F3
 75
0
 76
1
 98
1
 10
0.0
 20
0.0
  0
LWPOLYLINE
  5
2F5
100
AcDbEntity
  8
0
100
AcDbPolyline
 62
7
  6
CONTINUOUS
 90
25
 70
0
 10
152.2611288581
 20
31.4839407928
 10
152.4923789683
 20
31.5162050961
 10
152.7236290786
 20
31.5162050961
 10
152.8970665786
 20
31.4839407928
 10
153.0705040786
 20
31.4194137026
 10
153.1861289683
 20
31.3548866125
 10
153.2439415786
 20
31.2903595223
 10
153.3017538581
 20
31.1290410387
 10
153.3017538581
 20
30.4837671043
 10
153.0126914683
 20
30.4837671043
 10
153.0126914683
 20
31.1290410387
 10
152.9548788581
 20
31.258095219
 10
152.8392539683
 20
31.3226223092
 10
152.7236290786
 20
31.3548866125
 10
152.4923789683
 20
31.3871493993
 10
152.2611288581
 20
31.3548866125
 10
152.0876915235
 20
31.2903595223
 10
151.9720664683
 20
31.2258309157
 10
151.9720664683
 20
30.4837671043
 10
151.6830039132
 20
30.4837671043
 10
151.6830039132
 20
32.0001605469
 10
151.9720664683
 20
32.0001605469
 10
151.9720664683
 20
31.3548866125
 10
152.0876915235
 20
31.4194137026
 10
152.2611288581
 20
31.4839407928
  0
HATCH
  5
2F6
100
AcDbEntity
  8
0
100
AcDbHatch
 62
7
  6
CONTINUOUS
 10
0.0
 20
0.0
 30
0.0
210
0.0
220
0.0
230
1.0
  2
SOLID
 70
1
 71
1
 91
1
 92
1
 93
24
 72
1
 10
152.2611288581
 20
31.4839407928
 11
152.4923789683
 21
31.5162050961
 72
1
 10
152.4923789683
 20
31.5162050961
 11
152.7236290786
 21
31.5162050961
 72
1
 10
152.7236290786
 20
31.5162050961
 11
152.8970665786
 21
31.4839407928
 72
1
 10
152.8970665786
 20
31.4839407928
 11
153.0705040786
 21
31.4194137026
 72
1
 10
153.0705040786
 20
31.4194137026
 11
153.1861289683
 21
31.3548866125
 72
1
 10
153.1861289683
 20
31.3548866125
 11
153.2439415786
 21
31.2903595223
 72
1
 10
153.2439415786
 20
31.2903595223
 11
153.3017538581
 21
31.1290410387
 72
1
 10
153.3017538581
 20
31.1290410387
 11
153.3017538581
 21
30.4837671043
 72
1
 10
153.3017538581
 20
30.4837671043
 11
153.0126914683
 21
30.4837671043
 72
1
 10
153.0126914683
 20
30.4837671043
 11
153.0126914683
 21
31.1290410387
 72
1
 10
153.0126914683
 20
31.1290410387
 11
152.9548788581
 21
31.258095219
 72
1
 10
152.9548788581
 20
31.258095219
 11
152.8392539683
 21
31.3226223092
 72
1
 10
152.8392539683
 20
31.3226223092
 11
152.7236290786
 21
31.3548866125
 72
1
 10
152.7236290786
 20
31.3548866125
 11
152.4923789683
 21
31.3871493993
 72
1
 10
152.4923789683
 20
31.3871493993
 11
152.2611288581
 21
31.3548866125
 72
1
 10
152.2611288581
 20
31.3548866125
 11
152.0876915235
 21
31.2903595223
 72
1
 10
152.0876915235
 20
31.2903595223
 11
151.9720664683
 21
31.2258309157
 72
1
 10
151.9720664683
 20
31.2258309157
 11
151.9720664683
 21
30.4837671043
 72
1
 10
151.9720664683
 20
30.4837671043
 11
151.6830039132
 21
30.4837671043
 72
1
 10
151.6830039132
 20
30.4837671043
 11
151.6830039132
 21
32.0001605469
 72
1
 10
151.6830039132
 20
32.0001605469
 11
151.9720664683
 21
32.0001605469
 72
1
 10
151.9720664683
 20
32.0001605469
 11
151.9720664683
 21
31.3548866125
 72
1
 10
151.9720664683
 20
31.3548866125
 11
152.0876915235
 21
31.4194137026
 72
1
 10
152.0876915235
 20
31.4194137026
 11
152.2611288581
 21
31.4839407928
 97
1
330
2F5
 75
0
 76
1
 98
1
 10
0.0
 20
0.0
  0
LWPOLYLINE
  5
2F7
100
AcDbEntity
  8
0
100
AcDbPolyline
 62
7
  6
CONTINUOUS
 90
20
 70
0
 10
154.0533164683
 20
31.4839407928
 10
154.4580040786
 20
31.5162050961
 10
154.8048790786
 20
31.5162050961
 10
155.1517537478
 20
31.4839407928
 10
155.3251912478
 20
31.4194137026
 10
155.4408164683
 20
31.3548866125
 10
155.4986287478
 20
31.258095219
 10
155.4986287478
 20
30.7418754649
 10
155.2095666889
 20
30.8386672883
 10
155.2095666889
 20
31.0322496452
 10
155.2095666889
 20
31.1613038256
 10
155.2095666889
 20
31.258095219
 10
155.1517537478
 20
31.3226223092
 10
155.0361291889
 20
31.3548866125
 10
154.8048790786
 20
31.3871493993
 10
154.4580040786
 20
31.3871493993
 10
153.7642540786
 20
31.3226223092
 10
153.8220663581
 20
31.3871493993
 10
153.9376915786
 20
31.4516780059
 10
154.0533164683
 20
31.4839407928
  0
HATCH
  5
2F8
100
AcDbEntity
  8
0
100
AcDbHatch
 62
7
  6
CONTINUOUS
 10
0.0
 20
0.0
 30
0.0
210
0.0
220
0.0
230
1.0
  2
SOLID
 70
1
 71
1
 91
1
 92
1
 93
19
 72
1
 10
154.0533164683
 20
31.4839407928
 11
154.4580040786
 21
31.5162050961
 72
1
 10
154.4580040786
 20
31.5162050961
 11
154.8048790786
 21
31.5162050961
 72
1
 10
154.8048790786
 20
31.5162050961
 11
155.1517537478
 21
31.4839407928
 72
1
 10
155.1517537478
 20
31.4839407928
 11
155.3251912478
 21
31.4194137026
 72
1
 10
155.3251912478
 20
31.4194137026
 11
155.4408164683
 21
31.3548866125
 72
1
 10
155.4408164683
 20
31.3548866125
 11
155.4986287478
 21
31.258095219
 72
1
 10
155.4986287478
 20
31.258095219
 11
155.4986287478
 21
30.7418754649
 72
1
 10
155.4986287478
 20
30.7418754649
 11
155.2095666889
 21
30.8386672883
 72
1
 10
155.2095666889
 20
30.8386672883
 11
155.2095666889
 21
31.0322496452
 72
1
 10
155.2095666889
 20
31.0322496452
 11
155.2095666889
 21
31.1613038256
 72
1
 10
155.2095666889
 20
31.1613038256
 11
155.2095666889
 21
31.258095219
 72
1
 10
155.2095666889
 20
31.258095219
 11
155.1517537478
 21
31.3226223092
 72
1
 10
155.1517537478
 20
31.3226223092
 11
155.0361291889
 21
31.3548866125
 72
1
 10
155.0361291889
 20
31.3548866125
 11
154.8048790786
 21
31.3871493993
 72
1
 10
154.8048790786
 20
31.3871493993
 11
154.4580040786
 21
31.3871493993
 72
1
 10
154.4580040786
 20
31.3871493993
 11
153.7642540786
 21
31.3226223092
 72
1
 10
153.7642540786
 20
31.3226223092
 11
153.8220663581
 21
31.3871493993
 72
1
 10
153.8220663581
 20
31.3871493993
 11
153.9376915786
 21
31.4516780059
 72
1
 10
153.9376915786
 20
31.4516780059
 11
154.0533164683
 21
31.4839407928
 97
1
330
2F7
 75
0
 76
1
 98
1
 10
0.0
 20
0.0
  0
LWPOLYLINE
  5
2F9
100
AcDbEntity
  8
0
100
AcDbPolyline
 62
7
  6
CONTINUOUS
 90
25
 70
0
 10
157.4064412478
 20
31.4839407928
 10
157.6376916889
 20
31.5162050961
 10
157.8689414683
 20
31.5162050961
 10
158.0423789683
 20
31.4839407928
 10
158.2158164683
 20
31.4194137026
 10
158.3314416889
 20
31.3548866125
 10
158.3892539683
 20
31.258095219
 10
158.4470662478
 20
31.0967767354
 10
158.4470662478
 20
30.4837671043
 10
158.1580041889
 20
30.4837671043
 10
158.1580041889
 20
31.0967767354
 10
158.1001912478
 20
31.258095219
 10
157.9845666889
 20
31.3226223092
 10
157.8689414683
 20
31.3548866125
 10
157.6376916889
 20
31.3871493993
 10
157.4064412478
 20
31.3548866125
 10
157.2330037478
 20
31.2903595223
 10
157.1173791889
 20
31.2258309157
 10
157.1173791889
 20
30.4837671043
 10
156.8283164683
 20
30.4837671043
 10
156.8283164683
 20
31.5162050961
 10
157.1173791889
 20
31.5162050961
 10
157.1173791889
 20
31.3548866125
 10
157.2330037478
 20
31.4194137026
 10
157.4064412478
 20
31.4839407928
  0
HATCH
  5
2FA
100
AcDbEntity
  8
0
100
AcDbHatch
 62
7
  6
CONTINUOUS
 10
0.0
 20
0.0
 30
0.0
210
0.0
220
0.0
230
1.0
  2
SOLID
 70
1
 71
1
 91
1
 92
1
 93
24
 72
1
 10
157.4064412478
 20
31.4839407928
 11
157.6376916889
 21
31.5162050961
 72
1
 10
157.6376916889
 20
31.5162050961
 11
157.8689414683
 21
31.5162050961
 72
1
 10
157.8689414683
 20
31.5162050961
 11
158.0423789683
 21
31.4839407928
 72
1
 10
158.0423789683
 20
31.4839407928
 11
158.2158164683
 21
31.4194137026
 72
1
 10
158.2158164683
 20
31.4194137026
 11
158.3314416889
 21
31.3548866125
 72
1
 10
158.3314416889
 20
31.3548866125
 11
158.3892539683
 21
31.258095219
 72
1
 10
158.3892539683
 20
31.258095219
 11
158.4470662478
 21
31.0967767354
 72
1
 10
158.4470662478
 20
31.0967767354
 11
158.4470662478
 21
30.4837671043
 72
1
 10
158.4470662478
 20
30.4837671043
 11
158.1580041889
 21
30.4837671043
 72
1
 10
158.1580041889
 20
30.4837671043
 11
158.1580041889
 21
31.0967767354
 72
1
 10
158.1580041889
 20
31.0967767354
 11
158.1001912478
 21
31.258095219
 72
1
 10
158.1001912478
 20
31.258095219
 11
157.9845666889
 21
31.3226223092
 72
1
 10
157.9845666889
 20
31.3226223092
 11
157.8689414683
 21
31.3548866125
 72
1
 10
157.8689414683
 20
31.3548866125
 11
157.6376916889
 21
31.3871493993
 72
1
 10
157.6376916889
 20
31.3871493993
 11
157.4064412478
 21
31.3548866125
 72
1
 10
157.4064412478
 20
31.3548866125
 11
157.2330037478
 21
31.2903595223
 72
1
 10
157.2330037478
 20
31.2903595223
 11
157.1173791889
 21
31.2258309157
 72
1
 10
157.1173791889
 20
31.2258309157
 11
157.1173791889
 21
30.4837671043
 72
1
 10
157.1173791889
 20
30.4837671043
 11
156.8283164683
 21
30.4837671043
 72
1
 10
156.8283164683
 20
30.4837671043
 11
156.8283164683
 21
31.5162050961
 72
1
 10
156.8283164683
 20
31.5162050961
 11
157.1173791889
 21
31.5162050961
 72
1
 10
157.1173791889
 20
31.5162050961
 11
157.1173791889
 21
31.3548866125
 72
1
 10
157.1173791889
 20
31.3548866125
 11
157.2330037478
 21
31.4194137026
 72
1
 10
157.2330037478
 20
31.4194137026
 11
157.4064412478
 21
31.4839407928
 97
1
330
2F9
 75
0
 76
1
 98
1
 10
0.0
 20
0.0
  0
LWPOLYLINE
  5
2FB
100
AcDbEntity
  8
0
100
AcDbPolyline
 62
7
  6
CONTINUOUS
 90
6
 70
0
 10
159.2564414683
 20
31.4839407928
 10
159.6033164683
 20
31.5162050961
 10
159.9501914683
 20
31.5162050961
 10
160.2970664683
 20
31.4839407928
 10
159.0251916889
 20
31.4194137026
 10
159.2564414683
 20
31.4839407928
  0
HATCH
  5
2FC
100
AcDbEntity
  8
0
100
AcDbHatch
 62
7
  6
CONTINUOUS
 10
0.0
 20
0.0
 30
0.0
210
0.0
220
0.0
230
1.0
  2
SOLID
 70
1
 71
1
 91
1
 92
1
 93
5
 72
1
 10
159.2564414683
 20
31.4839407928
 11
159.6033164683
 21
31.5162050961
 72
1
 10
159.6033164683
 20
31.5162050961
 11
159.9501914683
 21
31.5162050961
 72
1
 10
159.9501914683
 20
31.5162050961
 11
160.2970664683
 21
31.4839407928
 72
1
 10
160.2970664683
 20
31.4839407928
 11
159.0251916889
 21
31.4194137026
 72
1
 10
159.0251916889
 20
31.4194137026
 11
159.2564414683
 21
31.4839407928
 97
1
330
2FB
 75
0
 76
1
 98
1
 10
0.0
 20
0.0
  0
LWPOLYLINE
  5
2FD
100
AcDbEntity
  8
0
100
AcDbPolyline
 62
7
  6
CONTINUOUS
 90
12
 70
0
 10
160.4705039683
 20
31.4516780059
 10
160.6439414683
 20
31.3871493993
 10
160.7595660273
 20
31.258095219
 10
160.4705039683
 20
31.258095219
 10
160.4126916889
 20
31.3226223092
 10
160.2970664683
 20
31.3548866125
 10
159.9501914683
 20
31.3871493993
 10
159.6033164683
 20
31.3871493993
 10
158.9095664683
 20
31.3226223092
 10
159.0251916889
 20
31.4194137026
 10
160.2970664683
 20
31.4839407928
 10
160.4705039683
 20
31.4516780059
  0
HATCH
  5
2FE
100
AcDbEntity
  8
0
100
AcDbHatch
 62
7
  6
CONTINUOUS
 10
0.0
 20
0.0
 30
0.0
210
0.0
220
0.0
230
1.0
  2
SOLID
 70
1
 71
1
 91
1
 92
1
 93
11
 72
1
 10
160.4705039683
 20
31.4516780059
 11
160.6439414683
 21
31.3871493993
 72
1
 10
160.6439414683
 20
31.3871493993
 11
160.7595660273
 21
31.258095219
 72
1
 10
160.7595660273
 20
31.258095219
 11
160.4705039683
 21
31.258095219
 72
1
 10
160.4705039683
 20
31.258095219
 11
160.4126916889
 21
31.3226223092
 72
1
 10
160.4126916889
 20
31.3226223092
 11
160.2970664683
 21
31.3548866125
 72
1
 10
160.2970664683
 20
31.3548866125
 11
159.9501914683
 21
31.3871493993
 72
1
 10
159.9501914683
 20
31.3871493993
 11
159.6033164683
 21
31.3871493993
 72
1
 10
159.6033164683
 20
31.3871493993
 11
158.9095664683
 21
31.3226223092
 72
1
 10
158.9095664683
 20
31.3226223092
 11
159.0251916889
 21
31.4194137026
 72
1
 10
159.0251916889
 20
31.4194137026
 11
160.2970664683
 21
31.4839407928
 72
1
 10
160.2970664683
 20
31.4839407928
 11
160.4705039683
 21
31.4516780059
 97
1
330
2FD
 75
0
 76
1
 98
1
 10
0.0
 20
0.0
  0
LWPOLYLINE
  5
2FF
100
AcDbEntity
  8
0
100
AcDbPolyline
 62
7
  6
CONTINUOUS
 90
7
 70
0
 10
150.0642539683
 20
31.3548866125
 10
149.9486289546
 20
31.3226223092
 10
149.4283164701
 20
31.1935681288
 10
149.5439414683
 20
31.3226223092
 10
149.6595664615
 20
31.3871493993
 10
150.2955039959
 20
31.3871493993
 10
150.0642539683
 20
31.3548866125
  0
HATCH
  5
300
100
AcDbEntity
  8
0
100
AcDbHatch
 62
7
  6
CONTINUOUS
 10
0.0
 20
0.0
 30
0.0
210
0.0
220
0.0
230
1.0
  2
SOLID
 70
1
 71
1
 91
1
 92
1
 93
6
 72
1
 10
150.0642539683
 20
31.3548866125
 11
149.9486289546
 21
31.3226223092
 72
1
 10
149.9486289546
 20
31.3226223092
 11
149.4283164701
 21
31.1935681288
 72
1
 10
149.4283164701
 20
31.1935681288
 11
149.5439414683
 21
31.3226223092
 72
1
 10
149.5439414683
 20
31.3226223092
 11
149.6595664615
 21
31.3871493993
 72
1
 10
149.6595664615
 20
31.3871493993
 11
150.2955039959
 21
31.3871493993
 72
1
 10
150.2955039959
 20
31.3871493993
 11
150.0642539683
 21
31.3548866125
 97
1
330
2FF
 75
0
 76
1
 98
1
 10
0.0
 20
0.0
  0
LWPOLYLINE
  5
301
100
AcDbEntity
  8
0
100
AcDbPolyline
 62
7
  6
CONTINUOUS
 90
7
 70
0
 10
154.2267539683
 20
31.3548866125
 10
154.1111290786
 20
31.3226223092
 10
154.0533164683
 20
31.258095219
 10
153.7642540786
 20
31.258095219
 10
153.7642540786
 20
31.3226223092
 10
154.4580040786
 20
31.3871493993
 10
154.2267539683
 20
31.3548866125
  0
HATCH
  5
302
100
AcDbEntity
  8
0
100
AcDbHatch
 62
7
  6
CONTINUOUS
 10
0.0
 20
0.0
 30
0.0
210
0.0
220
0.0
230
1.0
  2
SOLID
 70
1
 71
1
 91
1
 92
1
 93
6
 72
1
 10
154.2267539683
 20
31.3548866125
 11
154.1111290786
 21
31.3226223092
 72
1
 10
154.1111290786
 20
31.3226223092
 11
154.0533164683
 21
31.258095219
 72
1
 10
154.0533164683
 20
31.258095219
 11
153.7642540786
 21
31.258095219
 72
1
 10
153.7642540786
 20
31.258095219
 11
153.7642540786
 21
31.3226223092
 72
1
 10
153.7642540786
 20
31.3226223092
 11
154.4580040786
 21
31.3871493993
 72
1
 10
154.4580040786
 20
31.3871493993
 11
154.2267539683
 21
31.3548866125
 97
1
330
301
 75
0
 76
1
 98
1
 10
0.0
 20
0.0
  0
LWPOLYLINE
  5
303
100
AcDbEntity
  8
0
100
AcDbPolyline
 62
7
  6
CONTINUOUS
 90
8
 70
0
 10
159.3720666889
 20
31.3548866125
 10
159.2564414683
 20
31.3226223092
 10
159.1986291889
 20
31.258095219
 10
159.0251916889
 20
31.1290410387
 10
158.9095664683
 20
31.258095219
 10
158.9095664683
 20
31.3226223092
 10
159.6033164683
 20
31.3871493993
 10
159.3720666889
 20
31.3548866125
  0
HATCH
  5
304
100
AcDbEntity
  8
0
100
AcDbHatch
 62
7
  6
CONTINUOUS
 10
0.0
 20
0.0
 30
0.0
210
0.0
220
0.0
230
1.0
  2
SOLID
 70
1
 71
1
 91
1
 92
1
 93
7
 72
1
 10
159.3720666889
 20
31.3548866125
 11
159.2564414683
 21
31.3226223092
 72
1
 10
159.2564414683
 20
31.3226223092
 11
159.1986291889
 21
31.258095219
 72
1
 10
159.1986291889
 20
31.258095219
 11
159.0251916889
 21
31.1290410387
 72
1
 10
159.0251916889
 20
31.1290410387
 11
158.9095664683
 21
31.258095219
 72
1
 10
158.9095664683
 20
31.258095219
 11
158.9095664683
 21
31.3226223092
 72
1
 10
158.9095664683
 20
31.3226223092
 11
159.6033164683
 21
31.3871493993
 72
1
 10
159.6033164683
 20
31.3871493993
 11
159.3720666889
 21
31.3548866125
 97
1
330
303
 75
0
 76
1
 98
1
 10
0.0
 20
0.0
  0
LWPOLYLINE
  5
305
100
AcDbEntity
  8
0
100
AcDbPolyline
 62
7
  6
CONTINUOUS
 90
6
 70
0
 10
149.7751914546
 20
31.2258309157
 10
149.7173789683
 20
31.1613038256
 10
149.3705039683
 20
30.999985342
 10
149.4283164701
 20
31.1935681288
 10
149.9486289546
 20
31.3226223092
 10
149.7751914546
 20
31.2258309157
  0
HATCH
  5
306
100
AcDbEntity
  8
0
100
AcDbHatch
 62
7
  6
CONTINUOUS
 10
0.0
 20
0.0
 30
0.0
210
0.0
220
0.0
230
1.0
  2
SOLID
 70
1
 71
1
 91
1
 92
1
 93
5
 72
1
 10
149.7751914546
 20
31.2258309157
 11
149.7173789683
 21
31.1613038256
 72
1
 10
149.7173789683
 20
31.1613038256
 11
149.3705039683
 21
30.999985342
 72
1
 10
149.3705039683
 20
30.999985342
 11
149.4283164701
 21
31.1935681288
 72
1
 10
149.4283164701
 20
31.1935681288
 11
149.9486289546
 21
31.3226223092
 72
1
 10
149.9486289546
 20
31.3226223092
 11
149.7751914546
 21
31.2258309157
 97
1
330
305
 75
0
 76
1
 98
1
 10
0.0
 20
0.0
  0
LWPOLYLINE
  5
307
100
AcDbEntity
  8
0
100
AcDbPolyline
 62
7
  6
CONTINUOUS
 90
7
 70
0
 10
154.2267539683
 20
31.1290410387
 10
154.5736289683
 20
31.1613038256
 10
155.2095666889
 20
31.1613038256
 10
155.2095666889
 20
31.0322496452
 10
154.5736289683
 20
31.0322496452
 10
153.9955038581
 20
31.0645131385
 10
154.2267539683
 20
31.1290410387
  0
HATCH
  5
308
100
AcDbEntity
  8
0
100
AcDbHatch
 62
7
  6
CONTINUOUS
 10
0.0
 20
0.0
 30
0.0
210
0.0
220
0.0
230
1.0
  2
SOLID
 70
1
 71
1
 91
1
 92
1
 93
6
 72
1
 10
154.2267539683
 20
31.1290410387
 11
154.5736289683
 21
31.1613038256
 72
1
 10
154.5736289683
 20
31.1613038256
 11
155.2095666889
 21
31.1613038256
 72
1
 10
155.2095666889
 20
31.1613038256
 11
155.2095666889
 21
31.0322496452
 72
1
 10
155.2095666889
 20
31.0322496452
 11
154.5736289683
 21
31.0322496452
 72
1
 10
154.5736289683
 20
31.0322496452
 11
153.9955038581
 21
31.0645131385
 72
1
 10
153.9955038581
 20
31.0645131385
 11
154.2267539683
 21
31.1290410387
 97
1
330
307
 75
0
 76
1
 98
1
 10
0.0
 20
0.0
  0
LWPOLYLINE
  5
309
100
AcDbEntity
  8
0
100
AcDbPolyline
 62
7
  6
CONTINUOUS
 90
24
 70
0
 10
159.2564414683
 20
31.1935681288
 10
159.4298789683
 20
31.1290410387
 10
160.4126916889
 20
30.9677225551
 10
160.6439414683
 20
30.8709311616
 10
160.7595660273
 20
30.7418754649
 10
160.7595660273
 20
30.6773483748
 10
160.6439414683
 20
30.5805584977
 10
160.4126916889
 20
30.5160298911
 10
160.0658166889
 20
30.4837671043
 10
159.7189416889
 20
30.4837671043
 10
159.3720666889
 20
30.5160298911
 10
159.1986291889
 20
30.5482941944
 10
159.0251916889
 20
30.6128212846
 10
159.7189416889
 20
30.6128212846
 10
160.0658166889
 20
30.6128212846
 10
160.2970664683
 20
30.6450855879
 10
160.4126916889
 20
30.6773483748
 10
160.4705039683
 20
30.7418754649
 10
160.4126916889
 20
30.8064040715
 10
160.2392541889
 20
30.8709311616
 10
159.2564414683
 20
31.0322496452
 10
159.0251916889
 20
31.1290410387
 10
159.1986291889
 20
31.258095219
 10
159.2564414683
 20
31.1935681288
  0
HATCH
  5
30A
100
AcDbEntity
  8
0
100
AcDbHatch
 62
7
  6
CONTINUOUS
 10
0.0
 20
0.0
 30
0.0
210
0.0
220
0.0
230
1.0
  2
SOLID
 70
1
 71
1
 91
1
 92
1
 93
23
 72
1
 10
159.2564414683
 20
31.1935681288
 11
159.4298789683
 21
31.1290410387
 72
1
 10
159.4298789683
 20
31.1290410387
 11
160.4126916889
 21
30.9677225551
 72
1
 10
160.4126916889
 20
30.9677225551
 11
160.6439414683
 21
30.8709311616
 72
1
 10
160.6439414683
 20
30.8709311616
 11
160.7595660273
 21
30.7418754649
 72
1
 10
160.7595660273
 20
30.7418754649
 11
160.7595660273
 21
30.6773483748
 72
1
 10
160.7595660273
 20
30.6773483748
 11
160.6439414683
 21
30.5805584977
 72
1
 10
160.6439414683
 20
30.5805584977
 11
160.4126916889
 21
30.5160298911
 72
1
 10
160.4126916889
 20
30.5160298911
 11
160.0658166889
 21
30.4837671043
 72
1
 10
160.0658166889
 20
30.4837671043
 11
159.7189416889
 21
30.4837671043
 72
1
 10
159.7189416889
 20
30.4837671043
 11
159.3720666889
 21
30.5160298911
 72
1
 10
159.3720666889
 20
30.5160298911
 11
159.1986291889
 21
30.5482941944
 72
1
 10
159.1986291889
 20
30.5482941944
 11
159.0251916889
 21
30.6128212846
 72
1
 10
159.0251916889
 20
30.6128212846
 11
159.7189416889
 21
30.6128212846
 72
1
 10
159.7189416889
 20
30.6128212846
 11
160.0658166889
 21
30.6128212846
 72
1
 10
160.0658166889
 20
30.6128212846
 11
160.2970664683
 21
30.6450855879
 72
1
 10
160.2970664683
 20
30.6450855879
 11
160.4126916889
 21
30.6773483748
 72
1
 10
160.4126916889
 20
30.6773483748
 11
160.4705039683
 21
30.7418754649
 72
1
 10
160.4705039683
 20
30.7418754649
 11
160.4126916889
 21
30.8064040715
 72
1
 10
160.4126916889
 20
30.8064040715
 11
160.2392541889
 21
30.8709311616
 72
1
 10
160.2392541889
 20
30.8709311616
 11
159.2564414683
 21
31.0322496452
 72
1
 10
159.2564414683
 20
31.0322496452
 11
159.0251916889
 21
31.1290410387
 72
1
 10
159.0251916889
 20
31.1290410387
 11
159.1986291889
 21
31.258095219
 72
1
 10
159.1986291889
 20
31.258095219
 11
159.2564414683
 21
31.1935681288
 97
1
330
309
 75
0
 76
1
 98
1
 10
0.0
 20
0.0
  0
LWPOLYLINE
  5
30B
100
AcDbEntity
  8
0
100
AcDbPolyline
 62
7
  6
CONTINUOUS
 90
12
 70
0
 10
149.6595664615
 20
31.0322496452
 10
149.6595664615
 20
30.9354583476
 10
149.7751914546
 20
30.7741397682
 10
149.9486289546
 20
30.6773483748
 10
150.2955039959
 20
30.6128212846
 10
149.8330039821
 20
30.5482941944
 10
149.6595664615
 20
30.6128212846
 10
149.5439414683
 20
30.6773483748
 10
149.4283164701
 20
30.8064040715
 10
149.3705039683
 20
30.999985342
 10
149.7173789683
 20
31.1613038256
 10
149.6595664615
 20
31.0322496452
  0
HATCH
  5
30C
100
AcDbEntity
  8
0
100
AcDbHatch
 62
7
  6
CONTINUOUS
 10
0.0
 20
0.0
 30
0.0
210
0.0
220
0.0
230
1.0
  2
SOLID
 70
1
 71
1
 91
1
 92
1
 93
11
 72
1
 10
149.6595664615
 20
31.0322496452
 11
149.6595664615
 21
30.9354583476
 72
1
 10
149.6595664615
 20
30.9354583476
 11
149.7751914546
 21
30.7741397682
 72
1
 10
149.7751914546
 20
30.7741397682
 11
149.9486289546
 21
30.6773483748
 72
1
 10
149.9486289546
 20
30.6773483748
 11
150.2955039959
 21
30.6128212846
 72
1
 10
150.2955039959
 20
30.6128212846
 11
149.8330039821
 21
30.5482941944
 72
1
 10
149.8330039821
 20
30.5482941944
 11
149.6595664615
 21
30.6128212846
 72
1
 10
149.6595664615
 20
30.6128212846
 11
149.5439414683
 21
30.6773483748
 72
1
 10
149.5439414683
 20
30.6773483748
 11
149.4283164701
 21
30.8064040715
 72
1
 10
149.4283164701
 20
30.8064040715
 11
149.3705039683
 21
30.999985342
 72
1
 10
149.3705039683
 20
30.999985342
 11
149.7173789683
 21
31.1613038256
 72
1
 10
149.7173789683
 20
31.1613038256
 11
149.6595664615
 21
31.0322496452
 97
1
330
30B
 75
0
 76
1
 98
1
 10
0.0
 20
0.0
  0
LWPOLYLINE
  5
30D
100
AcDbEntity
  8
0
100
AcDbPolyline
 62
7
  6
CONTINUOUS
 90
6
 70
0
 10
153.8798789683
 20
30.999985342
 10
153.9955038581
 20
31.0645131385
 10
154.5736289683
 20
31.0322496452
 10
154.3423788581
 20
30.999985342
 10
153.7642540786
 20
30.8709311616
 10
153.8798789683
 20
30.999985342
  0
HATCH
  5
30E
100
AcDbEntity
  8
0
100
AcDbHatch
 62
7
  6
CONTINUOUS
 10
0.0
 20
0.0
 30
0.0
210
0.0
220
0.0
230
1.0
  2
SOLID
 70
1
 71
1
 91
1
 92
1
 93
5
 72
1
 10
153.8798789683
 20
30.999985342
 11
153.9955038581
 21
31.0645131385
 72
1
 10
153.9955038581
 20
31.0645131385
 11
154.5736289683
 21
31.0322496452
 72
1
 10
154.5736289683
 20
31.0322496452
 11
154.3423788581
 21
30.999985342
 72
1
 10
154.3423788581
 20
30.999985342
 11
153.7642540786
 21
30.8709311616
 72
1
 10
153.7642540786
 20
30.8709311616
 11
153.8798789683
 21
30.999985342
 97
1
330
30D
 75
0
 76
1
 98
1
 10
0.0
 20
0.0
  0
LWPOLYLINE
  5
30F
100
AcDbEntity
  8
0
100
AcDbPolyline
 62
7
  6
CONTINUOUS
 90
9
 70
0
 10
154.1111290786
 20
30.9031946612
 10
154.0533164683
 20
30.8064040715
 10
154.0533164683
 20
30.7418754649
 10
153.8220663581
 20
30.6450855879
 10
153.7642540786
 20
30.7741397682
 10
153.7642540786
 20
30.8709311616
 10
154.3423788581
 20
30.999985342
 10
154.2267539683
 20
30.9677225551
 10
154.1111290786
 20
30.9031946612
  0
HATCH
  5
310
100
AcDbEntity
  8
0
100
AcDbHatch
 62
7
  6
CONTINUOUS
 10
0.0
 20
0.0
 30
0.0
210
0.0
220
0.0
230
1.0
  2
SOLID
 70
1
 71
1
 91
1
 92
1
 93
8
 72
1
 10
154.1111290786
 20
30.9031946612
 11
154.0533164683
 21
30.8064040715
 72
1
 10
154.0533164683
 20
30.8064040715
 11
154.0533164683
 21
30.7418754649
 72
1
 10
154.0533164683
 20
30.7418754649
 11
153.8220663581
 21
30.6450855879
 72
1
 10
153.8220663581
 20
30.6450855879
 11
153.7642540786
 21
30.7741397682
 72
1
 10
153.7642540786
 20
30.7741397682
 11
153.7642540786
 21
30.8709311616
 72
1
 10
153.7642540786
 20
30.8709311616
 11
154.3423788581
 21
30.999985342
 72
1
 10
154.3423788581
 20
30.999985342
 11
154.2267539683
 21
30.9677225551
 72
1
 10
154.2267539683
 20
30.9677225551
 11
154.1111290786
 21
30.9031946612
 97
1
330
30F
 75
0
 76
1
 98
1
 10
0.0
 20
0.0
  0
LWPOLYLINE
  5
311
100
AcDbEntity
  8
0
100
AcDbPolyline
 62
7
  6
CONTINUOUS
 90
10
 70
0
 10
155.1517537478
 20
30.7741397682
 10
155.2095666889
 20
30.8386672883
 10
155.4986287478
 20
30.7418754649
 10
155.5564416889
 20
30.5805584977
 10
155.6142539683
 20
30.4837671043
 10
155.3251912478
 20
30.4837671043
 10
155.2673789683
 20
30.5482941944
 10
155.2095666889
 20
30.6450855879
 10
154.9783162478
 20
30.6773483748
 10
155.1517537478
 20
30.7741397682
  0
HATCH
  5
312
100
AcDbEntity
  8
0
100
AcDbHatch
 62
7
  6
CONTINUOUS
 10
0.0
 20
0.0
 30
0.0
210
0.0
220
0.0
230
1.0
  2
SOLID
 70
1
 71
1
 91
1
 92
1
 93
9
 72
1
 10
155.1517537478
 20
30.7741397682
 11
155.2095666889
 21
30.8386672883
 72
1
 10
155.2095666889
 20
30.8386672883
 11
155.4986287478
 21
30.7418754649
 72
1
 10
155.4986287478
 20
30.7418754649
 11
155.5564416889
 21
30.5805584977
 72
1
 10
155.5564416889
 20
30.5805584977
 11
155.6142539683
 21
30.4837671043
 72
1
 10
155.6142539683
 20
30.4837671043
 11
155.3251912478
 21
30.4837671043
 72
1
 10
155.3251912478
 20
30.4837671043
 11
155.2673789683
 21
30.5482941944
 72
1
 10
155.2673789683
 20
30.5482941944
 11
155.2095666889
 21
30.6450855879
 72
1
 10
155.2095666889
 20
30.6450855879
 11
154.9783162478
 21
30.6773483748
 72
1
 10
154.9783162478
 20
30.6773483748
 11
155.1517537478
 21
30.7741397682
 97
1
330
311
 75
0
 76
1
 98
1
 10
0.0
 20
0.0
  0
LWPOLYLINE
  5
313
100
AcDbEntity
  8
0
100
AcDbPolyline
 62
7
  6
CONTINUOUS
 90
12
 70
0
 10
150.8736290235
 20
30.7096125201
 10
150.9314414683
 20
30.8064040715
 10
151.2205040235
 20
30.8064040715
 10
151.1626914132
 20
30.6773483748
 10
150.9892539132
 20
30.5805584977
 10
150.7580039683
 20
30.5160298911
 10
150.3533164408
 20
30.4837671043
 10
150.0064414821
 20
30.5160298911
 10
149.8330039821
 20
30.5482941944
 10
150.2955039959
 20
30.6128212846
 10
150.7001914408
 20
30.6450855879
 10
150.8736290235
 20
30.7096125201
  0
HATCH
  5
314
100
AcDbEntity
  8
0
100
AcDbHatch
 62
7
  6
CONTINUOUS
 10
0.0
 20
0.0
 30
0.0
210
0.0
220
0.0
230
1.0
  2
SOLID
 70
1
 71
1
 91
1
 92
1
 93
11
 72
1
 10
150.8736290235
 20
30.7096125201
 11
150.9314414683
 21
30.8064040715
 72
1
 10
150.9314414683
 20
30.8064040715
 11
151.2205040235
 21
30.8064040715
 72
1
 10
151.2205040235
 20
30.8064040715
 11
151.1626914132
 21
30.6773483748
 72
1
 10
151.1626914132
 20
30.6773483748
 11
150.9892539132
 21
30.5805584977
 72
1
 10
150.9892539132
 20
30.5805584977
 11
150.7580039683
 21
30.5160298911
 72
1
 10
150.7580039683
 20
30.5160298911
 11
150.3533164408
 21
30.4837671043
 72
1
 10
150.3533164408
 20
30.4837671043
 11
150.0064414821
 21
30.5160298911
 72
1
 10
150.0064414821
 20
30.5160298911
 11
149.8330039821
 21
30.5482941944
 72
1
 10
149.8330039821
 20
30.5482941944
 11
150.2955039959
 21
30.6128212846
 72
1
 10
150.2955039959
 20
30.6128212846
 11
150.7001914408
 21
30.6450855879
 72
1
 10
150.7001914408
 20
30.6450855879
 11
150.8736290235
 21
30.7096125201
 97
1
330
313
 75
0
 76
1
 98
1
 10
0.0
 20
0.0
  0
LWPOLYLINE
  5
315
100
AcDbEntity
  8
0
100
AcDbPolyline
 62
7
  6
CONTINUOUS
 90
6
 70
0
 10
154.1111290786
 20
30.6773483748
 10
154.3423788581
 20
30.6128212846
 10
153.9955038581
 20
30.5482941944
 10
153.8220663581
 20
30.6450855879
 10
154.0533164683
 20
30.7418754649
 10
154.1111290786
 20
30.6773483748
  0
HATCH
  5
316
100
AcDbEntity
  8
0
100
AcDbHatch
 62
7
  6
CONTINUOUS
 10
0.0
 20
0.0
 30
0.0
210
0.0
220
0.0
230
1.0
  2
SOLID
 70
1
 71
1
 91
1
 92
1
 93
5
 72
1
 10
154.1111290786
 20
30.6773483748
 11
154.3423788581
 21
30.6128212846
 72
1
 10
154.3423788581
 20
30.6128212846
 11
153.9955038581
 21
30.5482941944
 72
1
 10
153.9955038581
 20
30.5482941944
 11
153.8220663581
 21
30.6450855879
 72
1
 10
153.8220663581
 20
30.6450855879
 11
154.0533164683
 21
30.7418754649
 72
1
 10
154.0533164683
 20
30.7418754649
 11
154.1111290786
 21
30.6773483748
 97
1
330
315
 75
0
 76
1
 98
1
 10
0.0
 20
0.0
  0
LWPOLYLINE
  5
317
100
AcDbEntity
  8
0
100
AcDbPolyline
 62
7
  6
CONTINUOUS
 90
11
 70
0
 10
154.6892538581
 20
30.6128212846
 10
154.9783162478
 20
30.6773483748
 10
155.2095666889
 20
30.6450855879
 10
155.1517537478
 20
30.5805584977
 10
154.9783162478
 20
30.5160298911
 10
154.6892538581
 20
30.4837671043
 10
154.3423788581
 20
30.4837671043
 10
154.1111290786
 20
30.5160298911
 10
153.9955038581
 20
30.5482941944
 10
154.3423788581
 20
30.6128212846
 10
154.6892538581
 20
30.6128212846
  0
HATCH
  5
318
100
AcDbEntity
  8
0
100
AcDbHatch
 62
7
  6
CONTINUOUS
 10
0.0
 20
0.0
 30
0.0
210
0.0
220
0.0
230
1.0
  2
SOLID
 70
1
 71
1
 91
1
 92
1
 93
10
 72
1
 10
154.6892538581
 20
30.6128212846
 11
154.9783162478
 21
30.6773483748
 72
1
 10
154.9783162478
 20
30.6773483748
 11
155.2095666889
 21
30.6450855879
 72
1
 10
155.2095666889
 20
30.6450855879
 11
155.1517537478
 21
30.5805584977
 72
1
 10
155.1517537478
 20
30.5805584977
 11
154.9783162478
 21
30.5160298911
 72
1
 10
154.9783162478
 20
30.5160298911
 11
154.6892538581
 21
30.4837671043
 72
1
 10
154.6892538581
 20
30.4837671043
 11
154.3423788581
 21
30.4837671043
 72
1
 10
154.3423788581
 20
30.4837671043
 11
154.1111290786
 21
30.5160298911
 72
1
 10
154.1111290786
 20
30.5160298911
 11
153.9955038581
 21
30.5482941944
 72
1
 10
153.9955038581
 20
30.5482941944
 11
154.3423788581
 21
30.6128212846
 72
1
 10
154.3423788581
 20
30.6128212846
 11
154.6892538581
 21
30.6128212846
 97
1
330
317
 75
0
 76
1
 98
1
 10
0.0
 20
0.0
  0
LWPOLYLINE
  5
319
100
AcDbEntity
  8
0
100
AcDbPolyline
 62
7
  6
CONTINUOUS
 90
7
 70
0
 10
159.3720666889
 20
30.6450855879
 10
159.7189416889
 20
30.6128212846
 10
159.0251916889
 20
30.6128212846
 10
158.9095664683
 20
30.7418754649
 10
159.1986291889
 20
30.7418754649
 10
159.2564414683
 20
30.6773483748
 10
159.3720666889
 20
30.6450855879
  0
HATCH
  5
31A
100
AcDbEntity
  8
0
100
AcDbHatch
 62
7
  6
CONTINUOUS
 10
0.0
 20
0.0
 30
0.0
210
0.0
220
0.0
230
1.0
  2
SOLID
 70
1
 71
1
 91
1
 92
1
 93
6
 72
1
 10
159.3720666889
 20
30.6450855879
 11
159.7189416889
 21
30.6128212846
 72
1
 10
159.7189416889
 20
30.6128212846
 11
159.0251916889
 21
30.6128212846
 72
1
 10
159.0251916889
 20
30.6128212846
 11
158.9095664683
 21
30.7418754649
 72
1
 10
158.9095664683
 20
30.7418754649
 11
159.1986291889
 21
30.7418754649
 72
1
 10
159.1986291889
 20
30.7418754649
 11
159.2564414683
 21
30.6773483748
 72
1
 10
159.2564414683
 20
30.6773483748
 11
159.3720666889
 21
30.6450855879
 97
1
330
319
 75
0
 76
1
 98
1
 10
0.0
 20
0.0
  0
SOLID
  5
31B
100
AcDbEntity
  8
0
100
AcDbTrace
 62
7
  6
CONTINUOUS
 10
156.0767541889
 20
30.4837671043
 11
156.0767541889
 21
31.5162050961
 12
156.3658162478
 22
30.4837671043
 13
156.3658162478
 23
31.5162050961
  0
ENDBLK
  5
31C
100
AcDbEntity
  8
0
  6
BYBLOCK
 62
0
100
AcDbBlockEnd
  0
BLOCK
  5
31D
100
AcDbEntity
  8
0
100
AcDbBlockBegin
 62
2
  6
CONTINUOUS
  2
AMMEAAL_LOGO_BL0
 70
64
 10
31.7740840678
 20
19.9150776578
  3
AMMEAAL_LOGO_BL0
  1

  0
TEXT
  5
31E
100
AcDbEntity
  8
0
100
AcDbText
 62
7
  6
CONTINUOUS
 10
18.0387879101
 20
19.2884917655
  7
TEXTSTYLE_3
 40
2.7338706658
  1
Ammeraal Beltech
 41
1.0
 51
15.0
 72
0
100
AcDbText
  0
TEXT
  5
31F
100
AcDbEntity
  8
0
100
AcDbText
 62
7
  6
CONTINUOUS
 10
28.8395887358
 20
17.0149550926
  7
TEXTSTYLE_4
 40
1.0935482663
  1
Innovation & Service in Belting
 41
1.0
 72
0
100
AcDbText
  0
LINE
  5
320
100
AcDbEntity
  8
0
100
AcDbLine
 62
7
  6
CONTINUOUS
 10
12.0142472588
 20
20.055085074
 11
12.7923992521
 21
23.7160023717
  0
LINE
  5
321
100
AcDbEntity
  8
0
100
AcDbLine
 62
7
  6
CONTINUOUS
 10
22.8875675419
 20
27.3793962833
 11
13.2802169951
 21
24.257778862
  0
LINE
  5
322
100
AcDbEntity
  8
0
100
AcDbLine
 62
7
  6
CONTINUOUS
 10
12.2395305911
 20
19.361734271
 11
19.7466058522
 21
12.602333345
  0
LINE
  5
323
100
AcDbEntity
  8
0
100
AcDbLine
 62
7
  6
CONTINUOUS
 10
12.5020650018
 20
20.5968615644
 11
23.310334367
 21
24.1086811633
  0
LINE
  5
324
100
AcDbEntity
  8
0
100
AcDbLine
 62
7
  6
CONTINUOUS
 10
23.3061292298
 20
13.7588925996
 11
14.860669561
 21
21.3632186413
  0
LINE
  5
325
100
AcDbEntity
  8
0
100
AcDbLine
 62
7
  6
CONTINUOUS
 10
23.8259519496
 20
26.5344711676
 11
22.8493924124
 21
21.9401197651
  0
LINE
  5
326
100
AcDbEntity
  8
0
100
AcDbLine
 62
7
  6
CONTINUOUS
 10
22.1495904647
 20
18.6478104513
 11
21.4631422532
 21
15.4183255269
  0
LINE
  5
327
100
AcDbEntity
  8
0
100
AcDbLine
 62
7
  6
CONTINUOUS
 10
24.5070480481
 20
14.1490947773
 11
25.4632795838
 21
18.6478104513
  0
LINE
  5
328
100
AcDbEntity
  8
0
100
AcDbLine
 62
7
  6
CONTINUOUS
 10
26.1630815315
 20
21.9401197651
 11
26.6073233338
 21
24.0301131245
  0
LINE
  5
329
100
AcDbEntity
  8
0
100
AcDbLine
 62
7
  6
CONTINUOUS
 10
20.4597069275
 20
12.4507590323
 11
24.0192303051
 21
13.6073182869
  0
LINE
  5
32A
100
AcDbEntity
  8
0
100
AcDbLine
 62
7
  6
CONTINUOUS
 10
23.6006686173
 20
27.2278219706
 11
26.3820400015
 21
24.7234639276
  0
ARC
  5
32B
100
AcDbEntity
  8
0
100
AcDbCircle
 62
7
  6
CONTINUOUS
 10
13.5055003274
 20
23.564428059
 40
0.7290321776
100
AcDbArc
 50
108.0
 51
168.0
  0
ARC
  5
32C
100
AcDbEntity
  8
0
100
AcDbCircle
 62
7
  6
CONTINUOUS
 10
23.1128508743
 20
26.6860454803
 40
0.7290321776
100
AcDbArc
 50
348.0
 51
108.0
  0
ARC
  5
32D
100
AcDbEntity
  8
0
100
AcDbCircle
 62
7
  6
CONTINUOUS
 10
25.8942222585
 20
24.1816874372
 40
0.7290321776
100
AcDbArc
 50
348.0
 51
48.0
  0
ARC
  5
32E
100
AcDbEntity
  8
0
100
AcDbCircle
 62
7
  6
CONTINUOUS
 10
20.2344235952
 20
13.1441098354
 40
0.7290321776
100
AcDbArc
 50
228.0
 51
288.0
  0
ARC
  5
32F
100
AcDbEntity
  8
0
100
AcDbCircle
 62
7
  6
CONTINUOUS
 10
12.7273483341
 20
19.9035107613
 40
0.7290321776
100
AcDbArc
 50
108.0
 51
228.0
  0
ARC
  5
330
100
AcDbEntity
  8
0
100
AcDbCircle
 62
7
  6
CONTINUOUS
 10
23.7939469728
 20
14.30066909
 40
0.7290321776
100
AcDbArc
 50
228.0
 51
348.0
  0
ENDBLK
  5
331
100
AcDbEntity
  8
0
  6
BYBLOCK
 62
0
100
AcDbBlockEnd
  0
BLOCK
  5
332
100
AcDbEntity
  8
0
100
AcDbBlockBegin
  2
*T1
 70
1
 10
0.0
 20
0.0
  3
*T1
  1

  0
LINE
  5
333
100
AcDbEntity
  8
0
100
AcDbLine
 62
2
  6
CONTINUOUS
 10
0.0
 20
0.0
 11
190.0
 21
0.0
  0
LINE
  5
334
100
AcDbEntity
  8
0
100
AcDbLine
 62
2
  6
CONTINUOUS
 10
0.0
 20
0.0
 11
0.0
 21
-20.0
  0
LINE
  5
335
100
AcDbEntity
  8
0
100
AcDbLine
 62
2
  6
CONTINUOUS
 10
0.0
 20
-20.0
 11
190.0
 21
-20.0
  0
LINE
  5
336
100
AcDbEntity
  8
0
100
AcDbLine
 62
2
  6
CONTINUOUS
 10
85.0
 20
0.0
 11
85.0
 21
-20.0
  0
LINE
  5
337
100
AcDbEntity
  8
0
100
AcDbLine
 62
2
  6
CONTINUOUS
 10
105.0
 20
0.0
 11
105.0
 21
-20.0
  0
LINE
  5
338
100
AcDbEntity
  8
0
100
AcDbLine
 62
2
  6
CONTINUOUS
 10
190.0
 20
0.0
 11
190.0
 21
-20.0
  0
MTEXT
  5
339
100
AcDbEntity
  8
0
100
AcDbMText
 62
5
  6
CONTINUOUS
  7
TEXTSTYLE_5
 71
1
 72
1
 10
3.0
 20
-5.177
 30
0.0
 11
1.0
 21
0.0
 31
0.0
 44
1.08
  3
                                                                     Ammeraal Beltech Modular A/S\P\H1.5;                                                                      Hjulmagervej 21,  7100 Vejle,  DK\P\H1.495;                                
  1
                                      tel: \H1.51;+45 75723100     fax: +45 75723348\P\H1.5;                                                                      admin@unichains.dk  www.unichains.com
 40
1.52
 41
161.0496183206
  0
MTEXT
  5
33A
100
AcDbEntity
  8
0
100
AcDbMText
 62
5
  6
CONTINUOUS
  7
TEXTSTYLE_6
 71
2
 72
1
 10
95.0
 20
-11.25
 30
0.0
 11
1.0
 21
0.0
 31
0.0
 44
0.9
  1
1:1
 40
5.0
 41
21.0
  0
MTEXT
  5
33B
100
AcDbEntity
  8
0
100
AcDbMText
 62
5
  6
CONTINUOUS
  7
TEXTSTYLE_7
 71
1
 72
1
 10
108.0
 20
-8.75
 30
0.0
 11
1.0
 21
0.0
 31
0.0
 44
0.9
  1
 uni 2800
 40
7.5
 41
90.25
  0
ENDBLK
  5
33C
100
AcDbEntity
  8
0
  6
BYBLOCK
 62
0
100
AcDbBlockEnd
  0
ENDSEC
  0
SECTION
  2
ENTITIES
  0
MTEXT
  5
33D
100
AcDbEntity
  8
0
100
AcDbMText
 62
5
  6
CONTINUOUS
  7
TEXTSTYLE_2
 71
1
 72
1
 10
96.0
 20
28.436
 30
0.0
 11
1.0
 21
0.0
 31
0.0
 44
0.9
  1
\Q0.000019;Scale :
 40
2.8
 41
11.76
  0
MTEXT
  5
33E
100
AcDbEntity
  8
0
100
AcDbMText
 62
5
  6
CONTINUOUS
  7
TEXTSTYLE_2
 71
1
 72
1
 10
116.0
 20
28.436
 30
0.0
 11
1.0
 21
0.0
 31
0.0
 44
0.9
  1
\Q0.000019;Chain type:
 40
2.8
 41
18.48
  0
INSERT
  5
33F
100
AcDbEntity
  8
0
100
AcDbBlockReference
 62
2
  6
CONTINUOUS
  2
AMMEAAL_LOGO_BL0
 10
31.7740840678
 20
19.9150776578
  0
INSERT
  5
340
100
AcDbEntity
  8
0
100
AcDbBlockReference
 62
2
  6
CONTINUOUS
  2
UNI_LOGO2_BL1
 10
173.3924355793
 20
35.4837666925
  0
ACAD_TABLE
  5
341
100
AcDbEntity
  8
0
 62
2
  6
CONTINUOUS
100
AcDbBlockReference
  2
*T1
 10
10.0
 20
30.0
 30
0.0
100
AcDbTable
342
       3F4
343
210
 11
1.0
 21
0.0
 31
0.0
 90
22
 91
1
 92
3
 93
0
 94
0
 95
0
 96
0
141
20.0
142
85.0
142
20.0
142
85.0
171
1
172
0
173
0
174
0
175
1
176
1
 91
57
178
0
145
0.0
  7
TEXTSTYLE_5
301
CELL_VALUE
 90
4
  2
                                                                     Ammeraal Beltech Modular A/S\P\H1.5;                                                                      Hjulmagervej 21,  7100 Vejle,  DK\P\H1.495;                                
  1
                                      tel: \H1.51;+45 75723100     fax: +45 75723348\P\H1.5;                                                                      admin@unichains.dk  www.unichains.com
304
ACVALUE_END
170
4
140
1.52
 64
5
171
1
172
0
173
0
174
0
175
1
176
1
 91
57
178
0
145
0.0
  7
TEXTSTYLE_6
301
CELL_VALUE
 90
4
  1
1:1
304
ACVALUE_END
170
8
140
5.0
 64
5
171
1
172
0
173
0
174
0
175
1
176
1
 91
57
178
0
145
0.0
  7
TEXTSTYLE_7
301
CELL_VALUE
 90
4
  1
 uni 2800
304
ACVALUE_END
170
7
140
7.5
 64
5
  0
LINE
  5
342
100
AcDbEntity
  8
0
100
AcDbLine
 62
7
  6
CONTINUOUS
 10
210.0
 20
0.0
 11
0.0
 21
0.0
  0
LINE
  5
343
100
AcDbEntity
  8
0
100
AcDbLine
 62
7
  6
CONTINUOUS
 10
10.0
 20
10.0
 11
200.0
 21
10.0
  0
LINE
  5
344
100
AcDbEntity
  8
0
100
AcDbLine
 62
7
  6
CONTINUOUS
 10
10.0
 20
30.0
 11
200.0
 21
30.0
  0
LINE
  5
345
100
AcDbEntity
  8
0
100
AcDbLine
 62
7
  6
CONTINUOUS
 10
0.0
 20
0.0
 11
0.0
 21
297.0
  0
LINE
  5
346
100
AcDbEntity
  8
0
100
AcDbLine
 62
7
  6
CONTINUOUS
 10
10.0
 20
10.0
 11
10.0
 21
287.0
  0
LINE
  5
347
100
AcDbEntity
  8
0
100
AcDbLine
 62
7
  6
CONTINUOUS
 10
200.0
 20
287.0
 11
200.0
 21
10.0
  0
LINE
  5
348
100
AcDbEntity
  8
0
100
AcDbLine
 62
7
  6
CONTINUOUS
 10
210.0
 20
0.0
 11
210.0
 21
297.0
  0
LINE
  5
349
100
AcDbEntity
  8
0
100
AcDbLine
 62
7
  6
CONTINUOUS
 10
10.0
 20
287.0
 11
200.0
 21
287.0
  0
LINE
  5
34A
100
AcDbEntity
  8
0
100
AcDbLine
 62
7
  6
CONTINUOUS
 10
0.0
 20
297.0
 11
210.0
 21
297.0
  0
LINE
  5
34B
100
AcDbEntity
  8
0
100
AcDbLine
 62
7
  6
CONTINUOUS
 10
85.9988735465
 20
67.5064299705
 11
69.5988735465
 21
67.5064299705
  0
LINE
  5
34C
100
AcDbEntity
  8
DEFAULT_1
100
AcDbLine
 62
2
  6
CENTER
 10
49.0488735465
 20
85.2564299705
 11
106.5488735465
 21
85.2564299705
  0
LINE
  5
34D
100
AcDbEntity
  8
0
100
AcDbLine
 62
7
  6
CONTINUOUS
 10
51.0488735465
 20
139.2044299705
 11
51.0488735465
 21
181.70642796
  0
LINE
  5
34E
100
AcDbEntity
  8
0
100
AcDbLine
 62
7
  6
CONTINUOUS
 10
85.6554214647
 20
104.5884299705
 11
69.9423256284
 21
104.5884299705
  0
LINE
  5
34F
100
AcDbEntity
  8
0
100
AcDbLine
 62
7
  6
CONTINUOUS
 10
65.6588735465
 20
95.9874299705
 11
51.0488735465
 21
139.2044299705
  0
LINE
  5
350
100
AcDbEntity
  8
0
100
AcDbLine
 62
7
  6
CONTINUOUS
 10
62.5488735465
 20
139.5064299705
 11
62.5488735465
 21
138.0454299705
  0
LINE
  5
351
100
AcDbEntity
  8
0
100
AcDbLine
 62
7
  6
CONTINUOUS
 10
62.5488735465
 20
153.8102775478
 11
62.5488735465
 21
174.4866165359
  0
LINE
  5
352
100
AcDbEntity
  8
0
100
AcDbLine
 62
7
  6
CONTINUOUS
 10
71.5531909285
 20
95.9115213484
 11
62.5488735465
 21
138.0454299705
  0
LINE
  5
353
100
AcDbEntity
  8
0
100
AcDbLine
 62
7
  6
CONTINUOUS
 10
66.7988735465
 20
76.0771759326
 11
66.7988735465
 21
70.3064299705
  0
LINE
  5
354
100
AcDbEntity
  8
0
100
AcDbLine
 62
7
  6
CONTINUOUS
 10
63.9485172578
 20
86.778907542
 11
63.8890277193
 21
86.3236799705
  0
LINE
  5
355
100
AcDbEntity
  8
0
100
AcDbLine
 62
7
  6
CONTINUOUS
 10
93.0488735465
 20
174.4866165359
 11
97.694524208
 21
182.9499897923
  0
LINE
  5
356
100
AcDbEntity
  8
0
100
AcDbLine
 62
7
  6
CONTINUOUS
 10
63.9485172578
 20
86.778907542
 11
65.6588735465
 21
95.9874299705
  0
LINE
  5
357
100
AcDbEntity
  8
DEFAULT_1
100
AcDbLine
 62
2
  6
CENTER
 10
77.7988735465
 20
65.5064299705
 11
77.7988735465
 21
186.5064299705
  0
LINE
  5
358
100
AcDbEntity
  8
DEFAULT_1
100
AcDbLine
 62
2
  6
CENTER
 10
49.0488735465
 20
125.8839006322
 11
106.5488735465
 21
125.8839006322
  0
LINE
  5
359
100
AcDbEntity
  8
0
100
AcDbLine
 62
7
  6
CONTINUOUS
 10
91.6492298352
 20
86.778907542
 11
89.9388735465
 21
95.9874299705
  0
LINE
  5
35A
100
AcDbEntity
  8
0
100
AcDbLine
 62
7
  6
CONTINUOUS
 10
88.7988735465
 20
76.0771759326
 11
88.7988735465
 21
70.3064299705
  0
LINE
  5
35B
100
AcDbEntity
  8
0
100
AcDbLine
 62
7
  6
CONTINUOUS
 10
84.0445561646
 20
95.9115213484
 11
93.0488735465
 21
138.0454299705
  0
LINE
  5
35C
100
AcDbEntity
  8
0
100
AcDbLine
 62
7
  6
CONTINUOUS
 10
62.5488735465
 20
174.4866165359
 11
57.903222885
 21
182.9499897923
  0
LINE
  5
35D
100
AcDbEntity
  8
0
100
AcDbLine
 62
7
  6
CONTINUOUS
 10
93.0488735465
 20
174.4866165359
 11
93.0488735465
 21
153.8102775478
  0
LINE
  5
35E
100
AcDbEntity
  8
0
100
AcDbLine
 62
7
  6
CONTINUOUS
 10
93.0488735465
 20
139.5064299705
 11
93.0488735465
 21
138.0454299705
  0
LINE
  5
35F
100
AcDbEntity
  8
0
100
AcDbLine
 62
7
  6
CONTINUOUS
 10
93.4507973352
 20
139.5064299705
 11
62.1469497579
 21
139.5064299705
  0
LINE
  5
360
100
AcDbEntity
  8
0
100
AcDbLine
 62
7
  6
CONTINUOUS
 10
89.9388735465
 20
95.9874299705
 11
104.5488735465
 21
139.2044299705
  0
LINE
  5
361
100
AcDbEntity
  8
0
100
AcDbLine
 62
7
  6
CONTINUOUS
 10
104.5488735465
 20
139.2044299705
 11
104.5488735465
 21
181.7064299705
  0
LINE
  5
362
100
AcDbEntity
  8
0
100
AcDbLine
 62
7
  6
CONTINUOUS
 10
93.0488735465
 20
153.8102775478
 11
62.5488735465
 21
153.8102775478
  0
LINE
  5
363
100
AcDbEntity
  8
DEFAULT_1
100
AcDbLine
 62
2
  6
CENTER
 10
49.0488735465
 20
166.0064299705
 11
108.1605302326
 21
166.0064299705
  0
LINE
  5
364
100
AcDbEntity
  8
0
100
AcDbLine
 62
7
  6
CONTINUOUS
 10
101.7488735465
 20
184.5064299705
 11
100.324192505
 21
184.5064299705
  0
LINE
  5
365
100
AcDbEntity
  8
0
100
AcDbLine
 62
7
  6
CONTINUOUS
 10
55.273554588
 20
184.5064299705
 11
53.8488735465
 21
184.5064299705
  0
LINE
  5
366
100
AcDbEntity
  8
0
100
AcDbLine
 62
7
  6
CONTINUOUS
 10
51.0488735465
 20
259.5977019611
 11
51.0488735465
 21
228.1977019611
  0
LWPOLYLINE
  5
367
100
AcDbEntity
  8
0
100
AcDbPolyline
 62
7
  6
CONTINUOUS
 90
45
 70
0
 10
88.9267385928
 20
225.3977020758
 10
88.9931213233
 20
225.3984369898
 10
89.0780021523
 20
225.4015297806
 10
89.1656609979
 20
225.4072837892
 10
89.2557115395
 20
225.4159354945
 10
89.3478721549
 20
225.4277066492
 10
89.4417814659
 20
225.4427873192
 10
89.537080961
 20
225.4613392765
 10
89.6334064974
 20
225.4834932536
 10
89.7303592418
 20
225.5093384987
 10
89.8276382929
 20
225.5389577738
 10
89.9249111128
 20
225.5723978636
 10
90.0218482844
 20
225.6096763062
 10
90.118118597
 20
225.650778294
 10
90.2134013393
 20
225.6956604245
 10
90.3073608781
 20
225.744237025
 10
90.3997499544
 20
225.7964345983
 10
90.4902693613
 20
225.8521206832
 10
90.5787904992
 20
225.9112419887
 10
90.6651410645
 20
225.9737070161
 10
90.7491786965
 20
226.0394323417
 10
90.8307575806
 20
226.1083207785
 10
90.9097422371
 20
226.18027174
 10
90.9859974932
 20
226.2551727174
 10
91.059407589
 20
226.3329182534
 10
91.1298565737
 20
226.4133922724
 10
91.1972396803
 20
226.4964803536
 10
91.2614555002
 20
226.5820617243
 10
91.3224082966
 20
226.6700118363
 10
91.3800089135
 20
226.7602040265
 10
91.4341690041
 20
226.852500032
 10
91.484811955
 20
226.9467674163
 10
91.5318521836
 20
227.0428400226
 10
91.5752188419
 20
227.1405576738
 10
91.6148461123
 20
227.2397465421
 10
91.6506800751
 20
227.3402330879
 10
91.682676473
 20
227.4418391052
 10
91.7108032344
 20
227.5443900309
 10
91.7350346888
 20
227.6476933118
 10
91.7553600618
 20
227.7515683173
 10
91.7717752618
 20
227.8558051511
 10
91.7842925348
 20
227.960206413
 10
91.792936653
 20
228.0645646807
 10
91.7977464752
 20
228.168647697
 10
91.7988727068
 20
228.2490787996
  0
LINE
  5
368
100
AcDbEntity
  8
0
100
AcDbLine
 62
7
  6
CONTINUOUS
 10
101.7488735465
 20
225.3977019611
 11
53.8488735465
 21
225.3977019611
  0
LWPOLYLINE
  5
369
100
AcDbEntity
  8
0
100
AcDbPolyline
 62
7
  6
CONTINUOUS
 90
45
 70
0
 10
63.7988743863
 20
228.2490786407
 10
63.8000400069
 20
228.1672539868
 10
63.8049017033
 20
228.0631539521
 10
63.8135991761
 20
227.9587821018
 10
63.8261710325
 20
227.8543705783
 10
63.8426418183
 20
227.7501267413
 10
63.863023572
 20
227.6462479196
 10
63.8873120075
 20
227.5429439095
 10
63.9154961763
 20
227.4403952792
 10
63.9475502482
 20
227.3387944816
 10
63.9834419979
 20
227.238316029
 10
64.0231270267
 20
227.1391380522
 10
64.066551285
 20
227.0414340137
 10
64.1136488346
 20
226.9453776594
 10
64.1643487299
 20
226.8511290718
 10
64.2185653125
 20
226.7588542857
 10
64.2762218627
 20
226.6686857221
 10
64.3372299506
 20
226.5807615821
 10
64.4015003069
 20
226.4952085222
 10
64.4689370931
 20
226.4121510605
 10
64.5394387917
 20
226.3317099438
 10
64.6129005569
 20
226.2539995335
 10
64.6892062562
 20
226.1791359386
 10
64.7682400007
 20
226.1072245837
 10
64.8498663529
 20
226.0383780307
 10
64.9339495946
 20
225.9726968638
 10
65.0203436487
 20
225.9102782495
 10
65.1089059273
 20
225.8512055421
 10
65.199463753
 20
225.7955702122
 10
65.2918882577
 20
225.7434254546
 10
65.3858796689
 20
225.694903624
 10
65.4811901975
 20
225.6500780682
 10
65.5774838523
 20
225.609034118
 10
65.6744395302
 20
225.5718148313
 10
65.7717257379
 20
225.5384345961
 10
65.8690128022
 20
225.5088754316
 10
65.9659679221
 20
225.4830900957
 10
66.0622900381
 20
225.4609953477
 10
66.1575799714
 20
225.4425014316
 10
66.2514732478
 20
225.4274770999
 10
66.3436113852
 20
225.4157600057
 10
66.4336328889
 20
225.4071595449
 10
66.5212564535
 20
225.4014534554
 10
66.6060959861
 20
225.3984047591
 10
66.6710085896
 20
225.3977020758
  0
LINE
  5
36A
100
AcDbEntity
  8
0
100
AcDbLine
 62
7
  6
CONTINUOUS
 10
63.7988735465
 20
228.2511395965
 11
63.7988735465
 21
230.3977019611
  0
LINE
  5
36B
100
AcDbEntity
  8
0
100
AcDbLine
 62
7
  6
CONTINUOUS
 10
63.7988735465
 20
257.3977019611
 11
63.7988735465
 21
259.5442644145
  0
LINE
  5
36C
100
AcDbEntity
  8
0
100
AcDbLine
 62
7
  6
CONTINUOUS
 10
64.4141929326
 20
230.8977019611
 11
64.2988741406
 21
230.8977019611
  0
LINE
  5
36D
100
AcDbEntity
  8
0
100
AcDbLine
 62
7
  6
CONTINUOUS
 10
91.1835533099
 20
230.8977019611
 11
91.2988729524
 21
230.8977019611
  0
LINE
  5
36E
100
AcDbEntity
  8
0
100
AcDbLine
 62
7
  6
CONTINUOUS
 10
65.6547119007
 20
252.3977019611
 11
65.6547119007
 21
235.3977019611
  0
LINE
  5
36F
100
AcDbEntity
  8
0
100
AcDbLine
 62
7
  6
CONTINUOUS
 10
65.9628054892
 20
235.3977019604
 11
65.9628054892
 21
252.3977019611
  0
LINE
  5
370
100
AcDbEntity
  8
0
100
AcDbLine
 62
7
  6
CONTINUOUS
 10
66.7988735465
 20
256.0591103658
 11
66.7988735465
 21
231.7362934785
  0
LWPOLYLINE
  5
371
100
AcDbEntity
  8
0
100
AcDbPolyline
 62
7
  6
CONTINUOUS
 90
60
 70
0
 10
65.9628054594
 20
235.3977019604
 10
65.9619076075
 20
235.28376796
 10
65.9586804657
 20
235.1534464573
 10
65.9530961066
 20
235.0229696222
 10
65.9451440523
 20
234.892296396
 10
65.934814223
 20
234.761445947
 10
65.9221010158
 20
234.6304507964
 10
65.9069995742
 20
234.4993502379
 10
65.8895077806
 20
234.3681714163
 10
65.8696284576
 20
234.2369757658
 10
65.8473522609
 20
234.1057257576
 10
65.8226740017
 20
233.974433526
 10
65.7955787585
 20
233.843059934
 10
65.7660516654
 20
233.7115927387
 10
65.7340801257
 20
233.5800345091
 10
65.6996076291
 20
233.4482400865
 10
65.6627577813
 20
233.3167305562
 10
65.6233512786
 20
233.1849347365
 10
65.5823642028
 20
233.0559544625
 10
65.5408335587
 20
232.9324157901
 10
65.4989928081
 20
232.8142288824
 10
65.4574577549
 20
232.7023570872
 10
65.4161492917
 20
232.5958751554
 10
65.375119395
 20
232.4943493536
 10
65.3343969439
 20
232.3973762562
 10
65.2939853917
 20
232.3045667547
 10
65.2538762747
 20
232.2155694365
 10
65.2140305992
 20
232.130023099
 10
65.174451374
 20
232.0477037031
 10
65.1350708623
 20
231.9682797237
 10
65.0960095191
 20
231.8918267091
 10
65.0573227295
 20
231.8182934749
 10
65.01911146
 20
231.7477223696
 10
64.9814590846
 20
231.6801232745
 10
64.944448192
 20
231.6155055228
 10
64.9081551198
 20
231.5538699885
 10
64.8726548252
 20
231.495216029
 10
64.8380168061
 20
231.439534165
 10
64.8043080105
 20
231.386812655
 10
64.7715972388
 20
231.3370421013
 10
64.7399228676
 20
231.2901669162
 10
64.7093331333
 20
231.2461494463
 10
64.6798463087
 20
231.2049107542
 10
64.6514845075
 20
231.1663805809
 10
64.624275068
 20
231.1304989093
 10
64.5982405021
 20
231.0972007552
 10
64.573413129
 20
231.0664335243
 10
64.5498194233
 20
231.0381368767
 10
64.5275005102
 20
231.0122668427
 10
64.5064900199
 20
230.9887669745
 10
64.486844701
 20
230.9676019693
 10
64.4686139075
 20
230.9487221994
 10
64.4518639894
 20
230.932087649
 10
64.4366552311
 20
230.9176421452
 10
64.4230764882
 20
230.905345161
 10
64.4112092669
 20
230.8951348862
 10
64.4011628331
 20
230.8869564257
 10
64.3930404519
 20
230.8807295472
 10
64.3869770858
 20
230.8763755465
 10
64.3854477263
 20
230.8753301647
  0
LWPOLYLINE
  5
372
100
AcDbEntity
  8
0
100
AcDbPolyline
 62
7
  6
CONTINUOUS
 90
15
 70
0
 10
65.6648267256
 20
234.4293751529
 10
65.6625240264
 20
234.3860449439
 10
65.6554359625
 20
234.2634655053
 10
65.6474926211
 20
234.1409589523
 10
65.6386814495
 20
234.0185717564
 10
65.6289891832
 20
233.8963551283
 10
65.6184020894
 20
233.7743672692
 10
65.6069059698
 20
233.6526722419
 10
65.5944863335
 20
233.5313417663
 10
65.5811285997
 20
233.4104549896
 10
65.5668181618
 20
233.2900997736
 10
65.5515404932
 20
233.1703704228
 10
65.5352812869
 20
233.0513708687
 10
65.5180269543
 20
232.933213924
 10
65.4998717328
 20
232.8167115674
  0
LWPOLYLINE
  5
373
100
AcDbEntity
  8
0
100
AcDbPolyline
 62
7
  6
CONTINUOUS
 90
16
 70
0
 10
65.4998870398
 20
254.9786098269
 10
65.4999353696
 20
254.9783186814
 10
65.5181925274
 20
254.8610921907
 10
65.5354388686
 20
254.742917252
 10
65.5516900274
 20
254.6239008487
 10
65.5669596105
 20
254.5041556657
 10
65.5812619343
 20
254.3837856169
 10
65.5946115383
 20
254.2628848687
 10
65.6070230345
 20
254.1415412728
 10
65.618511013
 20
254.0198338285
 10
65.6290899657
 20
253.8978342487
 10
65.6387740966
 20
253.7756064417
 10
65.647577136
 20
253.6532086022
 10
65.6555123498
 20
253.5306917871
 10
65.6625922846
 20
253.408102461
 10
65.6648267296
 20
253.3660286914
  0
LWPOLYLINE
  5
374
100
AcDbEntity
  8
0
100
AcDbPolyline
 62
7
  6
CONTINUOUS
 90
61
 70
0
 10
91.216186077
 20
230.8728269365
 10
91.2146334663
 20
230.8737916729
 10
91.2107513092
 20
230.8763884812
 10
91.2046737561
 20
230.8807539306
 10
91.1965342109
 20
230.8869959563
 10
91.1864679941
 20
230.8951933293
 10
91.1745788113
 20
230.9054261987
 10
91.1609762695
 20
230.9177493725
 10
91.1457425918
 20
230.9322241493
 10
91.1289673092
 20
230.9488904617
 10
91.1107114286
 20
230.9678037305
 10
91.0910420544
 20
230.9890030649
 10
91.0700093043
 20
231.0125370766
 10
91.0476709934
 20
231.0384395793
 10
91.0240607477
 20
231.0667666808
 10
90.9992201979
 20
231.0975613819
 10
90.9731751736
 20
231.1308844989
 10
90.9459575734
 20
231.1667888947
 10
90.9175893214
 20
231.2053401269
 10
90.8880971382
 20
231.2465989421
 10
90.8575025193
 20
231.2906364231
 10
90.8258226168
 20
231.3375331839
 10
90.7931063493
 20
231.3873259721
 10
90.7593920098
 20
231.4400705776
 10
90.7247496941
 20
231.4957743512
 10
90.689247342
 20
231.5544472908
 10
90.6529554919
 20
231.6160968592
 10
90.6159501258
 20
231.6807214815
 10
90.578308636
 20
231.7483177973
 10
90.5401146172
 20
231.818873799
 10
90.5014524278
 20
231.8923766649
 10
90.4624245224
 20
231.9687797802
 10
90.4230853887
 20
232.0481344354
 10
90.3835569802
 20
232.1303601121
 10
90.3437653272
 20
232.2157996277
 10
90.3037095583
 20
232.3046844252
 10
90.2633453485
 20
232.3973874784
 10
90.222659562
 20
232.4942720439
 10
90.1816512107
 20
232.5957403454
 10
90.1403452031
 20
232.7022099854
 10
90.0987903912
 20
232.8141293736
 10
90.0568905347
 20
232.9324824076
 10
90.015304596
 20
233.0561938073
 10
89.9743025122
 20
233.1852372391
 10
89.9349052699
 20
233.3170208119
 10
89.8980934464
 20
233.4484099794
 10
89.8636597463
 20
233.5800631338
 10
89.8317036039
 20
233.7115577671
 10
89.8021819183
 20
233.8429968745
 10
89.7750855909
 20
233.9743701086
 10
89.7504029131
 20
234.1056805718
 10
89.7281216285
 20
234.2369571308
 10
89.7082381111
 20
234.3681798508
 10
89.6907447357
 20
234.4993726359
 10
89.6756430446
 20
234.6304793762
 10
89.662930511
 20
234.7614727572
 10
89.6526016152
 20
234.8923167921
 10
89.6446503712
 20
235.0229814948
 10
89.6390664966
 20
235.1534503263
 10
89.6358394803
 20
235.2837682969
 10
89.6349416336
 20
235.3977019604
  0
LINE
  5
375
100
AcDbEntity
  8
DEFAULT_1
100
AcDbLine
 62
2
  6
CENTER
 10
77.7988735465
 20
266.1584963174
 11
77.7988735465
 21
245.8978019611
  0
LINE
  5
376
100
AcDbEntity
  8
0
100
AcDbLine
 62
2
  6
CONTINUOUS
 10
77.7988735465
 20
244.7777019611
 11
77.7988735465
 21
243.0177019611
  0
LINE
  5
377
100
AcDbEntity
  8
DEFAULT_1
100
AcDbLine
 62
2
  6
CENTER
 10
77.7988735465
 20
220.3166358523
 11
77.7988735465
 21
241.8976019611
  0
LINE
  5
378
100
AcDbEntity
  8
DEFAULT_1
100
AcDbLine
 62
2
  6
CENTER
 10
49.0488735465
 20
243.8977019611
 11
106.9110452637
 21
243.8977019611
  0
LWPOLYLINE
  5
379
100
AcDbEntity
  8
0
100
AcDbPolyline
 62
7
  6
CONTINUOUS
 90
61
 70
0
 10
64.381553994
 20
256.9225811116
 10
64.3830505413
 20
256.9216526337
 10
64.3868763303
 20
256.9190980142
 10
64.3928972761
 20
256.9147804493
 10
64.4009801258
 20
256.9085916944
 10
64.4109897231
 20
256.90045264
 10
64.4228224895
 20
256.8902828417
 10
64.4363688449
 20
256.8780272611
 10
64.4515471418
 20
256.8636238786
 10
64.468268379
 20
256.8470320066
 10
64.4864721567
 20
256.8281953305
 10
64.5060920097
 20
256.807073716
 10
64.5270785512
 20
256.7836173835
 10
64.5493750119
 20
256.7577908743
 10
64.5729477048
 20
256.7295376467
 10
64.5977554886
 20
256.6988136044
 10
64.6237718088
 20
256.6655584117
 10
64.6509642576
 20
256.6297194824
 10
64.6793103166
 20
256.5912317551
 10
64.7087826421
 20
256.5500351735
 10
64.7393590955
 20
256.5060594626
 10
64.7710213616
 20
256.4592256991
 10
64.8037212595
 20
256.4094961199
 10
64.8374204864
 20
256.3568149985
 10
64.8720501513
 20
256.301173018
 10
64.9075432742
 20
256.2425584795
 10
64.9438302638
 20
256.1809620609
 10
64.9808360692
 20
256.1163832745
 10
65.0184842916
 20
256.0488231554
 10
65.0566922704
 20
255.9782912271
 10
65.0953765608
 20
255.9047975659
 10
65.1344362029
 20
255.8283846182
 10
65.1738155703
 20
255.7490018422
 10
65.2133938904
 20
255.6667256052
 10
65.253239207
 20
255.5812241987
 10
65.2933485437
 20
255.4922739122
 10
65.3337615
 20
255.3995126817
 10
65.3744870248
 20
255.3025884226
 10
65.415522151
 20
255.2011112768
 10
65.456838465
 20
255.0946770408
 10
65.4983845804
 20
254.9828507727
 10
65.5402389813
 20
254.8647096466
 10
65.5817898244
 20
254.7412045495
 10
65.6228082918
 20
254.6122287994
 10
65.6622517712
 20
254.4804200995
 10
65.6991410776
 20
254.3488854533
 10
65.7336533623
 20
254.2170603269
 10
65.7656621569
 20
254.0854763881
 10
65.7952251734
 20
253.9539845842
 10
65.8223551703
 20
253.822587126
 10
65.8470671727
 20
253.6912713047
 10
65.869376233
 20
253.5599974309
 10
65.8892876034
 20
253.4287772059
 10
65.9068107171
 20
253.2975722299
 10
65.9219426017
 20
253.166444523
 10
65.9346853076
 20
253.0354213805
 10
65.9450436167
 20
252.9045424842
 10
65.9530230902
 20
252.7738406938
 10
65.9586337839
 20
252.6433357017
 10
65.9618861969
 20
252.5129869103
 10
65.9628054593
 20
252.3977019611
  0
LINE
  5
37A
100
AcDbEntity
  8
0
100
AcDbLine
 62
7
  6
CONTINUOUS
 10
88.7988735465
 20
256.0591103658
 11
88.7988735465
 21
231.7362934785
  0
LWPOLYLINE
  5
37B
100
AcDbEntity
  8
0
100
AcDbPolyline
 62
7
  6
CONTINUOUS
 90
15
 70
0
 10
90.097874675
 20
232.8167159646
 10
90.0797201388
 20
232.933213924
 10
90.0624658061
 20
233.0513708687
 10
90.0462065998
 20
233.1703704228
 10
90.0309289313
 20
233.2900997736
 10
90.0166184933
 20
233.4104549896
 10
90.0032607595
 20
233.5313417663
 10
89.9908411232
 20
233.6526722419
 10
89.9793450036
 20
233.7743672692
 10
89.9687579098
 20
233.8963551283
 10
89.9590656436
 20
234.0185717564
 10
89.9502544719
 20
234.1409589523
 10
89.9423111305
 20
234.2634655053
 10
89.9352230666
 20
234.3860449439
 10
89.9329203674
 20
234.4293751529
  0
LINE
  5
37C
100
AcDbEntity
  8
0
100
AcDbLine
 62
7
  6
CONTINUOUS
 10
89.6349416038
 20
252.3977019611
 11
89.6349416038
 21
235.3977019604
  0
LINE
  5
37D
100
AcDbEntity
  8
0
100
AcDbLine
 62
7
  6
CONTINUOUS
 10
89.9430351923
 20
252.3977019611
 11
89.9430351923
 21
235.3977019611
  0
LWPOLYLINE
  5
37E
100
AcDbEntity
  8
0
100
AcDbPolyline
 62
7
  6
CONTINUOUS
 90
60
 70
0
 10
89.6349416337
 20
252.3977019611
 10
89.6358608849
 20
252.5129862005
 10
89.6391131524
 20
252.6433310881
 10
89.6447233272
 20
252.7738277049
 10
89.6527019431
 20
252.9045206088
 10
89.6630592598
 20
253.0353927435
 10
89.6758012236
 20
253.1664137889
 10
89.6909332843
 20
253.2975473917
 10
89.7084578971
 20
253.4287660417
 10
89.7283733695
 20
253.5600130334
 10
89.7506873976
 20
253.6913130634
 10
89.7754036477
 20
253.8226465456
 10
89.8025345006
 20
253.9540429264
 10
89.832091814
 20
254.0855057769
 10
89.8640848385
 20
254.2170251108
 10
89.8985577324
 20
254.3487073563
 10
89.935408597
 20
254.4801208342
 10
89.9748432586
 20
254.611919287
 10
90.0158773234
 20
254.7409603485
 10
90.0574834063
 20
254.8646381407
 10
90.0993966797
 20
254.9829448721
 10
90.1409624437
 20
255.0948186537
 10
90.1822762264
 20
255.201240643
 10
90.2232897768
 20
255.3026604603
 10
90.2639786467
 20
255.3994964528
 10
90.3043443068
 20
255.4921515703
 10
90.3444003736
 20
255.5809897201
 10
90.3841917742
 20
255.6663847197
 10
90.4237194004
 20
255.7485676552
 10
90.4630575174
 20
255.8278814988
 10
90.5020838472
 20
255.904244905
 10
90.5407436488
 20
255.9777085027
 10
90.5789344787
 20
256.0482255929
 10
90.6165719085
 20
256.1157831643
 10
90.653572272
 20
256.1803690237
 10
90.6898581167
 20
256.2419796544
 10
90.7253533683
 20
256.300613331
 10
90.7599873968
 20
256.356277364
 10
90.7936922316
 20
256.4089817128
 10
90.826397687
 20
256.4587336494
 10
90.8580655484
 20
256.5055891103
 10
90.8886469577
 20
256.5495849596
 10
90.9181247204
 20
256.590801796
 10
90.9464773179
 20
256.6293107195
 10
90.973678023
 20
256.6651725129
 10
90.9997049053
 20
256.6984528096
 10
91.0245259742
 20
256.7292044591
 10
91.0481153202
 20
256.7574882719
 10
91.0704312861
 20
256.7833473632
 10
91.09144018
 20
256.8068379253
 10
91.1110841654
 20
256.8279939296
 10
91.1293130888
 20
256.8468641382
 10
91.1460597314
 20
256.8634877825
 10
91.1612629717
 20
256.8779204286
 10
91.1748331323
 20
256.8902021713
 10
91.1866878459
 20
256.9003945194
 10
91.1967172002
 20
256.9085524342
 10
91.2048171827
 20
256.9147562842
 10
91.2108522756
 20
256.9190852442
 10
91.2123707316
 20
256.920121894
  0
LWPOLYLINE
  5
37F
100
AcDbEntity
  8
0
100
AcDbPolyline
 62
7
  6
CONTINUOUS
 90
16
 70
0
 10
89.9329203634
 20
253.3660286914
 10
89.9351548084
 20
253.408102461
 10
89.9422347433
 20
253.5306917871
 10
89.950169957
 20
253.6532086022
 10
89.9589729964
 20
253.7756064417
 10
89.9686571273
 20
253.8978342487
 10
89.97923608
 20
254.0198338285
 10
89.9907240585
 20
254.1415412728
 10
90.0031355547
 20
254.2628848687
 10
90.0164851588
 20
254.3837856169
 10
90.0307874825
 20
254.5041556657
 10
90.0460570656
 20
254.6239008487
 10
90.0623082244
 20
254.742917252
 10
90.0795545656
 20
254.8610921907
 10
90.0978117234
 20
254.9783186814
 10
90.097859328
 20
254.978605458
  0
LINE
  5
380
100
AcDbEntity
  8
0
100
AcDbLine
 62
7
  6
CONTINUOUS
 10
91.2988729524
 20
256.8977019611
 11
91.183556133
 21
256.8977019611
  0
LINE
  5
381
100
AcDbEntity
  8
0
100
AcDbLine
 62
7
  6
CONTINUOUS
 10
64.2988741406
 20
256.8977019611
 11
64.4141901938
 21
256.8977019611
  0
LWPOLYLINE
  5
382
100
AcDbEntity
  8
0
100
AcDbPolyline
 62
7
  6
CONTINUOUS
 90
45
 70
0
 10
91.7988727089
 20
259.5463252037
 10
91.7977070707
 20
259.6281505077
 10
91.7928453175
 20
259.7322510707
 10
91.7841477592
 20
259.8366233469
 10
91.7715757976
 20
259.941035207
 10
91.7551048947
 20
260.0452793003
 10
91.7347230184
 20
260.1491583077
 10
91.7104344601
 20
260.2524624431
 10
91.6822501718
 20
260.3550111484
 10
91.650195987
 20
260.4566119766
 10
91.6143041284
 20
260.5570904369
 10
91.5746189896
 20
260.6562684164
 10
91.5311946138
 20
260.7539724659
 10
91.4840969238
 20
260.8500288646
 10
91.4333968727
 20
260.9442775067
 10
91.379180125
 20
261.0365523436
 10
91.3215234
 20
261.1267209542
 10
91.2605151283
 20
261.2146451358
 10
91.1962445846
 20
261.3001982239
 10
91.1288076131
 20
261.3832556951
 10
91.0583057374
 20
261.4636967978
 10
90.9848438138
 20
261.5414071636
 10
90.9085379718
 20
261.6162706909
 10
90.8295041057
 20
261.6881819542
 10
90.7478776364
 20
261.7570284092
 10
90.6637942688
 20
261.8227094822
 10
90.5774000646
 20
261.8851280161
 10
90.4888375915
 20
261.9442006652
 10
90.3982795177
 20
261.9998359576
 10
90.3058546831
 20
262.0519807063
 10
90.2118628947
 20
262.100502529
 10
90.1165519769
 20
262.1453280567
 10
90.0202579027
 20
262.1863719662
 10
89.9233017379
 20
262.2235912101
 10
89.8260150671
 20
262.256971363
 10
89.7287276391
 20
262.2865303888
 10
89.6317722831
 20
262.3123155351
 10
89.5354501015
 20
262.3344100484
 10
89.4401603067
 20
262.3529036975
 10
89.3462674122
 20
262.3679277448
 10
89.2541299242
 20
262.3796445578
 10
89.1641093687
 20
262.3882447618
 10
89.0764870647
 20
262.3939506428
 10
88.9916491311
 20
262.3969992022
 10
88.9267384212
 20
262.3977018432
  0
LINE
  5
383
100
AcDbEntity
  8
0
100
AcDbLine
 62
7
  6
CONTINUOUS
 10
91.7988735465
 20
259.5442644145
 11
91.7988735465
 21
257.3977019611
  0
LINE
  5
384
100
AcDbEntity
  8
0
100
AcDbLine
 62
7
  6
CONTINUOUS
 10
91.7988735465
 20
230.3977019611
 11
91.7988735465
 21
228.2511395965
  0
LWPOLYLINE
  5
385
100
AcDbEntity
  8
0
100
AcDbPolyline
 62
7
  6
CONTINUOUS
 90
45
 70
0
 10
66.6710085826
 20
262.3977018432
 10
66.6046277433
 20
262.3969669724
 10
66.5197485116
 20
262.3938743193
 10
66.4320909246
 20
262.3881205196
 10
66.342041329
 20
262.3794690713
 10
66.2498813607
 20
262.3676981976
 10
66.1559724291
 20
262.3526178116
 10
66.0606730703
 20
262.3340661206
 10
65.9643474661
 20
262.3119123771
 10
65.8673944836
 20
262.2860673204
 10
65.7701150672
 20
262.2564481827
 10
65.6728417842
 20
262.2230081741
 10
65.575904126
 20
262.1857297733
 10
65.4796333933
 20
262.1446278249
 10
65.3843502613
 20
262.099745721
 10
65.2903903454
 20
262.0511691274
 10
65.1980009399
 20
261.9989715622
 10
65.1074812858
 20
261.9432855141
 10
65.0189599546
 20
261.8841642667
 10
64.9326092405
 20
261.8216993197
 10
64.8485714841
 20
261.755974088
 10
64.7669924842
 20
261.6870857495
 10
64.6880077075
 20
261.61513488
 10
64.61175231
 20
261.5402339706
 10
64.538342057
 20
261.4624884796
 10
64.4678928965
 20
261.3820144751
 10
64.4005096057
 20
261.2989263848
 10
64.3362935994
 20
261.2133449864
 10
64.2753406201
 20
261.1253948333
 10
64.2177398292
 20
261.0352025967
 10
64.1635795742
 20
260.9429065407
 10
64.112936468
 20
260.8486391022
 10
64.0658960995
 20
260.7525664518
 10
64.0225293244
 20
260.6548487904
 10
63.9829019446
 20
260.5556599204
 10
63.9470678731
 20
260.455173367
 10
63.9150713626
 20
260.3535673191
 10
63.8869444818
 20
260.2510163187
 10
63.8627129049
 20
260.1477129126
 10
63.8423874096
 20
260.0438377216
 10
63.8259720928
 20
259.9396006318
 10
63.813454715
 20
259.8351990336
 10
63.8048105115
 20
259.7308403405
 10
63.8000006329
 20
259.6267567966
 10
63.7988743841
 20
259.5463250448
  0
LINE
  5
386
100
AcDbEntity
  8
0
100
AcDbLine
 62
7
  6
CONTINUOUS
 10
53.8488735465
 20
262.3977019611
 11
101.7488735465
 21
262.3977019611
  0
LINE
  5
387
100
AcDbEntity
  8
0
100
AcDbLine
 62
7
  6
CONTINUOUS
 10
104.5488735465
 20
259.5977019611
 11
104.5488735465
 21
228.1977019611
  0
LINE
  5
388
100
AcDbEntity
  8
0
100
AcDbLine
 62
7
  6
CONTINUOUS
 10
160.7940231565
 20
76.0771759326
 11
136.4712062692
 21
76.0771759326
  0
LINE
  5
389
100
AcDbEntity
  8
0
100
AcDbLine
 62
7
  6
CONTINUOUS
 10
157.1326147518
 20
77.9064299705
 11
140.1326147518
 21
77.9064299705
  0
LINE
  5
38A
100
AcDbEntity
  8
DEFAULT_1
100
AcDbLine
 62
2
  6
CENTER
 10
171.4340273339
 20
85.2564299705
 11
150.6127147518
 21
85.2564299705
  0
LINE
  5
38B
100
AcDbEntity
  8
0
100
AcDbLine
 62
2
  6
CONTINUOUS
 10
149.4926147518
 20
85.2564299705
 11
147.7326147518
 21
85.2564299705
  0
LINE
  5
38C
100
AcDbEntity
  8
DEFAULT_1
100
AcDbLine
 62
2
  6
CENTER
 10
126.2061203572
 20
85.2564299705
 11
146.6125147518
 21
85.2564299705
  0
LINE
  5
38D
100
AcDbEntity
  8
0
100
AcDbLine
 62
7
  6
CONTINUOUS
 10
164.3326147518
 20
86.778907542
 11
162.1326147518
 21
86.778907542
  0
LINE
  5
38E
100
AcDbEntity
  8
0
100
AcDbLine
 62
7
  6
CONTINUOUS
 10
135.1326147518
 20
86.778907542
 11
132.9326147518
 21
86.778907542
  0
LINE
  5
38F
100
AcDbEntity
  8
0
100
AcDbLine
 62
7
  6
CONTINUOUS
 10
132.9326147518
 20
95.9874299705
 11
138.9038604458
 21
95.9874299705
  0
LINE
  5
390
100
AcDbEntity
  8
0
100
AcDbLine
 62
7
  6
CONTINUOUS
 10
158.361369058
 20
95.9874299705
 11
164.3326147518
 21
95.9874299705
  0
LINE
  5
391
100
AcDbEntity
  8
0
100
AcDbLine
 62
7
  6
CONTINUOUS
 10
157.1326147518
 20
95.9997402954
 11
140.1326147518
 21
95.9997402954
  0
LINE
  5
392
100
AcDbEntity
  8
0
100
AcDbLine
 62
7
  6
CONTINUOUS
 10
130.1326147518
 20
86.0064299705
 11
130.1326147518
 21
166.0064299705
  0
LINE
  5
393
100
AcDbEntity
  8
0
100
AcDbLine
 62
7
  6
CONTINUOUS
 10
135.6326147518
 20
82.4064299705
 11
135.6326147518
 21
89.217723976
  0
LINE
  5
394
100
AcDbEntity
  8
0
100
AcDbLine
 62
7
  6
CONTINUOUS
 10
143.8826147518
 20
83.5064299705
 11
143.8826147518
 21
87.0064299705
  0
LINE
  5
395
100
AcDbEntity
  8
DEFAULT_1
100
AcDbLine
 62
2
  6
CENTER
 10
148.6126147518
 20
130.2839006322
 11
148.6126147518
 21
127.8840006322
  0
LINE
  5
396
100
AcDbEntity
  8
0
100
AcDbLine
 62
2
  6
CONTINUOUS
 10
148.6126147518
 20
126.7639006322
 11
148.6126147518
 21
125.0039006322
  0
LINE
  5
397
100
AcDbEntity
  8
DEFAULT_1
100
AcDbLine
 62
2
  6
CENTER
 10
148.6126147518
 20
89.6564299705
 11
148.6126147518
 21
87.2565299705
  0
LINE
  5
398
100
AcDbEntity
  8
0
100
AcDbLine
 62
2
  6
CONTINUOUS
 10
148.6126147518
 20
86.1364299705
 11
148.6126147518
 21
84.3764299705
  0
LINE
  5
399
100
AcDbEntity
  8
DEFAULT_1
100
AcDbLine
 62
2
  6
CENTER
 10
148.6126147518
 20
80.8564299705
 11
148.6126147518
 21
83.2563299705
  0
LINE
  5
39A
100
AcDbEntity
  8
DEFAULT_1
100
AcDbLine
 62
2
  6
CENTER
 10
148.6126147518
 20
121.4839006322
 11
148.6126147518
 21
123.8838006322
  0
LINE
  5
39B
100
AcDbEntity
  8
DEFAULT_1
100
AcDbLine
 62
2
  6
CENTER
 10
148.6326147518
 20
62.9543813953
 11
148.6326147518
 21
186.673172093
  0
LINE
  5
39C
100
AcDbEntity
  8
DEFAULT_1
100
AcDbLine
 62
2
  6
CENTER
 10
170.3552101373
 20
125.8839006322
 11
150.6127147518
 21
125.8839006322
  0
LINE
  5
39D
100
AcDbEntity
  8
0
100
AcDbLine
 62
2
  6
CONTINUOUS
 10
149.4926147518
 20
125.8839006322
 11
147.7326147518
 21
125.8839006322
  0
LINE
  5
39E
100
AcDbEntity
  8
DEFAULT_1
100
AcDbLine
 62
2
  6
CENTER
 10
127.6044008349
 20
125.8839006322
 11
146.6125147518
 21
125.8839006322
  0
LINE
  5
39F
100
AcDbEntity
  8
0
100
AcDbLine
 62
7
  6
CONTINUOUS
 10
153.3826147518
 20
83.5064299705
 11
153.3826147518
 21
87.0064299705
  0
LINE
  5
3A0
100
AcDbEntity
  8
0
100
AcDbLine
 62
7
  6
CONTINUOUS
 10
161.6326147518
 20
89.217723976
 11
161.6326147518
 21
82.4064299705
  0
LINE
  5
3A1
100
AcDbEntity
  8
0
100
AcDbLine
 62
7
  6
CONTINUOUS
 10
164.3326147518
 20
139.2044299705
 11
132.9326147518
 21
139.2044299705
  0
LINE
  5
3A2
100
AcDbEntity
  8
0
100
AcDbLine
 62
7
  6
CONTINUOUS
 10
167.1326147518
 20
86.0064299705
 11
167.1326147518
 21
166.0064299705
  0
LINE
  5
3A3
100
AcDbEntity
  8
DEFAULT_1
100
AcDbLine
 62
2
  6
CENTER
 10
168.8289581395
 20
166.0064299705
 11
150.6327147518
 21
166.0064299705
  0
LINE
  5
3A4
100
AcDbEntity
  8
0
100
AcDbLine
 62
2
  6
CONTINUOUS
 10
149.5126147518
 20
166.0064299705
 11
147.7526147518
 21
166.0064299705
  0
LINE
  5
3A5
100
AcDbEntity
  8
DEFAULT_1
100
AcDbLine
 62
2
  6
CENTER
 10
126.8116186047
 20
166.0064299705
 11
146.6325147518
 21
166.0064299705
  0
ARC
  5
3A6
100
AcDbEntity
  8
0
100
AcDbCircle
 62
7
  6
CONTINUOUS
 10
69.5988735465
 20
70.3064299705
 40
2.8
100
AcDbArc
 50
180.0
 51
270.0
  0
ARC
  5
3A7
100
AcDbEntity
  8
0
100
AcDbCircle
 62
7
  6
CONTINUOUS
 10
69.941535533
 20
104.8884299696
 40
0.3
100
AcDbArc
 50
192.063059175
 51
270.0
  0
ARC
  5
3A8
100
AcDbEntity
  8
0
100
AcDbCircle
 62
7
  6
CONTINUOUS
 10
55.27336832
 20
181.5064299679
 40
2.9999999995
100
AcDbArc
 50
28.7750039602
 51
90.0
  0
ARC
  5
3A9
100
AcDbEntity
  8
0
100
AcDbCircle
 62
7
  6
CONTINUOUS
 10
53.8488735465
 20
181.7064299705
 40
2.8
100
AcDbArc
 50
90.0
 51
180.0
  0
ARC
  5
3AA
100
AcDbEntity
  8
0
100
AcDbCircle
 62
7
  6
CONTINUOUS
 10
77.7988735465
 20
84.7374299705
 40
14.0
100
AcDbArc
 50
320.5346794069
 51
8.3847564026
  0
ARC
  5
3AB
100
AcDbEntity
  8
0
100
AcDbCircle
 62
7
  6
CONTINUOUS
 10
77.7988735465
 20
84.7374299705
 40
14.0
100
AcDbArc
 50
171.6152435974
 51
219.4653205931
  0
ARC
  5
3AC
100
AcDbEntity
  8
0
100
AcDbCircle
 62
7
  6
CONTINUOUS
 10
85.9988735465
 20
70.3064299705
 40
2.8
100
AcDbArc
 50
270.0
 51
360.0
  0
ARC
  5
3AD
100
AcDbEntity
  8
0
100
AcDbCircle
 62
7
  6
CONTINUOUS
 10
85.65621156
 20
104.8884299696
 40
0.3
100
AcDbArc
 50
270.0
 51
347.936940825
  0
ARC
  5
3AE
100
AcDbEntity
  8
0
100
AcDbCircle
 62
7
  6
CONTINUOUS
 10
100.324378773
 20
181.5064299679
 40
2.9999999995
100
AcDbArc
 50
90.0
 51
151.2359679523
  0
ARC
  5
3AF
100
AcDbEntity
  8
0
100
AcDbCircle
 62
7
  6
CONTINUOUS
 10
101.7488735465
 20
181.7064299705
 40
2.8
100
AcDbArc
 50
0.0
 51
90.0
  0
ARC
  5
3B0
100
AcDbEntity
  8
0
100
AcDbCircle
 62
7
  6
CONTINUOUS
 10
85.9720538762
 20
235.3988561131
 40
3.9709814839
100
AcDbArc
 50
346.6546516873
 51
359.9833471808
  0
ARC
  5
3B1
100
AcDbEntity
  8
0
100
AcDbCircle
 62
7
  6
CONTINUOUS
 10
69.6256932168
 20
235.3988561131
 40
3.9709814839
100
AcDbArc
 50
180.0166528192
 51
193.3453483127
  0
ARC
  5
3B2
100
AcDbEntity
  8
0
100
AcDbCircle
 62
7
  6
CONTINUOUS
 10
85.9720538778
 20
252.3965478093
 40
3.9709814823
100
AcDbArc
 50
0.0166528178
 51
13.3453483304
  0
ARC
  5
3B3
100
AcDbEntity
  8
0
100
AcDbCircle
 62
7
  6
CONTINUOUS
 10
69.6256932152
 20
252.3965478093
 40
3.9709814823
100
AcDbArc
 50
166.6546516696
 51
179.9833471822
  0
ARC
  5
3B4
100
AcDbEntity
  8
0
100
AcDbCircle
 62
7
  6
CONTINUOUS
 10
53.8488735465
 20
228.1977019611
 40
2.8
100
AcDbArc
 50
180.0
 51
270.0
  0
ARC
  5
3B5
100
AcDbEntity
  8
0
100
AcDbCircle
 62
7
  6
CONTINUOUS
 10
101.7488735465
 20
259.5977019611
 40
2.8
100
AcDbArc
 50
0.0
 51
90.0
  0
ARC
  5
3B6
100
AcDbEntity
  8
0
100
AcDbCircle
 62
7
  6
CONTINUOUS
 10
101.7488735465
 20
228.1977019611
 40
2.8
100
AcDbArc
 50
270.0
 51
360.0
  0
ARC
  5
3B7
100
AcDbEntity
  8
0
100
AcDbCircle
 62
7
  6
CONTINUOUS
 10
53.8488735465
 20
259.5977019611
 40
2.8
100
AcDbArc
 50
90.0
 51
180.0
  0
ARC
  5
3B8
100
AcDbEntity
  8
0
100
AcDbCircle
 62
7
  6
CONTINUOUS
 10
64.2988735465
 20
257.3977019611
 40
0.5
100
AcDbArc
 50
180.0
 51
270.0
  0
ARC
  5
3B9
100
AcDbEntity
  8
0
100
AcDbCircle
 62
7
  6
CONTINUOUS
 10
64.2988735465
 20
230.3977019611
 40
0.5
100
AcDbArc
 50
90.0
 51
180.0
  0
ARC
  5
3BA
100
AcDbEntity
  8
0
100
AcDbCircle
 62
7
  6
CONTINUOUS
 10
91.2988735465
 20
257.3977019611
 40
0.5
100
AcDbArc
 50
270.0
 51
360.0
  0
ARC
  5
3BB
100
AcDbEntity
  8
0
100
AcDbCircle
 62
7
  6
CONTINUOUS
 10
91.2988735465
 20
230.3977019611
 40
0.5
100
AcDbArc
 50
0.0
 51
90.0
  0
ARC
  5
3BC
100
AcDbEntity
  8
0
100
AcDbCircle
 62
7
  6
CONTINUOUS
 10
148.6326147518
 20
86.0064299705
 40
18.5
100
AcDbArc
 50
180.0
 51
360.0
  0
ARC
  5
3BD
100
AcDbEntity
  8
0
100
AcDbCircle
 62
7
  6
CONTINUOUS
 10
148.6326147518
 20
166.0064299705
 40
18.5
100
AcDbArc
 50
0.0
 51
180.0
  0
CIRCLE
  5
3BE
100
AcDbEntity
  8
0
100
AcDbCircle
 62
7
  6
CONTINUOUS
 10
148.6326147518
 20
166.0064299705
 40
6.7
  0
ARC
  5
3BF
100
AcDbEntity
  8
0
100
AcDbCircle
 62
7
  6
CONTINUOUS
 10
148.6326147518
 20
83.5064299705
 40
4.75
100
AcDbArc
 50
180.0
 51
360.0
  0
ARC
  5
3C0
100
AcDbEntity
  8
0
100
AcDbCircle
 62
7
  6
CONTINUOUS
 10
148.6326147518
 20
87.0064299705
 40
4.75
100
AcDbArc
 50
0.0
 51
180.0
  0
CIRCLE
  5
3C1
100
AcDbEntity
  8
0
100
AcDbCircle
 62
7
  6
CONTINUOUS
 10
148.6326147518
 20
166.0064299705
 40
4.7
  0
ARC
  5
3C2
100
AcDbEntity
  8
0
100
AcDbCircle
 62
7
  6
CONTINUOUS
 10
157.1326147518
 20
82.4064299705
 40
4.5
100
AcDbArc
 50
270.0
 51
360.0
  0
ARC
  5
3C3
100
AcDbEntity
  8
0
100
AcDbCircle
 62
7
  6
CONTINUOUS
 10
140.1326147518
 20
82.4064299705
 40
4.5
100
AcDbArc
 50
180.0
 51
270.0
  0
LINE
  5
3C4
100
AcDbEntity
  8
0
100
AcDbLine
 62
7
  6
CONTINUOUS
 10
88.8862428455
 20
86.321804304
 11
91.6492298352
 21
86.778907542
  0
LINE
  5
3C5
100
AcDbEntity
  8
0
100
AcDbLine
 62
7
  6
CONTINUOUS
 10
87.0527659893
 20
96.1932052882
 11
89.9388735465
 21
95.9874299705
  0
LINE
  5
3C6
100
AcDbEntity
  8
0
100
AcDbLine
 62
7
  6
CONTINUOUS
 10
59.5488735465
 20
150.8102775478
 11
62.5488735465
 21
153.8102775478
  0
LINE
  5
3C7
100
AcDbEntity
  8
0
100
AcDbLine
 62
7
  6
CONTINUOUS
 10
101.7488735465
 20
139.6649150966
 11
104.5488735465
 21
139.2044299705
  0
LINE
  5
3C8
100
AcDbEntity
  8
0
100
AcDbLine
 62
7
  6
CONTINUOUS
 10
93.0488735465
 20
153.8102775478
 11
96.0488735465
 21
150.8102775478
  0
SPLINE
  5
3C9
100
AcDbEntity
  8
0
100
AcDbSpline
 62
7
  6
CONTINUOUS
 70
0
 71
3
 72
13
 73
9
 74
0
 42
0.0000001
 43
0.0000001
 44
0.0000000001
 40
0.0
 40
0.0
 40
0.0
 40
0.0
 40
0.3816443023
 40
0.706014877
 40
0.8306929253
 40
0.9234801027
 40
0.9806783906
 40
1.0
 40
1.0
 40
1.0
 40
1.0
 10
96.0488735465
 20
137.7005196357
 30
0.0
 10
95.6674558151
 20
137.7463426678
 30
0.0
 10
94.9617054536
 20
137.829828525
 30
0.0
 10
94.1310251049
 20
137.9254953072
 30
0.0
 10
93.5890357866
 20
137.9864698462
 30
0.0
 10
93.3142361473
 20
138.0168549038
 30
0.0
 10
93.1448117034
 20
138.0352818085
 30
0.0
 10
93.0682160541
 20
138.0433973844
 30
0.0
 10
93.0488735465
 20
138.0454299705
 30
0.0
  0
LINE
  5
3CA
100
AcDbEntity
  8
0
100
AcDbLine
 62
7
  6
CONTINUOUS
 10
53.8488735465
 20
139.6649150966
 11
51.0488735465
 21
139.2044299705
  0
SPLINE
  5
3CB
100
AcDbEntity
  8
0
100
AcDbSpline
 62
7
  6
CONTINUOUS
 70
0
 71
3
 72
19
 73
15
 74
0
 42
0.0000001
 43
0.0000001
 44
0.0000000001
 40
0.0
 40
0.0
 40
0.0
 40
0.0
 40
0.0410483136
 40
0.0841165051
 40
0.1298089742
 40
0.1785533402
 40
0.2306165299
 40
0.2861271182
 40
0.3451001094
 40
0.4074586854
 40
0.5416145176
 40
0.6868146046
 40
0.8405734726
 40
1.0
 40
1.0
 40
1.0
 40
1.0
 10
93.1367314377
 20
174.6466746593
 30
0.0
 10
93.1572942999
 20
174.6841357589
 30
0.0
 10
93.2061329251
 20
174.7573766989
 30
0.0
 10
93.2979303722
 20
174.8571711662
 30
0.0
 10
93.4087359552
 20
174.9484442723
 30
0.0
 10
93.5375682196
 20
175.0306685259
 30
0.0
 10
93.6834213478
 20
175.1034364782
 30
0.0
 10
93.8452104736
 20
175.1663648962
 30
0.0
 10
94.0217757567
 20
175.21913115
 30
0.0
 10
94.2815837016
 20
175.2769457359
 30
0.0
 10
94.6355906055
 20
175.3202101214
 30
0.0
 10
95.0870834833
 20
175.3279623545
 30
0.0
 10
95.5635718165
 20
175.2927872807
 30
0.0
 10
95.8860483894
 20
175.2419914172
 30
0.0
 10
96.0488735465
 20
175.2098241366
 30
0.0
  0
LINE
  5
3CC
100
AcDbEntity
  8
0
100
AcDbLine
 62
7
  6
CONTINUOUS
 10
66.7115042476
 20
86.321804304
 11
63.9485172578
 21
86.778907542
  0
LINE
  5
3CD
100
AcDbEntity
  8
0
100
AcDbLine
 62
7
  6
CONTINUOUS
 10
68.5449811037
 20
96.1932052882
 11
65.6588735465
 21
95.9874299705
  0
SPLINE
  5
3CE
100
AcDbEntity
  8
0
100
AcDbSpline
 62
7
  6
CONTINUOUS
 70
0
 71
3
 72
19
 73
15
 74
0
 42
0.0000001
 43
0.0000001
 44
0.0000000001
 40
0.0
 40
0.0
 40
0.0
 40
0.0
 40
0.0410483136
 40
0.0841165051
 40
0.1298089742
 40
0.1785533402
 40
0.2306165299
 40
0.2861271182
 40
0.3451001094
 40
0.4074586854
 40
0.5416145176
 40
0.6868146046
 40
0.8405734726
 40
1.0
 40
1.0
 40
1.0
 40
1.0
 10
62.4610156553
 20
174.6466746593
 30
0.0
 10
62.4404527931
 20
174.6841357589
 30
0.0
 10
62.391614168
 20
174.7573766989
 30
0.0
 10
62.2998167209
 20
174.8571711662
 30
0.0
 10
62.1890111378
 20
174.9484442723
 30
0.0
 10
62.0601788734
 20
175.0306685259
 30
0.0
 10
61.9143257452
 20
175.1034364782
 30
0.0
 10
61.7525366194
 20
175.1663648962
 30
0.0
 10
61.5759713363
 20
175.21913115
 30
0.0
 10
61.3161633914
 20
175.2769457359
 30
0.0
 10
60.9621564875
 20
175.3202101214
 30
0.0
 10
60.5106636098
 20
175.3279623545
 30
0.0
 10
60.0341752765
 20
175.2927872807
 30
0.0
 10
59.7116987036
 20
175.2419914172
 30
0.0
 10
59.5488735465
 20
175.2098241366
 30
0.0
  0
SPLINE
  5
3CF
100
AcDbEntity
  8
0
100
AcDbSpline
 62
7
  6
CONTINUOUS
 70
0
 71
3
 72
18
 73
14
 74
0
 42
0.0000001
 43
0.0000001
 44
0.0000000001
 40
0.0
 40
0.0
 40
0.0
 40
0.0
 40
0.0389278696
 40
0.0830130746
 40
0.1320542882
 40
0.1855290748
 40
0.2428317704
 40
0.303377725
 40
0.4321623462
 40
0.5684866224
 40
0.7098100685
 40
0.8541816852
 40
1.0
 40
1.0
 40
1.0
 40
1.0
 10
62.1469497579
 20
139.5064299705
 30
0.0
 10
62.1077088292
 20
139.5064299705
 30
0.0
 10
62.0240223815
 20
139.5160974599
 30
0.0
 10
61.8951269959
 20
139.5502687564
 30
0.0
 10
61.7564454391
 20
139.6018241784
 30
0.0
 10
61.6095075354
 20
139.6680760616
 30
0.0
 10
61.4556524708
 20
139.7466370028
 30
0.0
 10
61.2384100434
 20
139.8676117351
 30
0.0
 10
60.9582421639
 20
140.0389136484
 30
0.0
 10
60.6155043805
 20
140.2634315438
 30
0.0
 10
60.2641881097
 20
140.5033659977
 30
0.0
 10
59.907734122
 20
140.7526731279
 30
0.0
 10
59.6688911875
 20
140.9215646827
 30
0.0
 10
59.5488735465
 20
141.0064299705
 30
0.0
  0
SPLINE
  5
3D0
100
AcDbEntity
  8
0
100
AcDbSpline
 62
7
  6
CONTINUOUS
 70
0
 71
3
 72
16
 73
12
 74
0
 42
0.0000001
 43
0.0000001
 44
0.0000000001
 40
0.0
 40
0.0
 40
0.0
 40
0.0
 40
0.0454143384
 40
0.0926084073
 40
0.1935437421
 40
0.3046852885
 40
0.4264153501
 40
0.5581806155
 40
0.6988022493
 40
0.8466927693
 40
1.0
 40
1.0
 40
1.0
 40
1.0
 10
66.9907413595
 20
75.8388750815
 30
0.0
 10
67.0172443749
 20
75.8066846756
 30
0.0
 10
67.0758701017
 20
75.7446967144
 30
0.0
 10
67.2134605967
 20
75.6316501828
 30
0.0
 10
67.4225516334
 20
75.5138741185
 30
0.0
 10
67.7139558458
 20
75.4147772713
 30
0.0
 10
68.0445224051
 20
75.3554322838
 30
0.0
 10
68.4066739808
 20
75.3364487375
 30
0.0
 10
68.7926217839
 20
75.3576816388
 30
0.0
 10
69.1942499771
 20
75.4183336895
 30
0.0
 10
69.4634676865
 20
75.4832057324
 30
0.0
 10
69.5988735465
 20
75.5216518541
 30
0.0
  0
SPLINE
  5
3D1
100
AcDbEntity
  8
0
100
AcDbSpline
 62
7
  6
CONTINUOUS
 70
0
 71
3
 72
18
 73
14
 74
0
 42
0.0000001
 43
0.0000001
 44
0.0000000001
 40
0.0
 40
0.0
 40
0.0
 40
0.0
 40
0.1458183091
 40
0.2901899211
 40
0.4315133617
 40
0.5678376336
 40
0.6966222511
 40
0.7571682041
 40
0.8144708981
 40
0.8679456831
 40
0.9169869011
 40
0.9610721182
 40
1.0
 40
1.0
 40
1.0
 40
1.0
 10
96.0488735465
 20
141.0064299705
 30
0.0
 10
95.9288559103
 20
140.9215646861
 30
0.0
 10
95.6900129841
 20
140.7526731375
 30
0.0
 10
95.3335590102
 20
140.5033660157
 30
0.0
 10
94.9822427508
 20
140.2634315709
 30
0.0
 10
94.6395049803
 20
140.0389136808
 30
0.0
 10
94.3593371105
 20
139.8676117703
 30
0.0
 10
94.1420946906
 20
139.746637039
 30
0.0
 10
93.9882396314
 20
139.6680760977
 30
0.0
 10
93.8413017279
 20
139.6018242112
 30
0.0
 10
93.7026201601
 20
139.5502687762
 30
0.0
 10
93.5737247485
 20
139.5160974646
 30
0.0
 10
93.4900382762
 20
139.5064299705
 30
0.0
 10
93.4507973352
 20
139.5064299705
 30
0.0
  0
SPLINE
  5
3D2
100
AcDbEntity
  8
0
100
AcDbSpline
 62
7
  6
CONTINUOUS
 70
0
 71
3
 72
13
 73
9
 74
0
 42
0.0000001
 43
0.0000001
 44
0.0000000001
 40
0.0
 40
0.0
 40
0.0
 40
0.0
 40
0.3816443023
 40
0.706014877
 40
0.8306929253
 40
0.9234801027
 40
0.9806783906
 40
1.0
 40
1.0
 40
1.0
 40
1.0
 10
59.5488735465
 20
137.7005196357
 30
0.0
 10
59.9302912779
 20
137.7463426678
 30
0.0
 10
60.6360416394
 20
137.829828525
 30
0.0
 10
61.4667219882
 20
137.9254953072
 30
0.0
 10
62.0087113065
 20
137.9864698462
 30
0.0
 10
62.2835109457
 20
138.0168549038
 30
0.0
 10
62.4529353896
 20
138.0352818085
 30
0.0
 10
62.5295310389
 20
138.0433973844
 30
0.0
 10
62.5488735465
 20
138.0454299705
 30
0.0
  0
SPLINE
  5
3D3
100
AcDbEntity
  8
0
100
AcDbSpline
 62
7
  6
CONTINUOUS
 70
0
 71
3
 72
16
 73
12
 74
0
 42
0.0000001
 43
0.0000001
 44
0.0000000001
 40
0.0
 40
0.0
 40
0.0
 40
0.0
 40
0.0454143384
 40
0.0926084073
 40
0.1935437421
 40
0.3046852885
 40
0.4264153501
 40
0.5581806155
 40
0.6988022493
 40
0.8466927693
 40
1.0
 40
1.0
 40
1.0
 40
1.0
 10
88.6070057336
 20
75.8388750815
 30
0.0
 10
88.5805027181
 20
75.8066846756
 30
0.0
 10
88.5218769913
 20
75.7446967144
 30
0.0
 10
88.3842864963
 20
75.6316501828
 30
0.0
 10
88.1751954597
 20
75.5138741185
 30
0.0
 10
87.8837912472
 20
75.4147772713
 30
0.0
 10
87.5532246879
 20
75.3554322838
 30
0.0
 10
87.1910731122
 20
75.3364487375
 30
0.0
 10
86.8051253091
 20
75.3576816388
 30
0.0
 10
86.4034971159
 20
75.4183336895
 30
0.0
 10
86.1342794066
 20
75.4832057324
 30
0.0
 10
85.9988735465
 20
75.5216518541
 30
0.0
  0
SPLINE
  5
3D4
100
AcDbEntity
  8
0
100
AcDbSpline
 62
7
  6
CONTINUOUS
 70
0
 71
3
 72
31
 73
27
 74
0
 42
0.0000001
 43
0.0000001
 44
0.0000000001
 40
0.0
 40
0.0
 40
0.0
 40
0.0
 40
0.1570086772
 40
0.2345261281
 40
0.3108677676
 40
0.3851597412
 40
0.4209913794
 40
0.4553642197
 40
0.4874473639
 40
0.5158061915
 40
0.5382947396
 40
0.5536903028
 40
0.5600953436
 40
0.5669377011
 40
0.5748238988
 40
0.5838878256
 40
0.6050990689
 40
0.629469784
 40
0.6560380291
 40
0.6841632032
 40
0.7134262589
 40
0.7435463343
 40
0.8056273931
 40
0.8694045562
 40
0.934311209
 40
1.0
 40
1.0
 40
1.0
 40
1.0
 10
65.6648267024
 20
253.3660286777
 30
0.0
 10
65.6659374415
 20
253.3446408908
 30
0.0
 10
65.6678961318
 20
253.3127065871
 30
0.0
 10
65.6714137771
 20
253.2704471541
 30
0.0
 10
65.6746007017
 20
253.2394881372
 30
0.0
 10
65.6779055681
 20
253.2142620381
 30
0.0
 10
65.6811497569
 20
253.1948195314
 30
0.0
 10
65.6839058921
 20
253.1811355053
 30
0.0
 10
65.6870499922
 20
253.1685933913
 30
0.0
 10
65.6907469032
 20
253.1578433478
 30
0.0
 10
65.6947390393
 20
253.1497997008
 30
0.0
 10
65.6995699424
 20
253.145354473
 30
0.0
 10
65.7036355984
 20
253.1452582308
 30
0.0
 10
65.706326152
 20
253.1464509393
 30
0.0
 10
65.7088524041
 20
253.1485222312
 30
0.0
 10
65.712264979
 20
253.1524744818
 30
0.0
 10
65.7161551252
 20
253.1588748253
 30
0.0
 10
65.7204036925
 20
253.1677556432
 30
0.0
 10
65.7244544354
 20
253.1777571081
 30
0.0
 10
65.7283334044
 20
253.1885336294
 30
0.0
 10
65.7320657034
 20
253.1998729033
 30
0.0
 10
65.7369273317
 20
253.2157125483
 30
0.0
 10
65.7427064491
 20
253.2361912017
 30
0.0
 10
65.7493106494
 20
253.2613610162
 30
0.0
 10
65.7557203294
 20
253.2870882892
 30
0.0
 10
65.7598776806
 20
253.3044102824
 30
0.0
 10
65.7619421761
 20
253.3131294151
 30
0.0
  0
SPLINE
  5
3D5
100
AcDbEntity
  8
0
100
AcDbSpline
 62
7
  6
CONTINUOUS
 70
0
 71
3
 72
31
 73
27
 74
0
 42
0.0000001
 43
0.0000001
 44
0.0000000001
 40
0.0
 40
0.0
 40
0.0
 40
0.0
 40
0.1570086772
 40
0.2345261281
 40
0.3108677676
 40
0.3851597412
 40
0.4209913794
 40
0.4553642197
 40
0.4874473639
 40
0.5158061915
 40
0.5382947396
 40
0.5536903028
 40
0.5600953436
 40
0.5669377011
 40
0.5748238988
 40
0.5838878256
 40
0.6050990689
 40
0.629469784
 40
0.6560380291
 40
0.6841632032
 40
0.7134262589
 40
0.7435463343
 40
0.8056273931
 40
0.8694045562
 40
0.934311209
 40
1.0
 40
1.0
 40
1.0
 40
1.0
 10
89.9329203906
 20
253.3660286777
 30
0.0
 10
89.9318096515
 20
253.3446408908
 30
0.0
 10
89.9298509613
 20
253.3127065871
 30
0.0
 10
89.9263333159
 20
253.2704471541
 30
0.0
 10
89.9231463913
 20
253.2394881372
 30
0.0
 10
89.919841525
 20
253.2142620381
 30
0.0
 10
89.9165973362
 20
253.1948195314
 30
0.0
 10
89.9138412009
 20
253.1811355053
 30
0.0
 10
89.9106971008
 20
253.1685933913
 30
0.0
 10
89.9070001898
 20
253.1578433478
 30
0.0
 10
89.9030080537
 20
253.1497997008
 30
0.0
 10
89.8981771506
 20
253.145354473
 30
0.0
 10
89.8941114946
 20
253.1452582308
 30
0.0
 10
89.891420941
 20
253.1464509393
 30
0.0
 10
89.888894689
 20
253.1485222312
 30
0.0
 10
89.885482114
 20
253.1524744818
 30
0.0
 10
89.8815919678
 20
253.1588748253
 30
0.0
 10
89.8773434005
 20
253.1677556432
 30
0.0
 10
89.8732926577
 20
253.1777571081
 30
0.0
 10
89.8694136887
 20
253.1885336294
 30
0.0
 10
89.8656813896
 20
253.1998729033
 30
0.0
 10
89.8608197613
 20
253.2157125483
 30
0.0
 10
89.8550406439
 20
253.2361912017
 30
0.0
 10
89.8484364436
 20
253.2613610162
 30
0.0
 10
89.8420267637
 20
253.2870882892
 30
0.0
 10
89.8378694124
 20
253.3044102824
 30
0.0
 10
89.8358049169
 20
253.3131294151
 30
0.0
  0
SPLINE
  5
3D6
100
AcDbEntity
  8
0
100
AcDbSpline
 62
7
  6
CONTINUOUS
 70
0
 71
3
 72
11
 73
7
 74
0
 42
0.0000001
 43
0.0000001
 44
0.0000000001
 40
0.0
 40
0.0
 40
0.0
 40
0.0
 40
0.2384617725
 40
0.4874846077
 40
0.7425429352
 40
1.0
 40
1.0
 40
1.0
 40
1.0
 10
88.6070057219
 20
230.6261510552
 30
0.0
 10
88.6430089325
 20
230.7087742994
 30
0.0
 10
88.7033690194
 20
230.8836144649
 30
0.0
 10
88.7614261607
 20
231.1587200362
 30
0.0
 10
88.7928507008
 20
231.4451974279
 30
0.0
 10
88.7988735465
 20
231.6389850611
 30
0.0
 10
88.7988735465
 20
231.7362910951
 30
0.0
  0
SPLINE
  5
3D7
100
AcDbEntity
  8
0
100
AcDbSpline
 62
7
  6
CONTINUOUS
 70
0
 71
3
 72
11
 73
7
 74
0
 42
0.0000001
 43
0.0000001
 44
0.0000000001
 40
0.0
 40
0.0
 40
0.0
 40
0.0
 40
0.2384617726
 40
0.4874846078
 40
0.7425429352
 40
1.0
 40
1.0
 40
1.0
 40
1.0
 10
88.6070057202
 20
257.1692528732
 30
0.0
 10
88.6430089314
 20
257.0866296287
 30
0.0
 10
88.7033690178
 20
256.9117894619
 30
0.0
 10
88.7614261604
 20
256.6366838893
 30
0.0
 10
88.7928507007
 20
256.3502064959
 30
0.0
 10
88.7988735465
 20
256.1564188617
 30
0.0
 10
88.7988735465
 20
256.0591128271
 30
0.0
  0
SPLINE
  5
3D8
100
AcDbEntity
  8
0
100
AcDbSpline
 62
7
  6
CONTINUOUS
 70
0
 71
3
 72
14
 73
10
 74
0
 42
0.0000001
 43
0.0000001
 44
0.0000000001
 40
0.0
 40
0.0
 40
0.0
 40
0.0
 40
0.117717914
 40
0.2394194873
 40
0.364336033
 40
0.491486718
 40
0.619776128
 40
0.7480749866
 40
1.0
 40
1.0
 40
1.0
 40
1.0
 10
88.6070057336
 20
257.1692528732
 30
0.0
 10
88.5538985437
 20
257.2911277894
 30
0.0
 10
88.4265690559
 20
257.5309382055
 30
0.0
 10
88.1847566744
 20
257.8652257673
 30
0.0
 10
87.8952386498
 20
258.1738959265
 30
0.0
 10
87.5654955416
 20
258.4506457764
 30
0.0
 10
87.2032251707
 20
258.6903004719
 30
0.0
 10
86.6915593479
 20
258.9526489734
 30
0.0
 10
86.2781054788
 20
259.0851926634
 30
0.0
 10
85.9988735465
 20
259.1397302989
 30
0.0
  0
SPLINE
  5
3D9
100
AcDbEntity
  8
0
100
AcDbSpline
 62
7
  6
CONTINUOUS
 70
0
 71
3
 72
14
 73
10
 74
0
 42
0.0000001
 43
0.0000001
 44
0.0000000001
 40
0.0
 40
0.0
 40
0.0
 40
0.0
 40
0.1177179142
 40
0.2394194876
 40
0.3643360332
 40
0.4914867182
 40
0.6197761281
 40
0.7480749868
 40
1.0
 40
1.0
 40
1.0
 40
1.0
 10
88.6070057359
 20
230.6261510552
 30
0.0
 10
88.5538985461
 20
230.5042761384
 30
0.0
 10
88.4265690589
 20
230.2644657208
 30
0.0
 10
88.1847566778
 20
229.9301781572
 30
0.0
 10
87.8952386526
 20
229.6215079973
 30
0.0
 10
87.5654955434
 20
229.3447581472
 30
0.0
 10
87.2032251717
 20
229.1051034514
 30
0.0
 10
86.6915593491
 20
228.8427549475
 30
0.0
 10
86.2781054801
 20
228.7102112519
 30
0.0
 10
85.9988735465
 20
228.6556736201
 30
0.0
  0
SPLINE
  5
3DA
100
AcDbEntity
  8
0
100
AcDbSpline
 62
7
  6
CONTINUOUS
 70
0
 71
3
 72
31
 73
27
 74
0
 42
0.0000001
 43
0.0000001
 44
0.0000000001
 40
0.0
 40
0.0
 40
0.0
 40
0.0
 40
0.0656896353
 40
0.1305970964
 40
0.1943748258
 40
0.2564557525
 40
0.2865756406
 40
0.3158389034
 40
0.3439636713
 40
0.3705309846
 40
0.3949011242
 40
0.4161122388
 40
0.4251752416
 40
0.4330620831
 40
0.439904783
 40
0.4463082396
 40
0.4617030248
 40
0.4841907817
 40
0.5125485333
 40
0.5446313224
 40
0.5790046737
 40
0.6148367628
 40
0.6891284383
 40
0.7654710412
 40
0.8429894441
 40
1.0
 40
1.0
 40
1.0
 40
1.0
 10
89.8358049171
 20
234.4822745081
 30
0.0
 10
89.8378694435
 20
234.490993771
 30
0.0
 10
89.8420268557
 20
234.5083160195
 30
0.0
 10
89.8484366132
 20
234.5340436421
 30
0.0
 10
89.8550408738
 20
234.5592136721
 30
0.0
 10
89.8608201353
 20
234.579692368
 30
0.0
 10
89.8656818457
 20
234.5955320046
 30
0.0
 10
89.8694139603
 20
234.6068713144
 30
0.0
 10
89.8732928601
 20
234.6176477064
 30
0.0
 10
89.8773435098
 20
234.6276490095
 30
0.0
 10
89.8815922112
 20
234.636529365
 30
0.0
 10
89.8854816585
 20
234.6429302664
 30
0.0
 10
89.8888952015
 20
234.6468812429
 30
0.0
 10
89.891420599
 20
234.6489541507
 30
0.0
 10
89.8941119875
 20
234.6501440055
 30
0.0
 10
89.8981771149
 20
234.6500520893
 30
0.0
 10
89.9030080165
 20
234.6456046633
 30
0.0
 10
89.9069997494
 20
234.6375624864
 30
0.0
 10
89.9106967066
 20
234.6268122847
 30
0.0
 10
89.9138408961
 20
234.6142704461
 30
0.0
 10
89.9165969924
 20
234.6005862501
 30
0.0
 10
89.919841111
 20
234.5811436171
 30
0.0
 10
89.923146362
 20
234.5559173543
 30
0.0
 10
89.9263331655
 20
234.5249580368
 30
0.0
 10
89.929850908
 20
234.4826980054
 30
0.0
 10
89.9318096343
 20
234.4507632493
 30
0.0
 10
89.9329203848
 20
234.4293751617
 30
0.0
  0
SPLINE
  5
3DB
100
AcDbEntity
  8
0
100
AcDbSpline
 62
7
  6
CONTINUOUS
 70
0
 71
3
 72
11
 73
7
 74
0
 42
0.0000001
 43
0.0000001
 44
0.0000000001
 40
0.0
 40
0.0
 40
0.0
 40
0.0
 40
0.2384617726
 40
0.4874846078
 40
0.7425429352
 40
1.0
 40
1.0
 40
1.0
 40
1.0
 10
66.9907413728
 20
257.1692528732
 30
0.0
 10
66.9547381617
 20
257.0866296287
 30
0.0
 10
66.8943780752
 20
256.9117894619
 30
0.0
 10
66.8363209327
 20
256.6366838893
 30
0.0
 10
66.8048963923
 20
256.3502064959
 30
0.0
 10
66.7988735465
 20
256.1564188617
 30
0.0
 10
66.7988735465
 20
256.0591128271
 30
0.0
  0
SPLINE
  5
3DC
100
AcDbEntity
  8
0
100
AcDbSpline
 62
7
  6
CONTINUOUS
 70
0
 71
3
 72
11
 73
7
 74
0
 42
0.0000001
 43
0.0000001
 44
0.0000000001
 40
0.0
 40
0.0
 40
0.0
 40
0.0
 40
0.2384617725
 40
0.4874846077
 40
0.7425429352
 40
1.0
 40
1.0
 40
1.0
 40
1.0
 10
66.9907413711
 20
230.6261510552
 30
0.0
 10
66.9547381605
 20
230.7087742994
 30
0.0
 10
66.8943780736
 20
230.8836144649
 30
0.0
 10
66.8363209323
 20
231.1587200362
 30
0.0
 10
66.8048963922
 20
231.4451974279
 30
0.0
 10
66.7988735465
 20
231.6389850611
 30
0.0
 10
66.7988735465
 20
231.7362910951
 30
0.0
  0
SPLINE
  5
3DD
100
AcDbEntity
  8
0
100
AcDbSpline
 62
7
  6
CONTINUOUS
 70
0
 71
3
 72
14
 73
10
 74
0
 42
0.0000001
 43
0.0000001
 44
0.0000000001
 40
0.0
 40
0.0
 40
0.0
 40
0.0
 40
0.117717914
 40
0.2394194873
 40
0.364336033
 40
0.491486718
 40
0.619776128
 40
0.7480749866
 40
1.0
 40
1.0
 40
1.0
 40
1.0
 10
66.9907413595
 20
257.1692528732
 30
0.0
 10
67.0438485494
 20
257.2911277894
 30
0.0
 10
67.1711780372
 20
257.5309382055
 30
0.0
 10
67.4129904186
 20
257.8652257673
 30
0.0
 10
67.7025084432
 20
258.1738959265
 30
0.0
 10
68.0322515514
 20
258.4506457764
 30
0.0
 10
68.3945219223
 20
258.6903004719
 30
0.0
 10
68.9061877451
 20
258.9526489734
 30
0.0
 10
69.3196416142
 20
259.0851926634
 30
0.0
 10
69.5988735465
 20
259.1397302989
 30
0.0
  0
SPLINE
  5
3DE
100
AcDbEntity
  8
0
100
AcDbSpline
 62
7
  6
CONTINUOUS
 70
0
 71
3
 72
14
 73
10
 74
0
 42
0.0000001
 43
0.0000001
 44
0.0000000001
 40
0.0
 40
0.0
 40
0.0
 40
0.0
 40
0.1177179142
 40
0.2394194876
 40
0.3643360332
 40
0.4914867182
 40
0.6197761281
 40
0.7480749868
 40
1.0
 40
1.0
 40
1.0
 40
1.0
 10
66.9907413572
 20
230.6261510552
 30
0.0
 10
67.0438485469
 20
230.5042761384
 30
0.0
 10
67.1711780341
 20
230.2644657208
 30
0.0
 10
67.4129904152
 20
229.9301781572
 30
0.0
 10
67.7025084404
 20
229.6215079973
 30
0.0
 10
68.0322515496
 20
229.3447581472
 30
0.0
 10
68.3945219214
 20
229.1051034514
 30
0.0
 10
68.9061877439
 20
228.8427549475
 30
0.0
 10
69.3196416129
 20
228.7102112519
 30
0.0
 10
69.5988735465
 20
228.6556736201
 30
0.0
  0
SPLINE
  5
3DF
100
AcDbEntity
  8
0
100
AcDbSpline
 62
7
  6
CONTINUOUS
 70
0
 71
3
 72
31
 73
27
 74
0
 42
0.0000001
 43
0.0000001
 44
0.0000000001
 40
0.0
 40
0.0
 40
0.0
 40
0.0
 40
0.0656896353
 40
0.1305970964
 40
0.1943748258
 40
0.2564557525
 40
0.2865756406
 40
0.3158389034
 40
0.3439636713
 40
0.3705309846
 40
0.3949011242
 40
0.4161122388
 40
0.4251752416
 40
0.4330620831
 40
0.439904783
 40
0.4463082396
 40
0.4617030248
 40
0.4841907817
 40
0.5125485333
 40
0.5446313224
 40
0.5790046737
 40
0.6148367628
 40
0.6891284383
 40
0.7654710412
 40
0.8429894441
 40
1.0
 40
1.0
 40
1.0
 40
1.0
 10
65.7619421759
 20
234.4822745081
 30
0.0
 10
65.7598776495
 20
234.490993771
 30
0.0
 10
65.7557202373
 20
234.5083160195
 30
0.0
 10
65.7493104798
 20
234.5340436421
 30
0.0
 10
65.7427062192
 20
234.5592136721
 30
0.0
 10
65.7369269577
 20
234.579692368
 30
0.0
 10
65.7320652473
 20
234.5955320046
 30
0.0
 10
65.7283331327
 20
234.6068713144
 30
0.0
 10
65.7244542329
 20
234.6176477064
 30
0.0
 10
65.7204035832
 20
234.6276490095
 30
0.0
 10
65.7161548818
 20
234.636529365
 30
0.0
 10
65.7122654346
 20
234.6429302664
 30
0.0
 10
65.7088518915
 20
234.6468812429
 30
0.0
 10
65.706326494
 20
234.6489541507
 30
0.0
 10
65.7036351056
 20
234.6501440055
 30
0.0
 10
65.6995699781
 20
234.6500520893
 30
0.0
 10
65.6947390766
 20
234.6456046633
 30
0.0
 10
65.6907473436
 20
234.6375624864
 30
0.0
 10
65.6870503864
 20
234.6268122847
 30
0.0
 10
65.6839061969
 20
234.6142704461
 30
0.0
 10
65.6811501006
 20
234.6005862501
 30
0.0
 10
65.677905982
 20
234.5811436171
 30
0.0
 10
65.674600731
 20
234.5559173543
 30
0.0
 10
65.6714139275
 20
234.5249580368
 30
0.0
 10
65.6678961851
 20
234.4826980054
 30
0.0
 10
65.6659374587
 20
234.4507632493
 30
0.0
 10
65.6648267083
 20
234.4293751617
 30
0.0
  0
SPLINE
  5
3E0
100
AcDbEntity
  8
0
100
AcDbSpline
 62
7
  6
CONTINUOUS
 70
0
 71
3
 72
24
 73
20
 74
0
 42
0.0000001
 43
0.0000001
 44
0.0000000001
 40
0.0
 40
0.0
 40
0.0
 40
0.0
 40
0.1883684078
 40
0.369695059
 40
0.4555940084
 40
0.5372426481
 40
0.6138926524
 40
0.6848520281
 40
0.749495409
 40
0.8072773497
 40
0.8577492656
 40
0.9005880656
 40
0.9356495764
 40
0.9503077383
 40
0.9631237695
 40
0.9742208382
 40
0.9838093611
 40
0.9922321507
 40
1.0
 40
1.0
 40
1.0
 40
1.0
 10
132.9326147518
 20
86.778907542
 30
0.0
 10
132.7504892687
 20
86.778907542
 30
0.0
 10
132.3930222931
 20
86.7732245762
 30
0.0
 10
131.9529549363
 20
86.7517544002
 30
0.0
 10
131.6166233811
 20
86.7258038677
 30
0.0
 10
131.3816197322
 20
86.7028419078
 30
0.0
 10
131.1615358765
 20
86.6762745375
 30
0.0
 10
130.9584803243
 20
86.6463759258
 30
0.0
 10
130.7743876943
 20
86.6134616786
 30
0.0
 10
130.6110049978
 20
86.577881368
 30
0.0
 10
130.4698247841
 20
86.540029664
 30
0.0
 10
130.3521485154
 20
86.5003031029
 30
0.0
 10
130.2700178243
 20
86.4641730526
 30
0.0
 10
130.217672754
 20
86.4337806736
 30
0.0
 10
130.1872532736
 20
86.4120865709
 30
0.0
 10
130.1633021957
 20
86.3901231354
 30
0.0
 10
130.1458658891
 20
86.3678117997
 30
0.0
 10
130.1351050648
 20
86.3450494628
 30
0.0
 10
130.1326147518
 20
86.3293147104
 30
0.0
 10
130.1326147518
 20
86.321804304
 30
0.0
  0
SPLINE
  5
3E1
100
AcDbEntity
  8
0
100
AcDbSpline
 62
7
  6
CONTINUOUS
 70
0
 71
3
 72
24
 73
20
 74
0
 42
0.0000001
 43
0.0000001
 44
0.0000000001
 40
0.0
 40
0.0
 40
0.0
 40
0.0
 40
0.0077678493
 40
0.0161906389
 40
0.0257791618
 40
0.0368762305
 40
0.0496922617
 40
0.0643504236
 40
0.0994119344
 40
0.1422507344
 40
0.1927226503
 40
0.250504591
 40
0.3151479719
 40
0.3861073476
 40
0.4627573519
 40
0.5444059916
 40
0.630304941
 40
0.8116315922
 40
1.0
 40
1.0
 40
1.0
 40
1.0
 10
167.1326147518
 20
86.321804304
 30
0.0
 10
167.1326147518
 20
86.3293147104
 30
0.0
 10
167.1301244388
 20
86.3450494628
 30
0.0
 10
167.1193636145
 20
86.3678117997
 30
0.0
 10
167.1019273079
 20
86.3901231354
 30
0.0
 10
167.0779762301
 20
86.4120865709
 30
0.0
 10
167.0475567496
 20
86.4337806736
 30
0.0
 10
166.9952116794
 20
86.4641730526
 30
0.0
 10
166.9130809882
 20
86.5003031029
 30
0.0
 10
166.7954047195
 20
86.540029664
 30
0.0
 10
166.6542245058
 20
86.577881368
 30
0.0
 10
166.4908418094
 20
86.6134616786
 30
0.0
 10
166.3067491794
 20
86.6463759258
 30
0.0
 10
166.1036936271
 20
86.6762745375
 30
0.0
 10
165.8836097715
 20
86.7028419078
 30
0.0
 10
165.6486061225
 20
86.7258038677
 30
0.0
 10
165.3122745673
 20
86.7517544002
 30
0.0
 10
164.8722072105
 20
86.7732245762
 30
0.0
 10
164.5147402349
 20
86.778907542
 30
0.0
 10
164.3326147518
 20
86.778907542
 30
0.0
  0
SPLINE
  5
3E2
100
AcDbEntity
  8
0
100
AcDbSpline
 62
7
  6
CONTINUOUS
 70
0
 71
3
 72
25
 73
21
 74
0
 42
0.0000001
 43
0.0000001
 44
0.0000000001
 40
0.0
 40
0.0
 40
0.0
 40
0.0
 40
0.0017814796
 40
0.0037405975
 40
0.0060132151
 40
0.0086874761
 40
0.015428734
 40
0.0242023857
 40
0.0350961548
 40
0.0481437265
 40
0.063352201
 40
0.0807131164
 40
0.121805695
 40
0.1711794177
 40
0.2284853004
 40
0.2932820732
 40
0.4431332549
 40
0.6154420556
 40
0.8036101007
 40
1.0
 40
1.0
 40
1.0
 40
1.0
 10
130.1326147518
 20
96.1932052882
 30
0.0
 10
130.1326147518
 20
96.1915269353
 30
0.0
 10
130.1332288419
 20
96.1879828423
 30
0.0
 10
130.1358569837
 20
96.1828930369
 30
0.0
 10
130.140093772
 20
96.1779023404
 30
0.0
 10
130.1485269954
 20
96.1707685849
 30
0.0
 10
130.1635037485
 20
96.1622184857
 30
0.0
 10
130.1864854924
 20
96.1526355299
 30
0.0
 10
130.2158215897
 20
96.1430908577
 30
0.0
 10
130.2514771438
 20
96.1336127746
 30
0.0
 10
130.293427168
 20
96.1242341564
 30
0.0
 10
130.3615899497
 20
96.1111591993
 30
0.0
 10
130.4620240801
 20
96.0957083535
 30
0.0
 10
130.6002207591
 20
96.0787757916
 30
0.0
 10
130.7609904438
 20
96.0627970157
 30
0.0
 10
131.0163643828
 20
96.0419842478
 30
0.0
 10
131.3803238828
 20
96.020408498
 30
0.0
 10
131.8607676781
 20
96.0016758134
 30
0.0
 10
132.385291343
 20
95.9900447921
 30
0.0
 10
132.7475935139
 20
95.9874299705
 30
0.0
 10
132.9326147518
 20
95.9874299705
 30
0.0
  0
SPLINE
  5
3E3
100
AcDbEntity
  8
0
100
AcDbSpline
 62
7
  6
CONTINUOUS
 70
0
 71
3
 72
24
 73
20
 74
0
 42
0.0000001
 43
0.0000001
 44
0.0000000001
 40
0.0
 40
0.0
 40
0.0
 40
0.0
 40
0.007818034
 40
0.0162655226
 40
0.025842519
 40
0.0368904033
 40
0.0496221279
 40
0.0641651742
 40
0.098924017
 40
0.1413990799
 40
0.1914896145
 40
0.2489151649
 40
0.3132667059
 40
0.3840320751
 40
0.4606111222
 40
0.5423261789
 40
0.6284314624
 40
0.8105408922
 40
1.0
 40
1.0
 40
1.0
 40
1.0
 10
130.1326147518
 20
139.6649150966
 30
0.0
 10
130.1326147518
 20
139.6573517227
 30
0.0
 10
130.1350610777
 20
139.6415366551
 30
0.0
 10
130.1456650509
 20
139.6186225111
 30
0.0
 10
130.1628759029
 20
139.5961604829
 30
0.0
 10
130.1865339588
 20
139.5740579844
 30
0.0
 10
130.2165933527
 20
139.5522361451
 30
0.0
 10
130.2683251229
 20
139.5216850214
 30
0.0
 10
130.3496032966
 20
139.485355525
 30
0.0
 10
130.466214559
 20
139.4454110199
 30
0.0
 10
130.6063227693
 20
139.4073394215
 30
0.0
 10
130.768737532
 20
139.3715301028
 30
0.0
 10
130.9520717634
 20
139.3383753174
 30
0.0
 10
131.1546685548
 20
139.308227013
 30
0.0
 10
131.374660331
 20
139.2814083117
 30
0.0
 10
131.6099762623
 20
139.2582031583
 30
0.0
 10
131.9475067876
 20
139.231933356
 30
0.0
 10
132.3898368011
 20
139.2101870069
 30
0.0
 10
132.7493269741
 20
139.2044299705
 30
0.0
 10
132.9326147518
 20
139.2044299705
 30
0.0
  0
SPLINE
  5
3E4
100
AcDbEntity
  8
0
100
AcDbSpline
 62
7
  6
CONTINUOUS
 70
0
 71
3
 72
24
 73
20
 74
0
 42
0.0000001
 43
0.0000001
 44
0.0000000001
 40
0.0
 40
0.0
 40
0.0
 40
0.0
 40
0.007818034
 40
0.0162655226
 40
0.025842519
 40
0.0368904033
 40
0.0496221279
 40
0.0641651742
 40
0.098924017
 40
0.1413990799
 40
0.1914896145
 40
0.2489151649
 40
0.3132667059
 40
0.3840320751
 40
0.4606111222
 40
0.5423261789
 40
0.6284314624
 40
0.8105408922
 40
1.0
 40
1.0
 40
1.0
 40
1.0
 10
167.1326147518
 20
139.6649150966
 30
0.0
 10
167.1326147518
 20
139.6573517227
 30
0.0
 10
167.130168426
 20
139.6415366551
 30
0.0
 10
167.1195644527
 20
139.6186225111
 30
0.0
 10
167.1023536007
 20
139.5961604829
 30
0.0
 10
167.0786955448
 20
139.5740579844
 30
0.0
 10
167.0486361509
 20
139.5522361451
 30
0.0
 10
166.9969043807
 20
139.5216850214
 30
0.0
 10
166.915626207
 20
139.485355525
 30
0.0
 10
166.7990149447
 20
139.4454110199
 30
0.0
 10
166.6589067343
 20
139.4073394215
 30
0.0
 10
166.4964919717
 20
139.3715301028
 30
0.0
 10
166.3131577402
 20
139.3383753174
 30
0.0
 10
166.1105609488
 20
139.308227013
 30
0.0
 10
165.8905691726
 20
139.2814083117
 30
0.0
 10
165.6552532413
 20
139.2582031583
 30
0.0
 10
165.317722716
 20
139.231933356
 30
0.0
 10
164.8753927025
 20
139.2101870069
 30
0.0
 10
164.5159025295
 20
139.2044299705
 30
0.0
 10
164.3326147518
 20
139.2044299705
 30
0.0
  0
SPLINE
  5
3E5
100
AcDbEntity
  8
0
100
AcDbSpline
 62
7
  6
CONTINUOUS
 70
0
 71
3
 72
27
 73
23
 74
0
 42
0.0000001
 43
0.0000001
 44
0.0000000001
 40
0.0
 40
0.0
 40
0.0
 40
0.0
 40
0.1267943312
 40
0.2535469684
 40
0.316896591
 40
0.3802047893
 40
0.4434423139
 40
0.5065446592
 40
0.5380162108
 40
0.5693809835
 40
0.6005549925
 40
0.6313661563
 40
0.6615726322
 40
0.6766061486
 40
0.6916320744
 40
0.7217889602
 40
0.7522731401
 40
0.7829690904
 40
0.8138010954
 40
0.8756988695
 40
0.9377947287
 40
1.0
 40
1.0
 40
1.0
 40
1.0
 10
158.361369058
 20
95.9874299705
 30
0.0
 10
158.3286941265
 20
95.9874299349
 30
0.0
 10
158.2633460359
 20
95.9860425733
 30
0.0
 10
158.1818384891
 20
95.980259504
 30
0.0
 10
158.1169856455
 20
95.9724949728
 30
0.0
 10
158.0686449057
 20
95.964775491
 30
0.0
 10
158.020810593
 20
95.9546538191
 30
0.0
 10
157.981640719
 20
95.9434847079
 30
0.0
 10
157.9512743092
 20
95.9319700906
 30
0.0
 10
157.9293325274
 20
95.9216147938
 30
0.0
 10
157.9088584849
 20
95.9088397285
 30
0.0
 10
157.8911793897
 20
95.8926402342
 30
0.0
 10
157.8816669778
 20
95.8747522827
 30
0.0
 10
157.8798001494
 20
95.859181056
 30
0.0
 10
157.8814774106
 20
95.8436417475
 30
0.0
 10
157.8889237866
 20
95.8252843692
 30
0.0
 10
157.902113498
 20
95.8057136277
 30
0.0
 10
157.917645461
 20
95.7877440209
 30
0.0
 10
157.940253377
 20
95.7653456152
 30
0.0
 10
157.970694367
 20
95.739482767
 30
0.0
 10
158.0088466644
 20
95.7103718574
 30
0.0
 10
158.0349121178
 20
95.691744881
 30
0.0
 10
158.0480422058
 20
95.6825485902
 30
0.0
  0
SPLINE
  5
3E6
100
AcDbEntity
  8
0
100
AcDbSpline
 62
7
  6
CONTINUOUS
 70
0
 71
3
 72
27
 73
23
 74
0
 42
0.0000001
 43
0.0000001
 44
0.0000000001
 40
0.0
 40
0.0
 40
0.0
 40
0.0
 40
0.0622058394
 40
0.1243021984
 40
0.1861998674
 40
0.2170311044
 40
0.2477264181
 40
0.2782090791
 40
0.3083664119
 40
0.3233938472
 40
0.3384278616
 40
0.3686297925
 40
0.3994407446
 40
0.4306140913
 40
0.4619787643
 40
0.4934505366
 40
0.5565534344
 40
0.6197915416
 40
0.6831003016
 40
0.7464505298
 40
0.8732044316
 40
1.0
 40
1.0
 40
1.0
 40
1.0
 10
139.2171872988
 20
95.6825485909
 30
0.0
 10
139.2303175084
 20
95.6917449668
 30
0.0
 10
139.2563831525
 20
95.7103721648
 30
0.0
 10
139.2945356512
 20
95.7394831926
 30
0.0
 10
139.3249766833
 20
95.7653459449
 30
0.0
 10
139.3475835565
 20
95.7877447865
 30
0.0
 10
139.3631162725
 20
95.8057127503
 30
0.0
 10
139.3763047126
 20
95.8252840229
 30
0.0
 10
139.3837514655
 20
95.8436407562
 30
0.0
 10
139.3854315033
 20
95.8591808093
 30
0.0
 10
139.3835595644
 20
95.8747506576
 30
0.0
 10
139.3740533188
 20
95.8926394986
 30
0.0
 10
139.3563728922
 20
95.908836815
 30
0.0
 10
139.3359004531
 20
95.9216132004
 30
0.0
 10
139.313958784
 20
95.9319687929
 30
0.0
 10
139.2835923559
 20
95.9434837267
 30
0.0
 10
139.2444221381
 20
95.9546530455
 30
0.0
 10
139.1965874236
 20
95.9647749048
 30
0.0
 10
139.1482462652
 20
95.9724946854
 30
0.0
 10
139.0833927948
 20
95.9802593342
 30
0.0
 10
139.0018844449
 20
95.9860425441
 30
0.0
 10
138.9365357003
 20
95.9874299349
 30
0.0
 10
138.9038604458
 20
95.9874299705
 30
0.0
  0
SPLINE
  5
3E7
100
AcDbEntity
  8
0
100
AcDbSpline
 62
7
  6
CONTINUOUS
 70
0
 71
3
 72
19
 73
15
 74
0
 42
0.0000001
 43
0.0000001
 44
0.0000000001
 40
0.0
 40
0.0
 40
0.0
 40
0.0
 40
0.0161903583
 40
0.0369053249
 40
0.0644110605
 40
0.0995098873
 40
0.1423695575
 40
0.1928513481
 40
0.2506353443
 40
0.3152753171
 40
0.4628540044
 40
0.630366636
 40
0.8116632042
 40
1.0
 40
1.0
 40
1.0
 40
1.0
 10
161.6326147518
 20
86.6968541507
 30
0.0
 10
161.6326147518
 20
86.6996499102
 30
0.0
 10
161.6348361296
 20
86.7060186131
 30
0.0
 10
161.642867977
 20
86.7139668431
 30
0.0
 10
161.6551229249
 20
86.7216118345
 30
0.0
 10
161.6718115237
 20
86.7290064097
 30
0.0
 10
161.6928299811
 20
86.7361426054
 30
0.0
 10
161.7180414024
 20
86.7429345163
 30
0.0
 10
161.7472180478
 20
86.749314261
 30
0.0
 10
161.7931195125
 20
86.7575412747
 30
0.0
 10
161.8581742827
 20
86.7660368445
 30
0.0
 10
161.943596588
 20
86.773369024
 30
0.0
 10
162.0362593762
 20
86.7778933674
 30
0.0
 10
162.1000926551
 20
86.778907542
 30
0.0
 10
162.1326147518
 20
86.778907542
 30
0.0
  0
SPLINE
  5
3E8
100
AcDbEntity
  8
0
100
AcDbSpline
 62
7
  6
CONTINUOUS
 70
0
 71
3
 72
19
 73
15
 74
0
 42
0.0000001
 43
0.0000001
 44
0.0000000001
 40
0.0
 40
0.0
 40
0.0
 40
0.0
 40
0.0161903583
 40
0.0369053249
 40
0.0644110605
 40
0.0995098873
 40
0.1423695575
 40
0.1928513481
 40
0.2506353443
 40
0.3152753171
 40
0.4628540044
 40
0.630366636
 40
0.8116632042
 40
1.0
 40
1.0
 40
1.0
 40
1.0
 10
135.6326147518
 20
86.6968541507
 30
0.0
 10
135.6326147518
 20
86.6996499102
 30
0.0
 10
135.630393374
 20
86.7060186131
 30
0.0
 10
135.6223615266
 20
86.7139668431
 30
0.0
 10
135.6101065787
 20
86.7216118345
 30
0.0
 10
135.5934179799
 20
86.7290064097
 30
0.0
 10
135.5723995225
 20
86.7361426054
 30
0.0
 10
135.5471881012
 20
86.7429345163
 30
0.0
 10
135.5180114558
 20
86.749314261
 30
0.0
 10
135.4721099911
 20
86.7575412747
 30
0.0
 10
135.407055221
 20
86.7660368445
 30
0.0
 10
135.3216329156
 20
86.773369024
 30
0.0
 10
135.2289701275
 20
86.7778933674
 30
0.0
 10
135.1651368485
 20
86.778907542
 30
0.0
 10
135.1326147518
 20
86.778907542
 30
0.0
  0
SPLINE
  5
3E9
100
AcDbEntity
  8
0
100
AcDbSpline
 62
7
  6
CONTINUOUS
 70
0
 71
3
 72
20
 73
16
 74
0
 42
0.0000001
 43
0.0000001
 44
0.0000000001
 40
0.0
 40
0.0
 40
0.0
 40
0.0
 40
0.185933445
 40
0.3572264038
 40
0.5109895023
 40
0.5806610736
 40
0.6452930959
 40
0.7048168932
 40
0.7592588162
 40
0.8087625635
 40
0.8536209163
 40
0.8943177659
 40
0.9315754716
 40
0.9663875922
 40
1.0
 40
1.0
 40
1.0
 40
1.0
 10
161.9041656639
 20
75.8388750815
 30
0.0
 10
162.0200514751
 20
75.7775412041
 30
0.0
 10
162.2459397275
 20
75.6656427259
 30
0.0
 10
162.5785374566
 20
75.5263573468
 30
0.0
 10
162.8430459822
 20
75.4384066635
 30
0.0
 10
163.0401287617
 20
75.3888264395
 30
0.0
 10
163.1744191064
 20
75.3629250821
 30
0.0
 10
163.2994719966
 20
75.3471332223
 30
0.0
 10
163.4147425485
 20
75.3414894057
 30
0.0
 10
163.5197552214
 20
75.3459899669
 30
0.0
 10
163.6141043035
 20
75.3606182163
 30
0.0
 10
163.6974259863
 20
75.3853643466
 30
0.0
 10
163.769350481
 20
75.4202618272
 30
0.0
 10
163.8293644681
 20
75.465273232
 30
0.0
 10
163.8612097316
 20
75.5021233741
 30
0.0
 10
163.8746430896
 20
75.5216518541
 30
0.0
  0
SPLINE
  5
3EA
100
AcDbEntity
  8
0
100
AcDbSpline
 62
7
  6
CONTINUOUS
 70
0
 71
3
 72
20
 73
16
 74
0
 42
0.0000001
 43
0.0000001
 44
0.0000000001
 40
0.0
 40
0.0
 40
0.0
 40
0.0
 40
0.1859334448
 40
0.3572264034
 40
0.5109895017
 40
0.5806610728
 40
0.6452930949
 40
0.7048168921
 40
0.759258815
 40
0.8087625624
 40
0.8536209157
 40
0.894317766
 40
0.9315754731
 40
0.9663875895
 40
1.0
 40
1.0
 40
1.0
 40
1.0
 10
135.3610638459
 20
75.8388750831
 30
0.0
 10
135.2451780341
 20
75.7775412058
 30
0.0
 10
135.0192897801
 20
75.6656427288
 30
0.0
 10
134.6866920493
 20
75.5263573506
 30
0.0
 10
134.4221835232
 20
75.438406666
 30
0.0
 10
134.2251007435
 20
75.3888264406
 30
0.0
 10
134.0908103986
 20
75.3629250823
 30
0.0
 10
133.9657575082
 20
75.347133222
 30
0.0
 10
133.8504869557
 20
75.3414894054
 30
0.0
 10
133.7454742819
 20
75.3459899673
 30
0.0
 10
133.6511251987
 20
75.3606182187
 30
0.0
 10
133.567803514
 20
75.3853643506
 30
0.0
 10
133.4958790222
 20
75.4202618339
 30
0.0
 10
133.435865031
 20
75.4652732336
 30
0.0
 10
133.4040197699
 20
75.5021233772
 30
0.0
 10
133.3905864108
 20
75.5216518588
 30
0.0
  0
SPLINE
  5
3EB
100
AcDbEntity
  8
0
100
AcDbSpline
 62
7
  6
CONTINUOUS
 70
0
 71
3
 72
25
 73
21
 74
0
 42
0.0000001
 43
0.0000001
 44
0.0000000001
 40
0.0
 40
0.0
 40
0.0
 40
0.0
 40
0.0017814796
 40
0.0037405975
 40
0.0060132151
 40
0.0086874761
 40
0.015428734
 40
0.0242023857
 40
0.0350961548
 40
0.0481437265
 40
0.063352201
 40
0.0807131164
 40
0.121805695
 40
0.1711794177
 40
0.2284853004
 40
0.2932820732
 40
0.4431332549
 40
0.6154420556
 40
0.8036101007
 40
1.0
 40
1.0
 40
1.0
 40
1.0
 10
167.1326147518
 20
96.1932052882
 30
0.0
 10
167.1326147518
 20
96.1915269353
 30
0.0
 10
167.1320006617
 20
96.1879828423
 30
0.0
 10
167.1293725199
 20
96.1828930369
 30
0.0
 10
167.1251357317
 20
96.1779023404
 30
0.0
 10
167.1167025082
 20
96.1707685849
 30
0.0
 10
167.1017257552
 20
96.1622184857
 30
0.0
 10
167.0787440112
 20
96.1526355299
 30
0.0
 10
167.0494079139
 20
96.1430908577
 30
0.0
 10
167.0137523598
 20
96.1336127746
 30
0.0
 10
166.9718023357
 20
96.1242341564
 30
0.0
 10
166.903639554
 20
96.1111591993
 30
0.0
 10
166.8032054235
 20
96.0957083535
 30
0.0
 10
166.6650087445
 20
96.0787757916
 30
0.0
 10
166.5042390599
 20
96.0627970157
 30
0.0
 10
166.2488651208
 20
96.0419842478
 30
0.0
 10
165.8849056208
 20
96.020408498
 30
0.0
 10
165.4044618255
 20
96.0016758134
 30
0.0
 10
164.8799381607
 20
95.9900447921
 30
0.0
 10
164.5176359897
 20
95.9874299705
 30
0.0
 10
164.3326147518
 20
95.9874299705
 30
0.0
  0
SPLINE
  5
3EC
100
AcDbEntity
  8
0
100
AcDbSpline
 62
7
  6
CONTINUOUS
 70
0
 71
3
 72
11
 73
7
 74
0
 42
0.0000001
 43
0.0000001
 44
0.0000000001
 40
0.0
 40
0.0
 40
0.0
 40
0.0
 40
0.2424247127
 40
0.4918705693
 40
0.7451789453
 40
1.0
 40
1.0
 40
1.0
 40
1.0
 10
135.3610638459
 20
75.8388750946
 30
0.0
 10
135.4429117642
 20
75.8821940315
 30
0.0
 10
135.6165377569
 20
75.9563292804
 30
0.0
 10
135.8924297066
 20
76.0295179631
 30
0.0
 10
136.1796274661
 20
76.0694882402
 30
0.0
 10
136.3738639666
 20
76.0771759326
 30
0.0
 10
136.4712038858
 20
76.0771759326
 30
0.0
  0
SPLINE
  5
3ED
100
AcDbEntity
  8
0
100
AcDbSpline
 62
7
  6
CONTINUOUS
 70
0
 71
3
 72
11
 73
7
 74
0
 42
0.0000001
 43
0.0000001
 44
0.0000000001
 40
0.0
 40
0.0
 40
0.0
 40
0.0
 40
0.2424247128
 40
0.4918705693
 40
0.7451789453
 40
1.0
 40
1.0
 40
1.0
 40
1.0
 10
161.9041656639
 20
75.8388750925
 30
0.0
 10
161.8223177453
 20
75.88219403
 30
0.0
 10
161.6486917513
 20
75.9563292785
 30
0.0
 10
161.3727998003
 20
76.0295179627
 30
0.0
 10
161.0856020391
 20
76.0694882401
 30
0.0
 10
160.8913655376
 20
76.0771759326
 30
0.0
 10
160.7940256178
 20
76.0771759326
 30
0.0
  0
SPLINE
  5
3EE
100
AcDbEntity
  8
0
100
AcDbSpline
 62
7
  6
CONTINUOUS
 70
0
 71
3
 72
11
 73
7
 74
0
 42
0.0000001
 43
0.0000001
 44
0.0000000001
 40
0.0
 40
0.0
 40
0.0
 40
0.0
 40
0.2516203705
 40
0.5024254444
 40
0.751923846
 40
1.0
 40
1.0
 40
1.0
 40
1.0
 10
157.1326147518
 20
95.9997402954
 30
0.0
 10
157.2150969645
 20
95.9997402954
 30
0.0
 10
157.3801778204
 20
95.9842635527
 30
0.0
 10
157.6186851989
 20
95.9178092944
 30
0.0
 10
157.8426754493
 20
95.8157453941
 30
0.0
 10
157.9814343044
 20
95.7292004446
 30
0.0
 10
158.0480422058
 20
95.6825485902
 30
0.0
  0
SPLINE
  5
3EF
100
AcDbEntity
  8
0
100
AcDbSpline
 62
7
  6
CONTINUOUS
 70
0
 71
3
 72
11
 73
7
 74
0
 42
0.0000001
 43
0.0000001
 44
0.0000000001
 40
0.0
 40
0.0
 40
0.0
 40
0.0
 40
0.248076154
 40
0.4975745556
 40
0.7483796295
 40
1.0
 40
1.0
 40
1.0
 40
1.0
 10
139.2171872988
 20
95.6825485909
 30
0.0
 10
139.2837952
 20
95.7292004452
 30
0.0
 10
139.4225540551
 20
95.8157453945
 30
0.0
 10
139.6465443053
 20
95.9178092946
 30
0.0
 10
139.8850516835
 20
95.9842635527
 30
0.0
 10
140.0501325393
 20
95.9997402954
 30
0.0
 10
140.1326147518
 20
95.9997402954
 30
0.0
  0
ELLIPSE
  5
3F0
100
AcDbEntity
  8
0
100
AcDbEllipse
 62
7
  6
CONTINUOUS
 10
148.6326147518
 20
88.3049557145
 30
0.0
 11
0.0
 21
3.9891777015
 31
0.0
 40
0.9923488676
 41
-1.0510403393
 42
1.0510403393
  0
ENDSEC
  0
SECTION
  2
OBJECTS
  0
DICTIONARY
  5
C
100
AcDbDictionary
280
0
281
1
  3
ACAD_GROUP
350
D
  3
ACAD_MLINESTYLE
350
17
  3
ACAD_LAYOUT
350
1A
  3
ACAD_PLOTSETTINGS
350
19
  3
ACAD_PLOTSTYLENAME
350
E
  3
ACAD_TABLESTYLE
350
       3F1
  0
DICTIONARY
  5
D
102
{ACAD_REACTORS
330
C
102
}
100
AcDbDictionary
280
0
281
1
  0
ACDBDICTIONARYWDFLT
  5
E
102
{ACAD_REACTORS
330
C
102
}
100
AcDbDictionary
281
1
  3
Normal
350
F
100
AcDbDictionaryWithDefault
340
F
  0
DICTIONARY
  5
17
102
{ACAD_REACTORS
330
C
102
}
100
AcDbDictionary
280
0
281
1
  3
Standard
350
18
  0
DICTIONARY
  5
3F1
330
C
100
AcDbDictionary
281
1
  3
Standard
350
       3F4
  3
Standard1
350
       3F5
  0
DICTIONARY
  5
19
102
{ACAD_REACTORS
330
C
102
}
100
AcDbDictionary
281
1
  0
DICTIONARY
  5
1A
102
{ACAD_REACTORS
330
C
102
}
100
AcDbDictionary
281
1
  3
Model
350
3F2
  3
Layout1
350
3F3
  0
ACDBPLACEHOLDER
  5
F
102
{ACAD_REACTORS
330
E
102
}
  0
MLINESTYLE
  5
18
102
{ACAD_REACTORS
330
17
102
}
100
AcDbMlineStyle
  2
STANDARD
 70
0
  3

 62
256
 51
90.0
 52
90.0
 71
2
 49
0.5
 62
256
  6
BYLAYER
 49
-0.5
 62
256
  6
BYLAYER
  0
LAYOUT
  5
3F2
102
{ACAD_REACTORS
330
1A
102
}
100
AcDbPlotSettings
  1

  2
none_device
  4

  6

 40
0.0
 41
0.0
 42
0.0
 43
0.0
 44
210.0
 45
297.0
 46
0.0
 47
0.0
 48
0.0
 49
0.0
140
0.0
141
0.0
142
1.0
143
1.0
 70
1024
 72
1
 73
0
 74
0
  7

 75
0
147
1.0
148
0.0
149
0.0
100
AcDbLayout
  1
Model
 70
0
 71
0
 10
0.0
 20
0.0
 11
210.0
 21
297.0
 12
0.0
 22
0.0
 32
0.0
 14
0.0
 24
0.0
 34
0.0
 15
0.0
 25
0.0
 35
0.0
146
0.0
 13
0.0
 23
0.0
 33
0.0
 16
1.0
 26
0.0
 36
0.0
 17
0.0
 27
1.0
 37
0.0
 76
0
330
20C
345
0
346
0
  0
LAYOUT
  5
3F3
102
{ACAD_REACTORS
330
1A
102
}
100
AcDbPlotSettings
  1

  2
none_device
  4

  6

 40
0.0
 41
0.0
 42
0.0
 43
0.0
 44
210.0
 45
297.0
 46
0.0
 47
0.0
 48
0.0
 49
0.0
140
0.0
141
0.0
142
1.0
143
1.0
 70
0
 72
1
 73
0
 74
0
  7

 75
0
147
1.0
148
0.0
149
0.0
100
AcDbLayout
  1
Layout1
 70
0
 71
1
 10
0.0
 20
0.0
 11
210.0
 21
297.0
 12
0.0
 22
0.0
 32
0.0
 14
0.0
 24
0.0
 34
0.0
 15
0.0
 25
0.0
 35
0.0
146
0.0
 13
0.0
 23
0.0
 33
0.0
 16
1.0
 26
0.0
 36
0.0
 17
0.0
 27
1.0
 37
0.0
 76
0
330
20D
345
0
346
0
  0
TABLESTYLE
  5
3F4
102
{ACAD_REACTORS
330
3F1
330
341
102
}
330
3F1
100
AcDbTableStyle
  3
Standard
 70
0
 71
0
 40
0.06
 41
0.06
280
1
281
1
  7
Standard
140
0.18
170
1
 62
0
 63
7
283
0
  7
Standard
140
0.18
170
1
 62
0
 63
7
283
0
  7
Standard
140
0.18
170
1
 62
0
 63
7
283
0
  0
TABLESTYLE
  5
3F5
102
{ACAD_REACTORS
330
3F1
102
}
330
3F1
100
AcDbTableStyle
  3
Standard1
 70
1
 71
0
 40
0.06
 41
0.06
280
1
281
1
  7
Standard
140
0.18
170
1
 62
0
 63
7
283
0
  7
Standard
140
0.18
170
1
 62
0
 63
7
283
0
  7
Standard
140
0.18
170
1
 62
0
 63
7
283
0
  0
ENDSEC
  0
EOF
