  0
SECTION
  2
HEADER
  9
$EXTMAX
 10
210.0
 20
297.0
 30
0.0
  9
$EXTMIN
 10
0.0
 20
0.0
 30
0.0
  9
$LIMMIN
 10
0.0
 20
0.0
  9
$LIMMAX
 10
210.0
 20
297.0
  9
$VIEWCTR
 10
105.0
 20
148.5
  9
$VIEWSIZE
 40
297.0
  9
$CLAYER
  8
0
  9
$LTSCALE
 40
19.36
  9
$CELTYPE
  6
BYLAYER
  9
$DIMSCALE
 40
1.0
  9
$DIMASZ
 40
3.5
  9
$DIMEXO
 40
1.0
  9
$DIMDLI
 40
13.376
  9
$DIMEXE
 40
2.0
  9
$DIMCEN
 40
3.168
  9
$DIMLFAC
 40
1.0
  9
$DIMBLK
  1
_FILLED
  9
$DIMTXT
 40
3.5
  9
$PDMODE
 70
3
  9
$PDSIZE
 40
0.3125
  9
$TILEMODE
 70
1
  0
ENDSEC
  0
SECTION
  2
TABLES
  0
TABLE
  2
LTYPE
 70
6
  0
LTYPE
  2
BYBLOCK
 70
0
  3

 72
65
 73
0
 40
0.0
  0
LTYPE
  2
BYLAYER
 70
0
  3

 72
65
 73
0
 40
0.0
  0
LTYPE
  2
CONTINUOUS
 70
64
  3
Solid line
 72
65
 73
0
 40
0.0
  0
LTYPE
  2
CENTER
 70
64
  3
____ _ ____ _ ____ _ ____ _ ____ _ ____ _ ____
 72
65
 73
4
 40
0.6
 49
0.375
 49
-0.075
 49
0.075
 49
-0.075
  0
LTYPE
  2
HIDDEN
 70
64
  3
- - - - - - - - - - - - - - - - - - - -
 72
65
 73
2
 40
0.2
 49
0.1
 49
-0.1
  0
LTYPE
  2
PHANTOM
 70
64
  3
_____ _ _ _____ _ _ _____ _ _ _____
 72
65
 73
6
 40
0.8
 49
0.45
 49
-0.05
 49
0.1
 49
-0.05
 49
0.1
 49
-0.05
  0
LTYPE
  2
DOT
 70
64
  3
. . . . . . . . . . . . . . . . . . . .
 72
65
 73
2
 40
0.2
 49
0.1
 49
-0.1
  0
LTYPE
  2
DASHED
 70
64
  3
- - - - - - - - - - - - - - - - - - - -
 72
65
 73
2
 40
0.2
 49
0.1
 49
-0.1
  0
ENDTAB
  0
TABLE
  2
LAYER
 70
36
  0
LAYER
  2
0
 70
0
 62
7
  6
CONTINUOUS
  0
LAYER
  2
DEFAULT_1
 70
0
 62
7
  6
CENTER
  0
LAYER
  2
DEFAULT_2
 70
0
 62
8
  6
HIDDEN
  0
LAYER
  2
DEFAULT_3
 70
0
 62
7
  6
PHANTOM
  0
LAYER
  2
1_CSYS
 70
0
 62
7
  6
CONTINUOUS
  0
LAYER
  2
1_DATUM_PLANE
 70
0
 62
7
  6
CONTINUOUS
  0
LAYER
  2
2_FEATURE
 70
0
 62
7
  6
CONTINUOUS
  0
LAYER
  2
6_DIM
 70
0
 62
7
  6
CONTINUOUS
  0
LAYER
  2
AXES
 70
0
 62
7
  6
CONTINUOUS
  0
LAYER
  2
CSYS
 70
0
 62
7
  6
CONTINUOUS
  0
LAYER
  2
PLANES
 70
0
 62
7
  6
CONTINUOUS
  0
LAYER
  2
QUILTS
 70
0
 62
7
  6
CONTINUOUS
  0
ENDTAB
  0
TABLE
  2
STYLE
 70
1
  0
STYLE
  2
STANDARD
 70
0
 40
0.0
 41
0.8
 50
0.0
 71
0
 42
0.2
  3
txt
  4

  0
STYLE
  2
TEXTSTYLE_1
 70
0
 40
0.0
 41
0.8
 50
0.0
 71
0
 42
0.2
  3
gdt
  4

  0
STYLE
  2
TEXTSTYLE_2
 70
0
 40
0.0
 41
0.6
 50
0.0
 71
0
 42
0.2
  3
txt
  4

  0
STYLE
  2
TEXTSTYLE_3
 70
0
 40
0.0
 41
1.0
 50
0.0
 71
0
 42
0.2
  3
ftb_____.ttf
  4

  0
STYLE
  2
TEXTSTYLE_4
 70
0
 40
0.0
 41
1.0
 50
0.0
 71
0
 42
0.2
  3
fti_____.ttf
  4

  0
STYLE
  2
TEXTSTYLE_5
 70
0
 40
0.0
 41
1.0
 50
0.0
 71
0
 42
0.2
  3
frutiger light.ttf
  4

  0
STYLE
  2
TEXTSTYLE_6
 70
0
 40
0.0
 41
0.7
 50
0.0
 71
0
 42
0.2
  3
txt
  4

  0
STYLE
  2
TEXTSTYLE_7
 70
0
 40
0.0
 41
0.8
 50
0.0
 71
0
 42
0.2
  3
txt
  4

  0
ENDTAB
  0
ENDSEC
  0
SECTION
  2
BLOCKS
  0
BLOCK
  8
0
 62
2
  6
CONTINUOUS
  2
SYMBOL_11_BL1
 70
64
 10
173.3924355793
 20
35.4837666925
  0
TEXT
  8
0
 62
7
  6
CONTINUOUS
 10
164.4507205878
 20
30.5765230696
  7
TEXTSTYLE_4
 40
1.0655737705
  1
The brand for plastic modular belts and chains
 41
1.0
 72
0
  0
LINE
  8
0
 62
7
  6
CONTINUOUS
 10
149.3705039683
 20
36.0575371843
 11
149.3705039683
 21
33.9263896433
  0
LINE
  8
0
 62
7
  6
CONTINUOUS
 10
149.6595664615
 20
30.9354583476
 11
149.6595664615
 21
31.0322494069
  0
LINE
  8
0
 62
7
  6
CONTINUOUS
 10
149.3705039683
 20
30.9999857205
 11
149.4283164701
 21
30.8064036019
  0
LINE
  8
0
 62
7
  6
CONTINUOUS
 10
150.7639465913
 20
33.8444224302
 11
150.7639465913
 21
36.0575371843
  0
LINE
  8
0
 62
7
  6
CONTINUOUS
 10
151.6830039132
 20
32.0001601351
 11
151.6830039132
 21
30.4837666925
  0
LINE
  8
0
 62
7
  6
CONTINUOUS
 10
151.9720664683
 20
30.4837666925
 11
151.9720664683
 21
31.2258315706
  0
LINE
  8
0
 62
7
  6
CONTINUOUS
 10
151.9720664683
 20
31.3548863163
 11
151.9720664683
 21
32.0001601351
  0
LINE
  8
0
 62
7
  6
CONTINUOUS
 10
149.4283164701
 20
31.1935678842
 11
149.3705039683
 21
30.9999857205
  0
LINE
  8
0
 62
7
  6
CONTINUOUS
 10
149.7751914546
 20
30.7741399155
 11
149.6595664615
 21
30.9354583476
  0
LINE
  8
0
 62
7
  6
CONTINUOUS
 10
150.8736290235
 20
31.2903589434
 11
150.9314414683
 21
31.1935678842
  0
LINE
  8
0
 62
7
  6
CONTINUOUS
 10
151.2205040235
 20
31.1935678842
 11
151.1626914132
 21
31.3226226299
  0
LINE
  8
0
 62
7
  6
CONTINUOUS
 10
152.6491924929
 20
36.0575371843
 11
152.6491924929
 21
34.2542584958
  0
LINE
  8
0
 62
7
  6
CONTINUOUS
 10
152.6491924929
 20
32.9427830859
 11
152.6491924929
 21
32.287045381
  0
LINE
  8
0
 62
7
  6
CONTINUOUS
 10
153.0126914683
 20
31.1290405113
 11
153.0126914683
 21
30.4837666925
  0
LINE
  8
0
 62
7
  6
CONTINUOUS
 10
153.3017538581
 20
30.4837666925
 11
153.3017538581
 21
31.1290405113
  0
LINE
  8
0
 62
7
  6
CONTINUOUS
 10
149.6595664615
 20
31.0322494069
 11
149.7173789683
 21
31.1613041978
  0
LINE
  8
0
 62
7
  6
CONTINUOUS
 10
149.4283164701
 20
30.8064036019
 11
149.5439414683
 21
30.6773488336
  0
LINE
  8
0
 62
7
  6
CONTINUOUS
 10
152.9548788581
 20
31.258095257
 11
153.0126914683
 21
31.1290405113
  0
LINE
  8
0
 62
7
  6
CONTINUOUS
 10
153.7642540786
 20
30.7741399155
 11
153.8220663581
 21
30.6450851472
  0
LINE
  8
0
 62
7
  6
CONTINUOUS
 10
153.3017538581
 20
31.1290405113
 11
153.2439415786
 21
31.2903589434
  0
LINE
  8
0
 62
7
  6
CONTINUOUS
 10
153.7642540786
 20
31.3226226299
 11
153.7642540786
 21
31.258095257
  0
LINE
  8
0
 62
7
  6
CONTINUOUS
 10
153.7642540786
 20
30.8709309748
 11
153.7642540786
 21
30.7741399155
  0
LINE
  8
0
 62
7
  6
CONTINUOUS
 10
154.0426351159
 20
32.287045381
 11
154.0426351159
 21
36.0575371843
  0
LINE
  8
0
 62
7
  6
CONTINUOUS
 10
154.0533164683
 20
30.7418762065
 11
154.0533164683
 21
30.8064036019
  0
LINE
  8
0
 62
7
  6
CONTINUOUS
 10
154.3705039683
 20
36.0575371843
 11
154.3705039683
 21
32.287045381
  0
LINE
  8
0
 62
7
  6
CONTINUOUS
 10
151.1626914132
 20
30.6773488336
 11
151.2205040235
 21
30.8064036019
  0
LINE
  8
0
 62
7
  6
CONTINUOUS
 10
155.5564416889
 20
30.5805577631
 11
155.4986287478
 21
30.7418762065
  0
LINE
  8
0
 62
7
  6
CONTINUOUS
 10
155.2095666889
 20
31.258095257
 11
155.2095666889
 21
31.1613041978
  0
LINE
  8
0
 62
7
  6
CONTINUOUS
 10
155.2095666889
 20
31.0322494069
 11
155.2095666889
 21
30.8386672883
  0
LINE
  8
0
 62
7
  6
CONTINUOUS
 10
155.4986287478
 20
30.7418762065
 11
155.4986287478
 21
31.258095257
  0
LINE
  8
0
 62
7
  6
CONTINUOUS
 10
155.7639465913
 20
32.287045381
 11
155.7639465913
 21
34.0903240696
  0
LINE
  8
0
 62
7
  6
CONTINUOUS
 10
155.7639465913
 20
35.4017994794
 11
155.7639465913
 21
36.0575371843
  0
LINE
  8
0
 62
7
  6
CONTINUOUS
 10
156.0767541889
 20
32.0001601351
 11
156.0767541889
 21
31.838841703
  0
LINE
  8
0
 62
7
  6
CONTINUOUS
 10
156.0767541889
 20
31.5162047484
 11
156.0767541889
 21
30.4837666925
  0
LINE
  8
0
 62
7
  6
CONTINUOUS
 10
156.3658162478
 20
30.4837666925
 11
156.3658162478
 21
31.5162047484
  0
LINE
  8
0
 62
7
  6
CONTINUOUS
 10
156.3658162478
 20
31.838841703
 11
156.3658162478
 21
32.0001601351
  0
LINE
  8
0
 62
7
  6
CONTINUOUS
 10
150.9314414683
 20
30.8064036019
 11
150.8736290235
 21
30.7096125201
  0
LINE
  8
0
 62
7
  6
CONTINUOUS
 10
153.2439415786
 20
31.2903589434
 11
153.1861289683
 21
31.3548863163
  0
LINE
  8
0
 62
7
  6
CONTINUOUS
 10
154.1111290786
 20
30.6773488336
 11
154.0533164683
 21
30.7418762065
  0
LINE
  8
0
 62
7
  6
CONTINUOUS
 10
155.2673789683
 20
30.548294071
 11
155.3251912478
 21
30.4837666925
  0
LINE
  8
0
 62
7
  6
CONTINUOUS
 10
155.2095666889
 20
30.6450851472
 11
155.2673789683
 21
30.548294071
  0
LINE
  8
0
 62
7
  6
CONTINUOUS
 10
155.6142539683
 20
30.4837666925
 11
155.5564416889
 21
30.5805577631
  0
LINE
  8
0
 62
7
  6
CONTINUOUS
 10
155.4986287478
 20
31.258095257
 11
155.4408164683
 21
31.3548863163
  0
LINE
  8
0
 62
7
  6
CONTINUOUS
 10
156.8283164683
 20
31.5162047484
 11
156.8283164683
 21
30.4837666925
  0
LINE
  8
0
 62
7
  6
CONTINUOUS
 10
157.1173791889
 20
30.4837666925
 11
157.1173791889
 21
31.2258315706
  0
LINE
  8
0
 62
7
  6
CONTINUOUS
 10
157.1173791889
 20
31.3548863163
 11
157.1173791889
 21
31.5162047484
  0
LINE
  8
0
 62
7
  6
CONTINUOUS
 10
157.6491924929
 20
34.5001601351
 11
157.6491924929
 21
32.287045381
  0
LINE
  8
0
 62
7
  6
CONTINUOUS
 10
149.5439414683
 20
31.3226226299
 11
149.4283164701
 21
31.1935678842
  0
LINE
  8
0
 62
7
  6
CONTINUOUS
 10
149.7173789683
 20
31.1613041978
 11
149.7751914546
 21
31.2258315706
  0
LINE
  8
0
 62
7
  6
CONTINUOUS
 10
149.5439414683
 20
30.6773488336
 11
149.6595664615
 21
30.6128214495
  0
LINE
  8
0
 62
7
  6
CONTINUOUS
 10
149.9486289546
 20
30.6773488336
 11
149.7751914546
 21
30.7741399155
  0
LINE
  8
0
 62
7
  6
CONTINUOUS
 10
155.1517537478
 20
31.3226226299
 11
155.2095666889
 21
31.258095257
  0
LINE
  8
0
 62
7
  6
CONTINUOUS
 10
158.1001912478
 20
31.258095257
 11
158.1580041889
 21
31.0967768249
  0
LINE
  8
0
 62
7
  6
CONTINUOUS
 10
158.4470662478
 20
31.0967768249
 11
158.3892539683
 21
31.258095257
  0
LINE
  8
0
 62
7
  6
CONTINUOUS
 10
158.1580041889
 20
31.0967768249
 11
158.1580041889
 21
30.4837666925
  0
LINE
  8
0
 62
7
  6
CONTINUOUS
 10
158.4470662478
 20
30.4837666925
 11
158.4470662478
 21
31.0967768249
  0
LINE
  8
0
 62
7
  6
CONTINUOUS
 10
158.9095664683
 20
31.3226226299
 11
158.9095664683
 21
31.258095257
  0
LINE
  8
0
 62
7
  6
CONTINUOUS
 10
159.0426351159
 20
32.287045381
 11
159.0426351159
 21
34.418192922
  0
LINE
  8
0
 62
7
  6
CONTINUOUS
 10
159.3705039683
 20
36.0575371843
 11
159.3705039683
 21
32.287045381
  0
LINE
  8
0
 62
7
  6
CONTINUOUS
 10
154.0533164683
 20
30.8064036019
 11
154.1111290786
 21
30.9031946612
  0
LINE
  8
0
 62
7
  6
CONTINUOUS
 10
149.6595664615
 20
30.6128214495
 11
149.8330039821
 21
30.548294071
  0
LINE
  8
0
 62
7
  6
CONTINUOUS
 10
151.1626914132
 20
31.3226226299
 11
150.9892539132
 21
31.4194136891
  0
LINE
  8
0
 62
7
  6
CONTINUOUS
 10
153.8220663581
 20
30.6450851472
 11
153.9955038581
 21
30.548294071
  0
LINE
  8
0
 62
7
  6
CONTINUOUS
 10
152.8392539683
 20
31.3226226299
 11
152.9548788581
 21
31.258095257
  0
LINE
  8
0
 62
7
  6
CONTINUOUS
 10
153.1861289683
 20
31.3548863163
 11
153.0705040786
 21
31.4194136891
  0
LINE
  8
0
 62
7
  6
CONTINUOUS
 10
158.9095664683
 20
30.7418762065
 11
159.0251916889
 21
30.6128214495
  0
LINE
  8
0
 62
7
  6
CONTINUOUS
 10
159.2564414683
 20
30.6773488336
 11
159.1986291889
 21
30.7418762065
  0
LINE
  8
0
 62
7
  6
CONTINUOUS
 10
158.9095664683
 20
31.258095257
 11
159.0251916889
 21
31.1290405113
  0
LINE
  8
0
 62
7
  6
CONTINUOUS
 10
158.3892539683
 20
31.258095257
 11
158.3314416889
 21
31.3548863163
  0
LINE
  8
0
 62
7
  6
CONTINUOUS
 10
160.7595660273
 20
30.6773488336
 11
160.7595660273
 21
30.7418762065
  0
LINE
  8
0
 62
7
  6
CONTINUOUS
 10
160.7639465913
 20
32.287045381
 11
160.7639465913
 21
36.0575371843
  0
LINE
  8
0
 62
7
  6
CONTINUOUS
 10
153.8220663581
 20
31.3871500027
 11
153.7642540786
 21
31.3226226299
  0
LINE
  8
0
 62
7
  6
CONTINUOUS
 10
150.7001914408
 20
31.3548863163
 11
150.8736290235
 21
31.2903589434
  0
LINE
  8
0
 62
7
  6
CONTINUOUS
 10
155.4408164683
 20
31.3548863163
 11
155.3251912478
 21
31.4194136891
  0
LINE
  8
0
 62
7
  6
CONTINUOUS
 10
159.2564414683
 20
31.1935678842
 11
159.1986291889
 21
31.258095257
  0
LINE
  8
0
 62
7
  6
CONTINUOUS
 10
160.4126916889
 20
30.8064036019
 11
160.4705039683
 21
30.7418762065
  0
LINE
  8
0
 62
7
  6
CONTINUOUS
 10
160.7595660273
 20
30.7418762065
 11
160.6439414683
 21
30.8709309748
  0
LINE
  8
0
 62
7
  6
CONTINUOUS
 10
160.4126916889
 20
31.3226226299
 11
160.4705039683
 21
31.258095257
  0
LINE
  8
0
 62
7
  6
CONTINUOUS
 10
160.7595660273
 20
31.258095257
 11
160.6439414683
 21
31.3871500027
  0
LINE
  8
0
 62
7
  6
CONTINUOUS
 10
154.0533164683
 20
31.258095257
 11
154.1111290786
 21
31.3226226299
  0
LINE
  8
0
 62
7
  6
CONTINUOUS
 10
153.8798789683
 20
30.9999857205
 11
153.7642540786
 21
30.8709309748
  0
LINE
  8
0
 62
7
  6
CONTINUOUS
 10
155.2095666889
 20
30.8386672883
 11
155.1517537478
 21
30.7741399155
  0
LINE
  8
0
 62
7
  6
CONTINUOUS
 10
155.1517537478
 20
30.5805577631
 11
155.2095666889
 21
30.6450851472
  0
LINE
  8
0
 62
7
  6
CONTINUOUS
 10
153.9955038581
 20
30.548294071
 11
154.1111290786
 21
30.5160303817
  0
LINE
  8
0
 62
7
  6
CONTINUOUS
 10
150.9892539132
 20
31.4194136891
 11
150.7580039683
 21
31.483941062
  0
LINE
  8
0
 62
7
  6
CONTINUOUS
 10
154.3423788581
 20
30.6128214495
 11
154.1111290786
 21
30.6773488336
  0
LINE
  8
0
 62
7
  6
CONTINUOUS
 10
153.0705040786
 20
31.4194136891
 11
152.8970665786
 21
31.483941062
  0
LINE
  8
0
 62
7
  6
CONTINUOUS
 10
155.3251912478
 20
31.4194136891
 11
155.1517537478
 21
31.483941062
  0
LINE
  8
0
 62
7
  6
CONTINUOUS
 10
157.9845666889
 20
31.3226226299
 11
158.1001912478
 21
31.258095257
  0
LINE
  8
0
 62
7
  6
CONTINUOUS
 10
158.3314416889
 20
31.3548863163
 11
158.2158164683
 21
31.4194136891
  0
LINE
  8
0
 62
7
  6
CONTINUOUS
 10
149.8330039821
 20
30.548294071
 11
150.0064414821
 21
30.5160303817
  0
LINE
  8
0
 62
7
  6
CONTINUOUS
 10
150.2955039959
 20
30.6128214495
 11
149.9486289546
 21
30.6773488336
  0
LINE
  8
0
 62
7
  6
CONTINUOUS
 10
152.7236290786
 20
31.3548863163
 11
152.8392539683
 21
31.3226226299
  0
LINE
  8
0
 62
7
  6
CONTINUOUS
 10
155.0361291889
 20
31.3548863163
 11
155.1517537478
 21
31.3226226299
  0
LINE
  8
0
 62
7
  6
CONTINUOUS
 10
159.3720666889
 20
30.6450851472
 11
159.2564414683
 21
30.6773488336
  0
LINE
  8
0
 62
7
  6
CONTINUOUS
 10
157.8689414683
 20
31.3548863163
 11
157.9845666889
 21
31.3226226299
  0
LINE
  8
0
 62
7
  6
CONTINUOUS
 10
159.0251916889
 20
30.6128214495
 11
159.1986291889
 21
30.548294071
  0
LINE
  8
0
 62
7
  6
CONTINUOUS
 10
158.2158164683
 20
31.4194136891
 11
158.0423789683
 21
31.483941062
  0
LINE
  8
0
 62
7
  6
CONTINUOUS
 10
159.4298789683
 20
31.1290405113
 11
159.2564414683
 21
31.1935678842
  0
LINE
  8
0
 62
7
  6
CONTINUOUS
 10
160.2392541889
 20
30.8709309748
 11
160.4126916889
 21
30.8064036019
  0
LINE
  8
0
 62
7
  6
CONTINUOUS
 10
160.6439414683
 20
31.3871500027
 11
160.4705039683
 21
31.4516773756
  0
LINE
  8
0
 62
7
  6
CONTINUOUS
 10
159.0251916889
 20
31.1290405113
 11
159.2564414683
 21
31.0322494069
  0
LINE
  8
0
 62
7
  6
CONTINUOUS
 10
160.6439414683
 20
30.8709309748
 11
160.4126916889
 21
30.967722034
  0
LINE
  8
0
 62
7
  6
CONTINUOUS
 10
159.1986291889
 20
31.258095257
 11
159.2564414683
 21
31.3226226299
  0
LINE
  8
0
 62
7
  6
CONTINUOUS
 10
149.6595664615
 20
31.3871500027
 11
149.5439414683
 21
31.3226226299
  0
LINE
  8
0
 62
7
  6
CONTINUOUS
 10
149.7751914546
 20
31.2258315706
 11
149.9486289546
 21
31.3226226299
  0
LINE
  8
0
 62
7
  6
CONTINUOUS
 10
152.0876915235
 20
31.4194136891
 11
151.9720664683
 21
31.3548863163
  0
LINE
  8
0
 62
7
  6
CONTINUOUS
 10
151.9720664683
 20
31.2258315706
 11
152.0876915235
 21
31.2903589434
  0
LINE
  8
0
 62
7
  6
CONTINUOUS
 10
150.9892539132
 20
30.5805577631
 11
151.1626914132
 21
30.6773488336
  0
LINE
  8
0
 62
7
  6
CONTINUOUS
 10
150.0064414821
 20
30.5160303817
 11
150.3533164408
 21
30.4837666925
  0
LINE
  8
0
 62
7
  6
CONTINUOUS
 10
154.1111290786
 20
30.5160303817
 11
154.3423788581
 21
30.4837666925
  0
LINE
  8
0
 62
7
  6
CONTINUOUS
 10
152.4923789683
 20
31.3871500027
 11
152.7236290786
 21
31.3548863163
  0
LINE
  8
0
 62
7
  6
CONTINUOUS
 10
154.8048790786
 20
31.3871500027
 11
155.0361291889
 21
31.3548863163
  0
LINE
  8
0
 62
7
  6
CONTINUOUS
 10
159.2564414683
 20
31.0322494069
 11
160.2392541889
 21
30.8709309748
  0
LINE
  8
0
 62
7
  6
CONTINUOUS
 10
160.4126916889
 20
30.967722034
 11
159.4298789683
 21
31.1290405113
  0
LINE
  8
0
 62
7
  6
CONTINUOUS
 10
152.8970665786
 20
31.483941062
 11
152.7236290786
 21
31.5162047484
  0
LINE
  8
0
 62
7
  6
CONTINUOUS
 10
159.1986291889
 20
30.548294071
 11
159.3720666889
 21
30.5160303817
  0
LINE
  8
0
 62
7
  6
CONTINUOUS
 10
158.0423789683
 20
31.483941062
 11
157.8689414683
 21
31.5162047484
  0
LINE
  8
0
 62
7
  6
CONTINUOUS
 10
160.2970664683
 20
31.3548863163
 11
160.4126916889
 21
31.3226226299
  0
LINE
  8
0
 62
7
  6
CONTINUOUS
 10
160.4705039683
 20
30.7418762065
 11
160.4126916889
 21
30.6773488336
  0
LINE
  8
0
 62
7
  6
CONTINUOUS
 10
159.0251916889
 20
31.4194136891
 11
158.9095664683
 21
31.3226226299
  0
LINE
  8
0
 62
7
  6
CONTINUOUS
 10
153.9376915786
 20
31.4516773756
 11
153.8220663581
 21
31.3871500027
  0
LINE
  8
0
 62
7
  6
CONTINUOUS
 10
153.9955038581
 20
31.0645131385
 11
153.8798789683
 21
30.9999857205
  0
LINE
  8
0
 62
7
  6
CONTINUOUS
 10
154.1111290786
 20
30.9031946612
 11
154.2267539683
 21
30.967722034
  0
LINE
  8
0
 62
7
  6
CONTINUOUS
 10
151.6830039132
 20
30.4837666925
 11
151.9720664683
 21
30.4837666925
  0
LINE
  8
0
 62
7
  6
CONTINUOUS
 10
153.0126914683
 20
30.4837666925
 11
153.3017538581
 21
30.4837666925
  0
LINE
  8
0
 62
7
  6
CONTINUOUS
 10
154.3423788581
 20
30.4837666925
 11
154.6892538581
 21
30.4837666925
  0
LINE
  8
0
 62
7
  6
CONTINUOUS
 10
155.3251912478
 20
30.4837666925
 11
155.6142539683
 21
30.4837666925
  0
LINE
  8
0
 62
7
  6
CONTINUOUS
 10
156.0767541889
 20
30.4837666925
 11
156.3658162478
 21
30.4837666925
  0
LINE
  8
0
 62
7
  6
CONTINUOUS
 10
156.8283164683
 20
30.4837666925
 11
157.1173791889
 21
30.4837666925
  0
LINE
  8
0
 62
7
  6
CONTINUOUS
 10
158.1580041889
 20
30.4837666925
 11
158.4470662478
 21
30.4837666925
  0
LINE
  8
0
 62
7
  6
CONTINUOUS
 10
159.7189416889
 20
30.4837666925
 11
160.0658166889
 21
30.4837666925
  0
LINE
  8
0
 62
7
  6
CONTINUOUS
 10
160.0658166889
 20
30.6128214495
 11
159.7189416889
 21
30.6128214495
  0
LINE
  8
0
 62
7
  6
CONTINUOUS
 10
154.6892538581
 20
30.6128214495
 11
154.3423788581
 21
30.6128214495
  0
LINE
  8
0
 62
7
  6
CONTINUOUS
 10
159.1986291889
 20
30.7418762065
 11
158.9095664683
 21
30.7418762065
  0
LINE
  8
0
 62
7
  6
CONTINUOUS
 10
151.2205040235
 20
30.8064036019
 11
150.9314414683
 21
30.8064036019
  0
LINE
  8
0
 62
7
  6
CONTINUOUS
 10
150.2955039959
 20
31.3871500027
 11
150.7001914408
 21
31.3548863163
  0
LINE
  8
0
 62
7
  6
CONTINUOUS
 10
150.7580039683
 20
31.483941062
 11
150.3533164408
 21
31.5162047484
  0
LINE
  8
0
 62
7
  6
CONTINUOUS
 10
159.3720666889
 20
30.5160303817
 11
159.7189416889
 21
30.4837666925
  0
LINE
  8
0
 62
7
  6
CONTINUOUS
 10
159.7189416889
 20
30.6128214495
 11
159.3720666889
 21
30.6450851472
  0
LINE
  8
0
 62
7
  6
CONTINUOUS
 10
155.1517537478
 20
31.483941062
 11
154.8048790786
 21
31.5162047484
  0
LINE
  8
0
 62
7
  6
CONTINUOUS
 10
159.9501914683
 20
31.3871500027
 11
160.2970664683
 21
31.3548863163
  0
LINE
  8
0
 62
7
  6
CONTINUOUS
 10
160.2970664683
 20
31.483941062
 11
159.9501914683
 21
31.5162047484
  0
LINE
  8
0
 62
7
  6
CONTINUOUS
 10
157.6376916889
 20
31.3871500027
 11
157.8689414683
 21
31.3548863163
  0
LINE
  8
0
 62
7
  6
CONTINUOUS
 10
160.4705039683
 20
31.4516773756
 11
160.2970664683
 21
31.483941062
  0
LINE
  8
0
 62
7
  6
CONTINUOUS
 10
160.6439414683
 20
30.5805577631
 11
160.7595660273
 21
30.6773488336
  0
LINE
  8
0
 62
7
  6
CONTINUOUS
 10
155.1517537478
 20
30.7741399155
 11
154.9783162478
 21
30.6773488336
  0
LINE
  8
0
 62
7
  6
CONTINUOUS
 10
157.2330037478
 20
31.4194136891
 11
157.1173791889
 21
31.3548863163
  0
LINE
  8
0
 62
7
  6
CONTINUOUS
 10
157.1173791889
 20
31.2258315706
 11
157.2330037478
 21
31.2903589434
  0
LINE
  8
0
 62
7
  6
CONTINUOUS
 10
149.8330039821
 20
31.4516773756
 11
149.6595664615
 21
31.3871500027
  0
LINE
  8
0
 62
7
  6
CONTINUOUS
 10
152.2611288581
 20
31.483941062
 11
152.0876915235
 21
31.4194136891
  0
LINE
  8
0
 62
7
  6
CONTINUOUS
 10
152.0876915235
 20
31.2903589434
 11
152.2611288581
 21
31.3548863163
  0
LINE
  8
0
 62
7
  6
CONTINUOUS
 10
150.8736290235
 20
30.7096125201
 11
150.7001914408
 21
30.6450851472
  0
LINE
  8
0
 62
7
  6
CONTINUOUS
 10
160.2970664683
 20
30.6450851472
 11
160.0658166889
 21
30.6128214495
  0
LINE
  8
0
 62
7
  6
CONTINUOUS
 10
154.6892538581
 20
30.4837666925
 11
154.9783162478
 21
30.5160303817
  0
LINE
  8
0
 62
7
  6
CONTINUOUS
 10
160.0658166889
 20
30.4837666925
 11
160.4126916889
 21
30.5160303817
  0
LINE
  8
0
 62
7
  6
CONTINUOUS
 10
150.3533164408
 20
30.4837666925
 11
150.7580039683
 21
30.5160303817
  0
LINE
  8
0
 62
7
  6
CONTINUOUS
 10
150.7001914408
 20
30.6450851472
 11
150.2955039959
 21
30.6128214495
  0
LINE
  8
0
 62
7
  6
CONTINUOUS
 10
154.5736289683
 20
31.0322494069
 11
155.2095666889
 21
31.0322494069
  0
LINE
  8
0
 62
7
  6
CONTINUOUS
 10
155.2095666889
 20
31.1613041978
 11
154.5736289683
 21
31.1613041978
  0
LINE
  8
0
 62
7
  6
CONTINUOUS
 10
150.9314414683
 20
31.1935678842
 11
151.2205040235
 21
31.1935678842
  0
LINE
  8
0
 62
7
  6
CONTINUOUS
 10
153.7642540786
 20
31.258095257
 11
154.0533164683
 21
31.258095257
  0
LINE
  8
0
 62
7
  6
CONTINUOUS
 10
160.4705039683
 20
31.258095257
 11
160.7595660273
 21
31.258095257
  0
LINE
  8
0
 62
7
  6
CONTINUOUS
 10
154.4580040786
 20
31.3871500027
 11
154.8048790786
 21
31.3871500027
  0
LINE
  8
0
 62
7
  6
CONTINUOUS
 10
159.6033164683
 20
31.3871500027
 11
159.9501914683
 21
31.3871500027
  0
LINE
  8
0
 62
7
  6
CONTINUOUS
 10
159.9501914683
 20
31.5162047484
 11
159.6033164683
 21
31.5162047484
  0
LINE
  8
0
 62
7
  6
CONTINUOUS
 10
157.8689414683
 20
31.5162047484
 11
157.6376916889
 21
31.5162047484
  0
LINE
  8
0
 62
7
  6
CONTINUOUS
 10
157.1173791889
 20
31.5162047484
 11
156.8283164683
 21
31.5162047484
  0
LINE
  8
0
 62
7
  6
CONTINUOUS
 10
156.3658162478
 20
31.5162047484
 11
156.0767541889
 21
31.5162047484
  0
LINE
  8
0
 62
7
  6
CONTINUOUS
 10
154.8048790786
 20
31.5162047484
 11
154.4580040786
 21
31.5162047484
  0
LINE
  8
0
 62
7
  6
CONTINUOUS
 10
152.7236290786
 20
31.5162047484
 11
152.4923789683
 21
31.5162047484
  0
LINE
  8
0
 62
7
  6
CONTINUOUS
 10
156.0767541889
 20
31.838841703
 11
156.3658162478
 21
31.838841703
  0
LINE
  8
0
 62
7
  6
CONTINUOUS
 10
156.3658162478
 20
32.0001601351
 11
156.0767541889
 21
32.0001601351
  0
LINE
  8
0
 62
7
  6
CONTINUOUS
 10
151.9720664683
 20
32.0001601351
 11
151.6830039132
 21
32.0001601351
  0
LINE
  8
0
 62
7
  6
CONTINUOUS
 10
151.0098482306
 20
32.287045381
 11
151.4224195792
 21
32.287045381
  0
LINE
  8
0
 62
7
  6
CONTINUOUS
 10
152.6491924929
 20
32.287045381
 11
154.0426351159
 21
32.287045381
  0
LINE
  8
0
 62
7
  6
CONTINUOUS
 10
154.3705039683
 20
32.287045381
 11
155.7639465913
 21
32.287045381
  0
LINE
  8
0
 62
7
  6
CONTINUOUS
 10
157.6491924929
 20
32.287045381
 11
159.0426351159
 21
32.287045381
  0
LINE
  8
0
 62
7
  6
CONTINUOUS
 10
159.3705039683
 20
32.287045381
 11
160.7639465913
 21
32.287045381
  0
LINE
  8
0
 62
7
  6
CONTINUOUS
 10
157.4064412478
 20
31.483941062
 11
157.2330037478
 21
31.4194136891
  0
LINE
  8
0
 62
7
  6
CONTINUOUS
 10
154.9783162478
 20
30.5160303817
 11
155.1517537478
 21
30.5805577631
  0
LINE
  8
0
 62
7
  6
CONTINUOUS
 10
160.4126916889
 20
30.5160303817
 11
160.6439414683
 21
30.5805577631
  0
LINE
  8
0
 62
7
  6
CONTINUOUS
 10
160.4126916889
 20
30.6773488336
 11
160.2970664683
 21
30.6450851472
  0
LINE
  8
0
 62
7
  6
CONTINUOUS
 10
159.3720666889
 20
31.3548863163
 11
159.6033164683
 21
31.3871500027
  0
LINE
  8
0
 62
7
  6
CONTINUOUS
 10
157.4064412478
 20
31.3548863163
 11
157.6376916889
 21
31.3871500027
  0
LINE
  8
0
 62
7
  6
CONTINUOUS
 10
154.3423788581
 20
30.9999857205
 11
154.5736289683
 21
31.0322494069
  0
LINE
  8
0
 62
7
  6
CONTINUOUS
 10
157.6376916889
 20
31.5162047484
 11
157.4064412478
 21
31.483941062
  0
LINE
  8
0
 62
7
  6
CONTINUOUS
 10
154.2267539683
 20
31.3548863163
 11
154.4580040786
 21
31.3871500027
  0
LINE
  8
0
 62
7
  6
CONTINUOUS
 10
159.6033164683
 20
31.5162047484
 11
159.2564414683
 21
31.483941062
  0
LINE
  8
0
 62
7
  6
CONTINUOUS
 10
154.5736289683
 20
31.1613041978
 11
154.2267539683
 21
31.1290405113
  0
LINE
  8
0
 62
7
  6
CONTINUOUS
 10
150.3533164408
 20
31.5162047484
 11
150.0064414821
 21
31.483941062
  0
LINE
  8
0
 62
7
  6
CONTINUOUS
 10
154.4580040786
 20
31.5162047484
 11
154.0533164683
 21
31.483941062
  0
LINE
  8
0
 62
7
  6
CONTINUOUS
 10
151.8295203618
 20
33.4345863646
 11
151.1737826569
 21
33.4345863646
  0
LINE
  8
0
 62
7
  6
CONTINUOUS
 10
157.2330037478
 20
31.2903589434
 11
157.4064412478
 21
31.3548863163
  0
LINE
  8
0
 62
7
  6
CONTINUOUS
 10
159.2564414683
 20
31.3226226299
 11
159.3720666889
 21
31.3548863163
  0
LINE
  8
0
 62
7
  6
CONTINUOUS
 10
159.2564414683
 20
31.483941062
 11
159.0251916889
 21
31.4194136891
  0
LINE
  8
0
 62
7
  6
CONTINUOUS
 10
154.9783162478
 20
30.6773488336
 11
154.6892538581
 21
30.6128214495
  0
LINE
  8
0
 62
7
  6
CONTINUOUS
 10
152.2611288581
 20
31.3548863163
 11
152.4923789683
 21
31.3871500027
  0
LINE
  8
0
 62
7
  6
CONTINUOUS
 10
152.4923789683
 20
31.5162047484
 11
152.2611288581
 21
31.483941062
  0
LINE
  8
0
 62
7
  6
CONTINUOUS
 10
150.0642539683
 20
31.3548863163
 11
150.2955039959
 21
31.3871500027
  0
LINE
  8
0
 62
7
  6
CONTINUOUS
 10
156.5836187224
 20
34.9099962007
 11
157.2393564274
 21
34.9099962007
  0
LINE
  8
0
 62
7
  6
CONTINUOUS
 10
154.2267539683
 20
30.967722034
 11
154.3423788581
 21
30.9999857205
  0
LINE
  8
0
 62
7
  6
CONTINUOUS
 10
154.2267539683
 20
31.1290405113
 11
153.9955038581
 21
31.0645131385
  0
LINE
  8
0
 62
7
  6
CONTINUOUS
 10
154.1111290786
 20
31.3226226299
 11
154.2267539683
 21
31.3548863163
  0
LINE
  8
0
 62
7
  6
CONTINUOUS
 10
150.7580039683
 20
30.5160303817
 11
150.9892539132
 21
30.5805577631
  0
LINE
  8
0
 62
7
  6
CONTINUOUS
 10
154.0533164683
 20
31.483941062
 11
153.9376915786
 21
31.4516773756
  0
LINE
  8
0
 62
7
  6
CONTINUOUS
 10
150.0064414821
 20
31.483941062
 11
149.8330039821
 21
31.4516773756
  0
LINE
  8
0
 62
7
  6
CONTINUOUS
 10
160.7639465913
 20
36.0575371843
 11
159.3705039683
 21
36.0575371843
  0
LINE
  8
0
 62
7
  6
CONTINUOUS
 10
157.4032908536
 20
36.0575371843
 11
156.990719505
 21
36.0575371843
  0
LINE
  8
0
 62
7
  6
CONTINUOUS
 10
155.7639465913
 20
36.0575371843
 11
154.3705039683
 21
36.0575371843
  0
LINE
  8
0
 62
7
  6
CONTINUOUS
 10
154.0426351159
 20
36.0575371843
 11
152.6491924929
 21
36.0575371843
  0
LINE
  8
0
 62
7
  6
CONTINUOUS
 10
150.7639465913
 20
36.0575371843
 11
149.3705039683
 21
36.0575371843
  0
LINE
  8
0
 62
7
  6
CONTINUOUS
 10
149.9486289546
 20
31.3226226299
 11
150.0642539683
 21
31.3548863163
  0
CIRCLE
  8
0
 62
7
  6
CONTINUOUS
 10
160.0672252798
 20
38.3936027581
 40
2.0901639344
  0
ARC
  8
0
 62
7
  6
CONTINUOUS
 10
151.0098482306
 20
33.9263896433
 40
1.6393442623
 50
180.0
 51
270.0
  0
ARC
  8
0
 62
7
  6
CONTINUOUS
 10
157.4032908536
 20
34.418192922
 40
1.6393442623
 50
0.0
 51
90.0
  0
ARC
  8
0
 62
7
  6
CONTINUOUS
 10
151.4224195792
 20
33.7624552171
 40
1.4754098361
 50
270.0
 51
326.2510114041
  0
ARC
  8
0
 62
7
  6
CONTINUOUS
 10
156.990719505
 20
34.5821273482
 40
1.4754098361
 50
90.0
 51
146.2510114041
  0
ARC
  8
0
 62
7
  6
CONTINUOUS
 10
151.8295203618
 20
34.2542584958
 40
0.8196721311
 50
270.0
 51
360.0
  0
ARC
  8
0
 62
7
  6
CONTINUOUS
 10
156.5836187224
 20
34.0903240696
 40
0.8196721311
 50
90.0
 51
180.0
  0
ARC
  8
0
 62
7
  6
CONTINUOUS
 10
151.1737826569
 20
33.8444224302
 40
0.4098360656
 50
180.0
 51
270.0
  0
ARC
  8
0
 62
7
  6
CONTINUOUS
 10
157.2393564274
 20
34.5001601351
 40
0.4098360656
 50
0.0
 51
90.0
  0
SOLID
  8
0
 62
7
  6
CONTINUOUS
 10
156.0767541889
 20
31.8388420633
 11
156.0767541889
 21
32.0001605469
 12
156.3658162478
 22
31.8388420633
 13
156.3658162478
 23
32.0001605469
  0
SOLID
  8
0
 62
7
  6
CONTINUOUS
 10
150.3533164408
 20
31.5162050961
 11
150.7580039683
 21
31.4839409236
 12
150.0064414821
 22
31.4839409236
 13
150.0064414821
 23
31.4839409236
  0
SOLID
  8
0
 62
7
  6
CONTINUOUS
 10
149.8330039821
 20
31.4516780059
 11
150.0064414821
 21
31.4839409236
 12
150.7580039683
 22
31.4839409236
 13
150.7580039683
 23
31.4839409236
  0
SOLID
  8
0
 62
7
  6
CONTINUOUS
 10
150.7580039683
 20
31.4839409236
 11
150.9892539132
 21
31.4194137026
 12
149.8330039821
 22
31.4516780059
 13
149.8330039821
 23
31.4516780059
  0
SOLID
  8
0
 62
7
  6
CONTINUOUS
 10
149.6595664615
 20
31.3871495108
 11
149.8330039821
 21
31.4516780059
 12
150.9892539132
 22
31.4194137026
 13
150.9892539132
 23
31.4194137026
  0
SOLID
  8
0
 62
7
  6
CONTINUOUS
 10
149.6595664615
 20
31.3871495108
 11
150.9892539132
 21
31.4194137026
 12
150.2955039959
 22
31.3871495108
 13
150.2955039959
 23
31.3871495108
  0
SOLID
  8
0
 62
7
  6
CONTINUOUS
 10
150.2955039959
 20
31.3871495108
 11
150.9892539132
 21
31.4194137026
 12
150.7001914408
 22
31.3548866125
 13
150.7001914408
 23
31.3548866125
  0
SOLID
  8
0
 62
7
  6
CONTINUOUS
 10
150.9892539132
 20
31.4194137026
 11
151.1626914132
 21
31.3226223092
 12
150.7001914408
 22
31.3548866125
 13
150.7001914408
 23
31.3548866125
  0
SOLID
  8
0
 62
7
  6
CONTINUOUS
 10
150.8736290235
 20
31.2903595223
 11
150.7001914408
 21
31.3548866125
 12
151.1626914132
 22
31.3226223092
 13
151.1626914132
 23
31.3226223092
  0
SOLID
  8
0
 62
7
  6
CONTINUOUS
 10
150.8736290235
 20
31.2903595223
 11
151.1626914132
 21
31.3226223092
 12
150.9314414683
 22
31.1935679757
 13
150.9314414683
 23
31.1935679757
  0
SOLID
  8
0
 62
7
  6
CONTINUOUS
 10
151.1626914132
 20
31.3226223092
 11
151.2205040235
 21
31.1935679757
 12
150.9314414683
 22
31.1935679757
 13
150.9314414683
 23
31.1935679757
  0
SOLID
  8
0
 62
7
  6
CONTINUOUS
 10
152.2611288581
 20
31.4839414344
 11
152.4923789683
 21
31.5162057377
 12
152.7236290786
 22
31.5162057377
 13
152.7236290786
 23
31.5162057377
  0
SOLID
  8
0
 62
7
  6
CONTINUOUS
 10
152.7236290786
 20
31.5162057377
 11
152.8970665786
 21
31.4839414344
 12
152.2611288581
 22
31.4839414344
 13
152.2611288581
 23
31.4839414344
  0
SOLID
  8
0
 62
7
  6
CONTINUOUS
 10
152.0876915235
 20
31.4194143443
 11
152.2611288581
 21
31.4839414344
 12
152.8970665786
 22
31.4839414344
 13
152.8970665786
 23
31.4839414344
  0
SOLID
  8
0
 62
7
  6
CONTINUOUS
 10
152.8970665786
 20
31.4839414344
 11
153.0705040786
 21
31.4194143443
 12
152.0876915235
 22
31.4194143443
 13
152.0876915235
 23
31.4194143443
  0
SOLID
  8
0
 62
7
  6
CONTINUOUS
 10
153.0705040786
 20
31.4194143443
 11
152.4923789683
 21
31.3871493993
 12
152.0876915235
 22
31.4194143443
 13
152.0876915235
 23
31.4194143443
  0
SOLID
  8
0
 62
7
  6
CONTINUOUS
 10
151.9720664683
 20
31.3548872541
 11
152.0876915235
 21
31.4194143443
 12
152.4923789683
 22
31.3871493993
 13
152.4923789683
 23
31.3871493993
  0
SOLID
  8
0
 62
7
  6
CONTINUOUS
 10
152.4923789683
 20
31.3871493993
 11
152.2611288581
 21
31.3548872541
 12
151.9720664683
 22
31.3548872541
 13
151.9720664683
 23
31.3548872541
  0
SOLID
  8
0
 62
7
  6
CONTINUOUS
 10
152.4923789683
 20
31.3871493993
 11
153.0705040786
 21
31.4194143443
 12
152.7236290786
 22
31.3548872541
 13
152.7236290786
 23
31.3548872541
  0
SOLID
  8
0
 62
7
  6
CONTINUOUS
 10
153.0705040786
 20
31.4194143443
 11
153.1861289683
 21
31.3548872541
 12
152.7236290786
 22
31.3548872541
 13
152.7236290786
 23
31.3548872541
  0
SOLID
  8
0
 62
7
  6
CONTINUOUS
 10
152.8392539683
 20
31.3226223092
 11
152.7236290786
 21
31.3548872541
 12
153.1861289683
 22
31.3548872541
 13
153.1861289683
 23
31.3548872541
  0
SOLID
  8
0
 62
7
  6
CONTINUOUS
 10
153.1861289683
 20
31.3548872541
 11
153.2439415786
 21
31.2903601639
 12
152.8392539683
 22
31.3226223092
 13
152.8392539683
 23
31.3226223092
  0
SOLID
  8
0
 62
7
  6
CONTINUOUS
 10
152.9548788581
 20
31.258095219
 11
152.8392539683
 21
31.3226223092
 12
153.2439415786
 22
31.2903601639
 13
153.2439415786
 23
31.2903601639
  0
SOLID
  8
0
 62
7
  6
CONTINUOUS
 10
152.9548788581
 20
31.258095219
 11
153.2439415786
 21
31.2903601639
 12
153.0126914683
 22
31.1290416803
 13
153.0126914683
 23
31.1290416803
  0
SOLID
  8
0
 62
7
  6
CONTINUOUS
 10
153.2439415786
 20
31.2903601639
 11
153.3017538581
 21
31.1290416803
 12
153.0126914683
 22
31.1290416803
 13
153.0126914683
 23
31.1290416803
  0
SOLID
  8
0
 62
7
  6
CONTINUOUS
 10
152.2611288581
 20
31.3548872541
 11
152.0876915235
 21
31.2903601639
 12
151.9720664683
 22
31.3548872541
 13
151.9720664683
 23
31.3548872541
  0
SOLID
  8
0
 62
7
  6
CONTINUOUS
 10
152.0876915235
 20
31.2903601639
 11
151.9720664683
 21
31.2258309157
 12
151.9720664683
 22
31.3548872541
 13
151.9720664683
 23
31.3548872541
  0
SOLID
  8
0
 62
7
  6
CONTINUOUS
 10
151.9720664683
 20
31.2258309157
 11
151.6830039132
 21
30.4837677459
 12
151.9720664683
 22
31.3548872541
 13
151.9720664683
 23
31.3548872541
  0
SOLID
  8
0
 62
7
  6
CONTINUOUS
 10
151.9720664683
 20
31.3548872541
 11
151.6830039132
 21
30.4837677459
 12
151.9720664683
 22
32.0001611885
 13
151.9720664683
 23
32.0001611885
  0
SOLID
  8
0
 62
7
  6
CONTINUOUS
 10
151.6830039132
 20
30.4837677459
 11
151.6830039132
 21
32.0001611885
 12
151.9720664683
 22
32.0001611885
 13
151.9720664683
 23
32.0001611885
  0
SOLID
  8
0
 62
7
  6
CONTINUOUS
 10
151.9720664683
 20
31.2258309157
 11
151.9720664683
 21
30.4837677459
 12
151.6830039132
 22
30.4837677459
 13
151.6830039132
 23
30.4837677459
  0
SOLID
  8
0
 62
7
  6
CONTINUOUS
 10
153.0126914683
 20
30.4837677459
 11
153.0126914683
 21
31.1290416803
 12
153.3017538581
 22
31.1290416803
 13
153.3017538581
 23
31.1290416803
  0
SOLID
  8
0
 62
7
  6
CONTINUOUS
 10
153.3017538581
 20
31.1290416803
 11
153.3017538581
 21
30.4837677459
 12
153.0126914683
 22
30.4837677459
 13
153.0126914683
 23
30.4837677459
  0
SOLID
  8
0
 62
7
  6
CONTINUOUS
 10
154.0533164683
 20
31.4839408139
 11
154.4580040786
 21
31.5162048066
 12
154.8048790786
 22
31.5162048066
 13
154.8048790786
 23
31.5162048066
  0
SOLID
  8
0
 62
7
  6
CONTINUOUS
 10
154.8048790786
 20
31.5162048066
 11
155.1517537478
 21
31.4839408139
 12
154.0533164683
 22
31.4839408139
 13
154.0533164683
 23
31.4839408139
  0
SOLID
  8
0
 62
7
  6
CONTINUOUS
 10
153.9376915786
 20
31.4516780059
 11
154.0533164683
 21
31.4839408139
 12
155.1517537478
 22
31.4839408139
 13
155.1517537478
 23
31.4839408139
  0
SOLID
  8
0
 62
7
  6
CONTINUOUS
 10
155.1517537478
 20
31.4839408139
 11
155.3251912478
 21
31.4194137026
 12
153.9376915786
 22
31.4516780059
 13
153.9376915786
 23
31.4516780059
  0
SOLID
  8
0
 62
7
  6
CONTINUOUS
 10
153.8220663581
 20
31.38714961
 11
153.9376915786
 21
31.4516780059
 12
155.3251912478
 22
31.4194137026
 13
155.3251912478
 23
31.4194137026
  0
SOLID
  8
0
 62
7
  6
CONTINUOUS
 10
153.8220663581
 20
31.38714961
 11
155.3251912478
 21
31.4194137026
 12
154.4580040786
 22
31.38714961
 13
154.4580040786
 23
31.38714961
  0
SOLID
  8
0
 62
7
  6
CONTINUOUS
 10
154.4580040786
 20
31.38714961
 11
155.3251912478
 21
31.4194137026
 12
154.8048790786
 22
31.38714961
 13
154.8048790786
 23
31.38714961
  0
SOLID
  8
0
 62
7
  6
CONTINUOUS
 10
154.8048790786
 20
31.38714961
 11
155.3251912478
 21
31.4194137026
 12
155.0361291889
 22
31.3548863916
 13
155.0361291889
 23
31.3548863916
  0
SOLID
  8
0
 62
7
  6
CONTINUOUS
 10
155.3251912478
 20
31.4194137026
 11
155.4408164683
 21
31.3548863916
 12
155.0361291889
 22
31.3548863916
 13
155.0361291889
 23
31.3548863916
  0
SOLID
  8
0
 62
7
  6
CONTINUOUS
 10
153.7642540786
 20
31.3226223989
 11
153.8220663581
 21
31.38714961
 12
154.4580040786
 22
31.38714961
 13
154.4580040786
 23
31.38714961
  0
SOLID
  8
0
 62
7
  6
CONTINUOUS
 10
155.1517537478
 20
31.3226223989
 11
155.0361291889
 21
31.3548863916
 12
155.4408164683
 22
31.3548863916
 13
155.4408164683
 23
31.3548863916
  0
SOLID
  8
0
 62
7
  6
CONTINUOUS
 10
155.1517537478
 20
31.3226223989
 11
155.4408164683
 21
31.3548863916
 12
155.2095666889
 22
31.2580951877
 13
155.2095666889
 23
31.2580951877
  0
SOLID
  8
0
 62
7
  6
CONTINUOUS
 10
155.4408164683
 20
31.3548863916
 11
155.4986287478
 21
31.2580951877
 12
155.2095666889
 22
31.2580951877
 13
155.2095666889
 23
31.2580951877
  0
SOLID
  8
0
 62
7
  6
CONTINUOUS
 10
155.2095666889
 20
31.1613038256
 11
155.2095666889
 21
31.2580951877
 12
155.4986287478
 22
31.2580951877
 13
155.4986287478
 23
31.2580951877
  0
SOLID
  8
0
 62
7
  6
CONTINUOUS
 10
155.2095666889
 20
31.1613038256
 11
155.4986287478
 21
31.2580951877
 12
155.2095666889
 22
31.0322496452
 13
155.2095666889
 23
31.0322496452
  0
SOLID
  8
0
 62
7
  6
CONTINUOUS
 10
155.2095666889
 20
31.0322496452
 11
155.4986287478
 21
31.2580951877
 12
155.2095666889
 22
30.8386672883
 13
155.2095666889
 23
30.8386672883
  0
SOLID
  8
0
 62
7
  6
CONTINUOUS
 10
155.4986287478
 20
31.2580951877
 11
155.4986287478
 21
30.7418754649
 12
155.2095666889
 22
30.8386672883
 13
155.2095666889
 23
30.8386672883
  0
SOLID
  8
0
 62
7
  6
CONTINUOUS
 10
157.4064412478
 20
31.4839405154
 11
157.6376916889
 21
31.5162052351
 12
157.8689414683
 22
31.5162052351
 13
157.8689414683
 23
31.5162052351
  0
SOLID
  8
0
 62
7
  6
CONTINUOUS
 10
157.8689414683
 20
31.5162052351
 11
158.0423789683
 21
31.4839405154
 12
157.4064412478
 22
31.4839405154
 13
157.4064412478
 23
31.4839405154
  0
SOLID
  8
0
 62
7
  6
CONTINUOUS
 10
157.2330037478
 20
31.4194141734
 11
157.4064412478
 21
31.4839405154
 12
158.0423789683
 22
31.4839405154
 13
158.0423789683
 23
31.4839405154
  0
SOLID
  8
0
 62
7
  6
CONTINUOUS
 10
158.0423789683
 20
31.4839405154
 11
158.2158164683
 21
31.4194141734
 12
157.2330037478
 22
31.4194141734
 13
157.2330037478
 23
31.4194141734
  0
SOLID
  8
0
 62
7
  6
CONTINUOUS
 10
158.2158164683
 20
31.4194141734
 11
157.6376916889
 21
31.3871493993
 12
157.2330037478
 22
31.4194141734
 13
157.2330037478
 23
31.4194141734
  0
SOLID
  8
0
 62
7
  6
CONTINUOUS
 10
157.1173791889
 20
31.3548867989
 11
157.2330037478
 21
31.4194141734
 12
157.6376916889
 22
31.3871493993
 13
157.6376916889
 23
31.3871493993
  0
SOLID
  8
0
 62
7
  6
CONTINUOUS
 10
157.6376916889
 20
31.3871493993
 11
157.4064412478
 21
31.3548867989
 12
157.1173791889
 22
31.3548867989
 13
157.1173791889
 23
31.3548867989
  0
SOLID
  8
0
 62
7
  6
CONTINUOUS
 10
157.6376916889
 20
31.3871493993
 11
158.2158164683
 21
31.4194141734
 12
157.8689414683
 22
31.3548867989
 13
157.8689414683
 23
31.3548867989
  0
SOLID
  8
0
 62
7
  6
CONTINUOUS
 10
158.2158164683
 20
31.4194141734
 11
158.3314416889
 21
31.3548867989
 12
157.8689414683
 22
31.3548867989
 13
157.8689414683
 23
31.3548867989
  0
SOLID
  8
0
 62
7
  6
CONTINUOUS
 10
157.9845666889
 20
31.3226223092
 11
157.8689414683
 21
31.3548867989
 12
158.3314416889
 22
31.3548867989
 13
158.3314416889
 23
31.3548867989
  0
SOLID
  8
0
 62
7
  6
CONTINUOUS
 10
157.9845666889
 20
31.3226223092
 11
158.3314416889
 21
31.3548867989
 12
158.1001912478
 22
31.2580947047
 13
158.1001912478
 23
31.2580947047
  0
SOLID
  8
0
 62
7
  6
CONTINUOUS
 10
158.3314416889
 20
31.3548867989
 11
158.3892539683
 21
31.2580947047
 12
158.1001912478
 22
31.2580947047
 13
158.1001912478
 23
31.2580947047
  0
SOLID
  8
0
 62
7
  6
CONTINUOUS
 10
158.1580041889
 20
31.0967762685
 11
158.1001912478
 21
31.2580947047
 12
158.3892539683
 22
31.2580947047
 13
158.3892539683
 23
31.2580947047
  0
SOLID
  8
0
 62
7
  6
CONTINUOUS
 10
158.3892539683
 20
31.2580947047
 11
158.4470662478
 21
31.0967762685
 12
158.1580041889
 22
31.0967762685
 13
158.1580041889
 23
31.0967762685
  0
SOLID
  8
0
 62
7
  6
CONTINUOUS
 10
157.4064412478
 20
31.3548867989
 11
157.2330037478
 21
31.2903595223
 12
157.1173791889
 22
31.3548867989
 13
157.1173791889
 23
31.3548867989
  0
SOLID
  8
0
 62
7
  6
CONTINUOUS
 10
157.2330037478
 20
31.2903595223
 11
157.1173791889
 21
31.2258309157
 12
157.1173791889
 22
31.3548867989
 13
157.1173791889
 23
31.3548867989
  0
SOLID
  8
0
 62
7
  6
CONTINUOUS
 10
157.1173791889
 20
31.2258309157
 11
156.8283164683
 21
30.4837672433
 12
157.1173791889
 22
31.3548867989
 13
157.1173791889
 23
31.3548867989
  0
SOLID
  8
0
 62
7
  6
CONTINUOUS
 10
157.1173791889
 20
31.3548867989
 11
156.8283164683
 21
30.4837672433
 12
157.1173791889
 22
31.5162052351
 13
157.1173791889
 23
31.5162052351
  0
SOLID
  8
0
 62
7
  6
CONTINUOUS
 10
156.8283164683
 20
30.4837672433
 11
156.8283164683
 21
31.5162052351
 12
157.1173791889
 22
31.5162052351
 13
157.1173791889
 23
31.5162052351
  0
SOLID
  8
0
 62
7
  6
CONTINUOUS
 10
157.1173791889
 20
31.2258309157
 11
157.1173791889
 21
30.4837672433
 12
156.8283164683
 22
30.4837672433
 13
156.8283164683
 23
30.4837672433
  0
SOLID
  8
0
 62
7
  6
CONTINUOUS
 10
158.1580041889
 20
30.4837672433
 11
158.1580041889
 21
31.0967762685
 12
158.4470662478
 22
31.0967762685
 13
158.4470662478
 23
31.0967762685
  0
SOLID
  8
0
 62
7
  6
CONTINUOUS
 10
158.4470662478
 20
31.0967762685
 11
158.4470662478
 21
30.4837672433
 12
158.1580041889
 22
30.4837672433
 13
158.1580041889
 23
30.4837672433
  0
SOLID
  8
0
 62
7
  6
CONTINUOUS
 10
159.2564414683
 20
31.4839408138
 11
159.6033164683
 21
31.5162050633
 12
159.9501914683
 22
31.5162050633
 13
159.9501914683
 23
31.5162050633
  0
SOLID
  8
0
 62
7
  6
CONTINUOUS
 10
159.9501914683
 20
31.5162050633
 11
160.2970664683
 21
31.4839408138
 12
159.2564414683
 22
31.4839408138
 13
159.2564414683
 23
31.4839408138
  0
SOLID
  8
0
 62
7
  6
CONTINUOUS
 10
159.0251916889
 20
31.4194137026
 11
159.2564414683
 21
31.4839408138
 12
160.2970664683
 22
31.4839408138
 13
160.2970664683
 23
31.4839408138
  0
SOLID
  8
0
 62
7
  6
CONTINUOUS
 10
159.0251916889
 20
31.4194137026
 11
160.2970664683
 21
31.4839407928
 12
160.4705039683
 22
31.4516780059
 13
160.4705039683
 23
31.4516780059
  0
SOLID
  8
0
 62
7
  6
CONTINUOUS
 10
159.0251916889
 20
31.4194137026
 11
160.4705039683
 21
31.4516780059
 12
159.6033164683
 22
31.3871494664
 13
159.6033164683
 23
31.3871494664
  0
SOLID
  8
0
 62
7
  6
CONTINUOUS
 10
159.6033164683
 20
31.3871494664
 11
160.4705039683
 21
31.4516780059
 12
159.9501914683
 22
31.3871494664
 13
159.9501914683
 23
31.3871494664
  0
SOLID
  8
0
 62
7
  6
CONTINUOUS
 10
160.4705039683
 20
31.4516780059
 11
160.6439414683
 21
31.3871494664
 12
159.9501914683
 22
31.3871494664
 13
159.9501914683
 23
31.3871494664
  0
SOLID
  8
0
 62
7
  6
CONTINUOUS
 10
160.2970664683
 20
31.3548866125
 11
159.9501914683
 21
31.3871494664
 12
160.6439414683
 22
31.3871494664
 13
160.6439414683
 23
31.3871494664
  0
SOLID
  8
0
 62
7
  6
CONTINUOUS
 10
158.9095664683
 20
31.3226222241
 11
159.0251916889
 21
31.4194137026
 12
159.6033164683
 22
31.3871494664
 13
159.6033164683
 23
31.3871494664
  0
SOLID
  8
0
 62
7
  6
CONTINUOUS
 10
160.2970664683
 20
31.3548866125
 11
160.6439414683
 21
31.3871494664
 12
160.4126916889
 22
31.3226222241
 13
160.4126916889
 23
31.3226222241
  0
SOLID
  8
0
 62
7
  6
CONTINUOUS
 10
160.4126916889
 20
31.3226222241
 11
160.6439414683
 21
31.3871494664
 12
160.4705039683
 22
31.2580952077
 13
160.4705039683
 23
31.2580952077
  0
SOLID
  8
0
 62
7
  6
CONTINUOUS
 10
160.6439414683
 20
31.3871494664
 11
160.7595660273
 21
31.2580952077
 12
160.4705039683
 22
31.2580952077
 13
160.4705039683
 23
31.2580952077
  0
SOLID
  8
0
 62
7
  6
CONTINUOUS
 10
150.0642539683
 20
31.3548866125
 11
149.5439414683
 21
31.3226222809
 12
150.2955039959
 22
31.3871493065
 13
150.2955039959
 23
31.3871493065
  0
SOLID
  8
0
 62
7
  6
CONTINUOUS
 10
149.5439414683
 20
31.3226222809
 11
149.6595664615
 21
31.3871493065
 12
150.2955039959
 22
31.3871493065
 13
150.2955039959
 23
31.3871493065
  0
SOLID
  8
0
 62
7
  6
CONTINUOUS
 10
150.0642539683
 20
31.3548866125
 11
149.9486289546
 21
31.3226222809
 12
149.5439414683
 22
31.3226222809
 13
149.5439414683
 23
31.3226222809
  0
SOLID
  8
0
 62
7
  6
CONTINUOUS
 10
149.4283164701
 20
31.1935681288
 11
149.5439414683
 21
31.3226222809
 12
149.9486289546
 22
31.3226222809
 13
149.9486289546
 23
31.3226222809
  0
SOLID
  8
0
 62
7
  6
CONTINUOUS
 10
153.7642540786
 20
31.3226222809
 11
154.4580040786
 21
31.3871493993
 12
154.2267539683
 22
31.3548866125
 13
154.2267539683
 23
31.3548866125
  0
SOLID
  8
0
 62
7
  6
CONTINUOUS
 10
154.2267539683
 20
31.3548866125
 11
154.1111290786
 21
31.3226222809
 12
153.7642540786
 22
31.3226222809
 13
153.7642540786
 23
31.3226222809
  0
SOLID
  8
0
 62
7
  6
CONTINUOUS
 10
153.7642540786
 20
31.2580951907
 11
153.7642540786
 21
31.3226222809
 12
154.1111290786
 22
31.3226222809
 13
154.1111290786
 23
31.3226222809
  0
SOLID
  8
0
 62
7
  6
CONTINUOUS
 10
154.1111290786
 20
31.3226222809
 11
154.0533164683
 21
31.2580951907
 12
153.7642540786
 22
31.2580951907
 13
153.7642540786
 23
31.2580951907
  0
SOLID
  8
0
 62
7
  6
CONTINUOUS
 10
158.9095664683
 20
31.32262241
 11
159.6033164683
 21
31.3871493993
 12
159.3720666889
 22
31.3548866125
 13
159.3720666889
 23
31.3548866125
  0
SOLID
  8
0
 62
7
  6
CONTINUOUS
 10
159.3720666889
 20
31.3548866125
 11
159.2564414683
 21
31.32262241
 12
158.9095664683
 22
31.32262241
 13
158.9095664683
 23
31.32262241
  0
SOLID
  8
0
 62
7
  6
CONTINUOUS
 10
158.9095664683
 20
31.2580953198
 11
158.9095664683
 21
31.32262241
 12
159.2564414683
 22
31.32262241
 13
159.2564414683
 23
31.32262241
  0
SOLID
  8
0
 62
7
  6
CONTINUOUS
 10
159.2564414683
 20
31.32262241
 11
159.1986291889
 21
31.2580953198
 12
158.9095664683
 22
31.2580953198
 13
158.9095664683
 23
31.2580953198
  0
SOLID
  8
0
 62
7
  6
CONTINUOUS
 10
159.0251916889
 20
31.1290410387
 11
158.9095664683
 21
31.2580953198
 12
159.1986291889
 22
31.2580953198
 13
159.1986291889
 23
31.2580953198
  0
SOLID
  8
0
 62
7
  6
CONTINUOUS
 10
149.4283164701
 20
31.1935681288
 11
149.9486289546
 21
31.3226223092
 12
149.7751914546
 22
31.2258309157
 13
149.7751914546
 23
31.2258309157
  0
SOLID
  8
0
 62
7
  6
CONTINUOUS
 10
149.7751914546
 20
31.2258309157
 11
149.7173789683
 21
31.1613038256
 12
149.4283164701
 22
31.1935681288
 13
149.4283164701
 23
31.1935681288
  0
SOLID
  8
0
 62
7
  6
CONTINUOUS
 10
149.3705039683
 20
30.999985342
 11
149.4283164701
 21
31.1935681288
 12
149.7173789683
 22
31.1613038256
 13
149.7173789683
 23
31.1613038256
  0
SOLID
  8
0
 62
7
  6
CONTINUOUS
 10
154.2267539683
 20
31.1290410387
 11
154.5736289683
 21
31.1613037812
 12
155.2095666889
 22
31.1613037812
 13
155.2095666889
 23
31.1613037812
  0
SOLID
  8
0
 62
7
  6
CONTINUOUS
 10
154.2267539683
 20
31.1290410387
 11
155.2095666889
 21
31.1613037812
 12
153.9955038581
 22
31.0645131385
 13
153.9955038581
 23
31.0645131385
  0
SOLID
  8
0
 62
7
  6
CONTINUOUS
 10
153.9955038581
 20
31.0645131385
 11
155.2095666889
 21
31.1613037812
 12
154.5736289683
 22
31.0322496008
 13
154.5736289683
 23
31.0322496008
  0
SOLID
  8
0
 62
7
  6
CONTINUOUS
 10
155.2095666889
 20
31.1613037812
 11
155.2095666889
 21
31.0322496008
 12
154.5736289683
 22
31.0322496008
 13
154.5736289683
 23
31.0322496008
  0
SOLID
  8
0
 62
7
  6
CONTINUOUS
 10
159.0251916889
 20
31.1290409764
 11
159.1986291889
 21
31.258095219
 12
159.2564414683
 22
31.1935681288
 13
159.2564414683
 23
31.1935681288
  0
SOLID
  8
0
 62
7
  6
CONTINUOUS
 10
159.2564414683
 20
31.1935681288
 11
159.4298789683
 21
31.1290409764
 12
159.0251916889
 22
31.1290409764
 13
159.0251916889
 23
31.1290409764
  0
SOLID
  8
0
 62
7
  6
CONTINUOUS
 10
159.2564414683
 20
31.0322496452
 11
159.0251916889
 21
31.1290409764
 12
159.4298789683
 22
31.1290409764
 13
159.4298789683
 23
31.1290409764
  0
SOLID
  8
0
 62
7
  6
CONTINUOUS
 10
159.4298789683
 20
31.1290409764
 11
160.4126916889
 21
30.9677225551
 12
159.2564414683
 22
31.0322496452
 13
159.2564414683
 23
31.0322496452
  0
SOLID
  8
0
 62
7
  6
CONTINUOUS
 10
160.2392541889
 20
30.8709310886
 11
159.2564414683
 21
31.0322496452
 12
160.4126916889
 22
30.9677225551
 13
160.4126916889
 23
30.9677225551
  0
SOLID
  8
0
 62
7
  6
CONTINUOUS
 10
160.4126916889
 20
30.9677225551
 11
160.6439414683
 21
30.8709310886
 12
160.2392541889
 22
30.8709310886
 13
160.2392541889
 23
30.8709310886
  0
SOLID
  8
0
 62
7
  6
CONTINUOUS
 10
160.4126916889
 20
30.8064040715
 11
160.2392541889
 21
30.8709310886
 12
160.6439414683
 22
30.8709310886
 13
160.6439414683
 23
30.8709310886
  0
SOLID
  8
0
 62
7
  6
CONTINUOUS
 10
160.4126916889
 20
30.8064040715
 11
160.6439414683
 21
30.8709310886
 12
160.4705039683
 22
30.7418753703
 13
160.4705039683
 23
30.7418753703
  0
SOLID
  8
0
 62
7
  6
CONTINUOUS
 10
160.6439414683
 20
30.8709310886
 11
160.7595660273
 21
30.7418753703
 12
160.4705039683
 22
30.7418753703
 13
160.4705039683
 23
30.7418753703
  0
SOLID
  8
0
 62
7
  6
CONTINUOUS
 10
160.4126916889
 20
30.6773482855
 11
160.4705039683
 21
30.7418753703
 12
160.7595660273
 22
30.7418753703
 13
160.7595660273
 23
30.7418753703
  0
SOLID
  8
0
 62
7
  6
CONTINUOUS
 10
160.7595660273
 20
30.7418753703
 11
160.7595660273
 21
30.6773482855
 12
160.4126916889
 22
30.6773482855
 13
160.4126916889
 23
30.6773482855
  0
SOLID
  8
0
 62
7
  6
CONTINUOUS
 10
160.2970664683
 20
30.6450855879
 11
160.4126916889
 21
30.6773482855
 12
160.7595660273
 22
30.6773482855
 13
160.7595660273
 23
30.6773482855
  0
SOLID
  8
0
 62
7
  6
CONTINUOUS
 10
160.2970664683
 20
30.6450855879
 11
160.7595660273
 21
30.6773482855
 12
160.0658166889
 22
30.6128212008
 13
160.0658166889
 23
30.6128212008
  0
SOLID
  8
0
 62
7
  6
CONTINUOUS
 10
160.7595660273
 20
30.6773482855
 11
160.6439414683
 21
30.5805584977
 12
160.0658166889
 22
30.6128212008
 13
160.0658166889
 23
30.6128212008
  0
SOLID
  8
0
 62
7
  6
CONTINUOUS
 10
160.6439414683
 20
30.5805584977
 11
159.1986291889
 21
30.5482941944
 12
160.0658166889
 22
30.6128212008
 13
160.0658166889
 23
30.6128212008
  0
SOLID
  8
0
 62
7
  6
CONTINUOUS
 10
160.0658166889
 20
30.6128212008
 11
159.1986291889
 21
30.5482941944
 12
159.7189416889
 22
30.6128212008
 13
159.7189416889
 23
30.6128212008
  0
SOLID
  8
0
 62
7
  6
CONTINUOUS
 10
159.1986291889
 20
30.5482941944
 11
159.0251916889
 21
30.6128212008
 12
159.7189416889
 22
30.6128212008
 13
159.7189416889
 23
30.6128212008
  0
SOLID
  8
0
 62
7
  6
CONTINUOUS
 10
159.1986291889
 20
30.5482941944
 11
160.6439414683
 21
30.5805584977
 12
159.3720666889
 22
30.5160301864
 13
159.3720666889
 23
30.5160301864
  0
SOLID
  8
0
 62
7
  6
CONTINUOUS
 10
160.6439414683
 20
30.5805584977
 11
160.4126916889
 21
30.5160301864
 12
159.3720666889
 22
30.5160301864
 13
159.3720666889
 23
30.5160301864
  0
SOLID
  8
0
 62
7
  6
CONTINUOUS
 10
159.7189416889
 20
30.4837670312
 11
159.3720666889
 21
30.5160301864
 12
160.4126916889
 22
30.5160301864
 13
160.4126916889
 23
30.5160301864
  0
SOLID
  8
0
 62
7
  6
CONTINUOUS
 10
160.4126916889
 20
30.5160301864
 11
160.0658166889
 21
30.4837670312
 12
159.7189416889
 22
30.4837670312
 13
159.7189416889
 23
30.4837670312
  0
SOLID
  8
0
 62
7
  6
CONTINUOUS
 10
149.3705039683
 20
30.999985342
 11
149.7173789683
 21
31.1613038256
 12
149.6595664615
 22
31.0322496452
 13
149.6595664615
 23
31.0322496452
  0
SOLID
  8
0
 62
7
  6
CONTINUOUS
 10
149.6595664615
 20
31.0322496452
 11
149.6595664615
 21
30.9354583476
 12
149.3705039683
 22
30.999985342
 13
149.3705039683
 23
30.999985342
  0
SOLID
  8
0
 62
7
  6
CONTINUOUS
 10
149.4283164701
 20
30.8064040715
 11
149.3705039683
 21
30.999985342
 12
149.6595664615
 22
30.9354583476
 13
149.6595664615
 23
30.9354583476
  0
SOLID
  8
0
 62
7
  6
CONTINUOUS
 10
149.6595664615
 20
30.9354583476
 11
149.7751914546
 21
30.7741397682
 12
149.4283164701
 22
30.8064040715
 13
149.4283164701
 23
30.8064040715
  0
SOLID
  8
0
 62
7
  6
CONTINUOUS
 10
149.5439414683
 20
30.6773485435
 11
149.4283164701
 21
30.8064040715
 12
149.7751914546
 22
30.7741397682
 13
149.7751914546
 23
30.7741397682
  0
SOLID
  8
0
 62
7
  6
CONTINUOUS
 10
149.7751914546
 20
30.7741397682
 11
149.9486289546
 21
30.6773485435
 12
149.5439414683
 22
30.6773485435
 13
149.5439414683
 23
30.6773485435
  0
SOLID
  8
0
 62
7
  6
CONTINUOUS
 10
149.6595664615
 20
30.6128213107
 11
149.5439414683
 21
30.6773485435
 12
149.9486289546
 22
30.6773485435
 13
149.9486289546
 23
30.6773485435
  0
SOLID
  8
0
 62
7
  6
CONTINUOUS
 10
149.9486289546
 20
30.6773485435
 11
150.2955039959
 21
30.6128213107
 12
149.6595664615
 22
30.6128213107
 13
149.6595664615
 23
30.6128213107
  0
SOLID
  8
0
 62
7
  6
CONTINUOUS
 10
149.8330039821
 20
30.5482941944
 11
149.6595664615
 21
30.6128213107
 12
150.2955039959
 22
30.6128213107
 13
150.2955039959
 23
30.6128213107
  0
SOLID
  8
0
 62
7
  6
CONTINUOUS
 10
153.8798789683
 20
30.9999852815
 11
153.9955038581
 21
31.0645131385
 12
154.5736289683
 22
31.0322496452
 13
154.5736289683
 23
31.0322496452
  0
SOLID
  8
0
 62
7
  6
CONTINUOUS
 10
154.5736289683
 20
31.0322496452
 11
154.3423788581
 21
30.9999852815
 12
153.8798789683
 22
30.9999852815
 13
153.8798789683
 23
30.9999852815
  0
SOLID
  8
0
 62
7
  6
CONTINUOUS
 10
153.7642540786
 20
30.8709311616
 11
153.8798789683
 21
30.9999852815
 12
154.3423788581
 22
30.9999852815
 13
154.3423788581
 23
30.9999852815
  0
SOLID
  8
0
 62
7
  6
CONTINUOUS
 10
154.1111290786
 20
30.9031946612
 11
153.7642540786
 21
30.8709311616
 12
154.2267539683
 22
30.9677225551
 13
154.2267539683
 23
30.9677225551
  0
SOLID
  8
0
 62
7
  6
CONTINUOUS
 10
153.7642540786
 20
30.8709311616
 11
154.3423788581
 21
30.999985342
 12
154.2267539683
 22
30.9677225551
 13
154.2267539683
 23
30.9677225551
  0
SOLID
  8
0
 62
7
  6
CONTINUOUS
 10
154.1111290786
 20
30.9031946612
 11
154.0533164683
 21
30.8064040715
 12
153.7642540786
 22
30.8709311616
 13
153.7642540786
 23
30.8709311616
  0
SOLID
  8
0
 62
7
  6
CONTINUOUS
 10
153.7642540786
 20
30.7741397682
 11
153.7642540786
 21
30.8709311616
 12
154.0533164683
 22
30.8064040715
 13
154.0533164683
 23
30.8064040715
  0
SOLID
  8
0
 62
7
  6
CONTINUOUS
 10
154.0533164683
 20
30.8064040715
 11
154.0533164683
 21
30.7418754649
 12
153.7642540786
 22
30.7741397682
 13
153.7642540786
 23
30.7741397682
  0
SOLID
  8
0
 62
7
  6
CONTINUOUS
 10
153.8220663581
 20
30.6450855879
 11
153.7642540786
 21
30.7741397682
 12
154.0533164683
 22
30.7418754649
 13
154.0533164683
 23
30.7418754649
  0
SOLID
  8
0
 62
7
  6
CONTINUOUS
 10
155.2095666889
 20
30.8386672883
 11
155.4986287478
 21
30.7418754649
 12
155.1517537478
 22
30.7741397682
 13
155.1517537478
 23
30.7741397682
  0
SOLID
  8
0
 62
7
  6
CONTINUOUS
 10
154.9783162478
 20
30.6773483748
 11
155.1517537478
 21
30.7741397682
 12
155.4986287478
 22
30.7418754649
 13
155.4986287478
 23
30.7418754649
  0
SOLID
  8
0
 62
7
  6
CONTINUOUS
 10
154.9783162478
 20
30.6773483748
 11
155.4986287478
 21
30.7418754649
 12
155.2095666889
 22
30.6450855879
 13
155.2095666889
 23
30.6450855879
  0
SOLID
  8
0
 62
7
  6
CONTINUOUS
 10
155.4986287478
 20
30.7418754649
 11
155.5564416889
 21
30.5805584977
 12
155.2095666889
 22
30.6450855879
 13
155.2095666889
 23
30.6450855879
  0
SOLID
  8
0
 62
7
  6
CONTINUOUS
 10
155.2673789683
 20
30.5482941944
 11
155.2095666889
 21
30.6450855879
 12
155.5564416889
 22
30.5805584977
 13
155.5564416889
 23
30.5805584977
  0
SOLID
  8
0
 62
7
  6
CONTINUOUS
 10
155.2673789683
 20
30.5482941944
 11
155.5564416889
 21
30.5805584977
 12
155.3251912478
 22
30.4837669548
 13
155.3251912478
 23
30.4837669548
  0
SOLID
  8
0
 62
7
  6
CONTINUOUS
 10
155.5564416889
 20
30.5805584977
 11
155.6142539683
 21
30.4837669548
 12
155.3251912478
 22
30.4837669548
 13
155.3251912478
 23
30.4837669548
  0
SOLID
  8
0
 62
7
  6
CONTINUOUS
 10
150.8736290235
 20
30.7096125201
 11
150.9314414683
 21
30.8064039377
 12
151.2205040235
 22
30.8064039377
 13
151.2205040235
 23
30.8064039377
  0
SOLID
  8
0
 62
7
  6
CONTINUOUS
 10
151.2205040235
 20
30.8064039377
 11
151.1626914132
 21
30.6773483748
 12
150.8736290235
 22
30.7096125201
 13
150.8736290235
 23
30.7096125201
  0
SOLID
  8
0
 62
7
  6
CONTINUOUS
 10
150.7001914408
 20
30.6450855879
 11
150.8736290235
 21
30.7096125201
 12
151.1626914132
 22
30.6773483748
 13
151.1626914132
 23
30.6773483748
  0
SOLID
  8
0
 62
7
  6
CONTINUOUS
 10
150.7001914408
 20
30.6450855879
 11
151.1626914132
 21
30.6773483748
 12
150.2955039959
 22
30.6128212846
 13
150.2955039959
 23
30.6128212846
  0
SOLID
  8
0
 62
7
  6
CONTINUOUS
 10
151.1626914132
 20
30.6773483748
 11
150.9892539132
 21
30.5805584977
 12
150.2955039959
 22
30.6128212846
 13
150.2955039959
 23
30.6128212846
  0
SOLID
  8
0
 62
7
  6
CONTINUOUS
 10
149.8330039821
 20
30.5482941944
 11
150.2955039959
 21
30.6128212846
 12
150.9892539132
 22
30.5805584977
 13
150.9892539132
 23
30.5805584977
  0
SOLID
  8
0
 62
7
  6
CONTINUOUS
 10
149.8330039821
 20
30.5482941944
 11
150.9892539132
 21
30.5805584977
 12
150.0064414821
 22
30.5160300219
 13
150.0064414821
 23
30.5160300219
  0
SOLID
  8
0
 62
7
  6
CONTINUOUS
 10
150.9892539132
 20
30.5805584977
 11
150.7580039683
 21
30.5160300219
 12
150.0064414821
 22
30.5160300219
 13
150.0064414821
 23
30.5160300219
  0
SOLID
  8
0
 62
7
  6
CONTINUOUS
 10
150.3533164408
 20
30.4837671043
 11
150.0064414821
 21
30.5160300219
 12
150.7580039683
 22
30.5160300219
 13
150.7580039683
 23
30.5160300219
  0
SOLID
  8
0
 62
7
  6
CONTINUOUS
 10
153.8220663581
 20
30.6450855879
 11
154.0533164683
 21
30.7418754649
 12
154.1111290786
 22
30.6773483748
 13
154.1111290786
 23
30.6773483748
  0
SOLID
  8
0
 62
7
  6
CONTINUOUS
 10
154.1111290786
 20
30.6773483748
 11
154.3423788581
 21
30.6128212846
 12
153.8220663581
 22
30.6450855879
 13
153.8220663581
 23
30.6450855879
  0
SOLID
  8
0
 62
7
  6
CONTINUOUS
 10
153.9955038581
 20
30.5482941944
 11
153.8220663581
 21
30.6450855879
 12
154.3423788581
 22
30.6128212846
 13
154.3423788581
 23
30.6128212846
  0
SOLID
  8
0
 62
7
  6
CONTINUOUS
 10
154.6892538581
 20
30.6128213209
 11
154.9783162478
 21
30.6773483748
 12
155.2095666889
 22
30.6450855879
 13
155.2095666889
 23
30.6450855879
  0
SOLID
  8
0
 62
7
  6
CONTINUOUS
 10
155.2095666889
 20
30.6450855879
 11
155.1517537478
 21
30.5805584977
 12
154.6892538581
 22
30.6128213209
 13
154.6892538581
 23
30.6128213209
  0
SOLID
  8
0
 62
7
  6
CONTINUOUS
 10
155.1517537478
 20
30.5805584977
 11
153.9955038581
 21
30.5482941944
 12
154.6892538581
 22
30.6128213209
 13
154.6892538581
 23
30.6128213209
  0
SOLID
  8
0
 62
7
  6
CONTINUOUS
 10
153.9955038581
 20
30.5482941944
 11
154.3423788581
 21
30.6128213209
 12
154.6892538581
 22
30.6128213209
 13
154.6892538581
 23
30.6128213209
  0
SOLID
  8
0
 62
7
  6
CONTINUOUS
 10
153.9955038581
 20
30.5482941944
 11
155.1517537478
 21
30.5805584977
 12
154.1111290786
 22
30.5160299113
 13
154.1111290786
 23
30.5160299113
  0
SOLID
  8
0
 62
7
  6
CONTINUOUS
 10
155.1517537478
 20
30.5805584977
 11
154.9783162478
 21
30.5160299113
 12
154.1111290786
 22
30.5160299113
 13
154.1111290786
 23
30.5160299113
  0
SOLID
  8
0
 62
7
  6
CONTINUOUS
 10
154.3423788581
 20
30.483767076
 11
154.1111290786
 21
30.5160299113
 12
154.9783162478
 22
30.5160299113
 13
154.9783162478
 23
30.5160299113
  0
SOLID
  8
0
 62
7
  6
CONTINUOUS
 10
154.9783162478
 20
30.5160299113
 11
154.6892538581
 21
30.483767076
 12
154.3423788581
 22
30.483767076
 13
154.3423788581
 23
30.483767076
  0
SOLID
  8
0
 62
7
  6
CONTINUOUS
 10
159.3720666889
 20
30.6450855879
 11
159.0251916889
 21
30.6128213209
 12
159.2564414683
 22
30.6773483748
 13
159.2564414683
 23
30.6773483748
  0
SOLID
  8
0
 62
7
  6
CONTINUOUS
 10
159.2564414683
 20
30.6773483748
 11
159.0251916889
 21
30.6128213209
 12
159.1986291889
 22
30.7418755012
 13
159.1986291889
 23
30.7418755012
  0
SOLID
  8
0
 62
7
  6
CONTINUOUS
 10
159.0251916889
 20
30.6128213209
 11
158.9095664683
 21
30.7418755012
 12
159.1986291889
 22
30.7418755012
 13
159.1986291889
 23
30.7418755012
  0
SOLID
  8
0
 62
7
  6
CONTINUOUS
 10
159.3720666889
 20
30.6450855879
 11
159.7189416889
 21
30.6128213209
 12
159.0251916889
 22
30.6128213209
 13
159.0251916889
 23
30.6128213209
  0
SOLID
  8
0
 62
7
  6
CONTINUOUS
 10
156.0767541889
 20
30.4837671043
 11
156.0767541889
 21
31.5162050961
 12
156.3658162478
 22
30.4837671043
 13
156.3658162478
 23
31.5162050961
  0
ENDBLK
  8
0
  6
BYBLOCK
 62
0
  0
BLOCK
  8
0
 62
2
  6
CONTINUOUS
  2
SYMBOL_3_BL0
 70
64
 10
31.7740840678
 20
19.9150776578
  0
TEXT
  8
0
 62
7
  6
CONTINUOUS
 10
18.0387879101
 20
19.2884917655
  7
TEXTSTYLE_3
 40
2.7338706658
  1
Ammeraal Beltech
 41
1.0
 51
15.0
 72
0
  0
TEXT
  8
0
 62
7
  6
CONTINUOUS
 10
28.8395887358
 20
17.0149550926
  7
TEXTSTYLE_4
 40
1.0935482663
  1
Innovation & Service in Belting
 41
1.0
 72
0
  0
LINE
  8
0
 62
7
  6
CONTINUOUS
 10
12.0142472588
 20
20.055085074
 11
12.7923992521
 21
23.7160023717
  0
LINE
  8
0
 62
7
  6
CONTINUOUS
 10
22.8875675419
 20
27.3793962833
 11
13.2802169951
 21
24.257778862
  0
LINE
  8
0
 62
7
  6
CONTINUOUS
 10
12.2395305911
 20
19.361734271
 11
19.7466058522
 21
12.602333345
  0
LINE
  8
0
 62
7
  6
CONTINUOUS
 10
12.5020650018
 20
20.5968615644
 11
23.310334367
 21
24.1086811633
  0
LINE
  8
0
 62
7
  6
CONTINUOUS
 10
23.3061292298
 20
13.7588925996
 11
14.860669561
 21
21.3632186413
  0
LINE
  8
0
 62
7
  6
CONTINUOUS
 10
23.8259519496
 20
26.5344711676
 11
22.8493924124
 21
21.9401197651
  0
LINE
  8
0
 62
7
  6
CONTINUOUS
 10
22.1495904647
 20
18.6478104513
 11
21.4631422532
 21
15.4183255269
  0
LINE
  8
0
 62
7
  6
CONTINUOUS
 10
24.5070480481
 20
14.1490947773
 11
25.4632795838
 21
18.6478104513
  0
LINE
  8
0
 62
7
  6
CONTINUOUS
 10
26.1630815315
 20
21.9401197651
 11
26.6073233338
 21
24.0301131245
  0
LINE
  8
0
 62
7
  6
CONTINUOUS
 10
20.4597069275
 20
12.4507590323
 11
24.0192303051
 21
13.6073182869
  0
LINE
  8
0
 62
7
  6
CONTINUOUS
 10
23.6006686173
 20
27.2278219706
 11
26.3820400015
 21
24.7234639276
  0
ARC
  8
0
 62
7
  6
CONTINUOUS
 10
13.5055003274
 20
23.564428059
 40
0.7290321776
 50
108.0
 51
168.0
  0
ARC
  8
0
 62
7
  6
CONTINUOUS
 10
23.1128508743
 20
26.6860454803
 40
0.7290321776
 50
348.0
 51
108.0
  0
ARC
  8
0
 62
7
  6
CONTINUOUS
 10
25.8942222585
 20
24.1816874372
 40
0.7290321776
 50
348.0
 51
48.0
  0
ARC
  8
0
 62
7
  6
CONTINUOUS
 10
20.2344235952
 20
13.1441098354
 40
0.7290321776
 50
228.0
 51
288.0
  0
ARC
  8
0
 62
7
  6
CONTINUOUS
 10
12.7273483341
 20
19.9035107613
 40
0.7290321776
 50
108.0
 51
228.0
  0
ARC
  8
0
 62
7
  6
CONTINUOUS
 10
23.7939469728
 20
14.30066909
 40
0.7290321776
 50
228.0
 51
348.0
  0
ENDBLK
  8
0
  6
BYBLOCK
 62
0
  0
ENDSEC
  0
SECTION
  2
ENTITIES
  0
TEXT
  8
0
 62
5
  6
CONTINUOUS
 10
96.0
 20
25.636
  7
TEXTSTYLE_2
 40
2.8
  1
Scale :
 41
0.6
 51
0.000019
 72
0
  0
TEXT
  8
0
 62
5
  6
CONTINUOUS
 10
116.0
 20
25.636
  7
TEXTSTYLE_2
 40
2.8
  1
Chain type:
 41
0.6
 51
0.000019
 72
0
  0
INSERT
  8
0
 62
2
  6
CONTINUOUS
  2
SYMBOL_3_BL0
 10
31.7740840678
 20
19.9150776578
  0
INSERT
  8
0
 62
2
  6
CONTINUOUS
  2
SYMBOL_11_BL1
 10
173.3924355793
 20
35.4837666925
  0
LINE
  8
0
 62
2
  6
CONTINUOUS
 10
10.0
 20
30.0
 11
200.0
 21
30.0
  0
LINE
  8
0
 62
2
  6
CONTINUOUS
 10
10.0
 20
30.0
 11
10.0
 21
10.0
  0
LINE
  8
0
 62
2
  6
CONTINUOUS
 10
10.0
 20
10.0
 11
200.0
 21
10.0
  0
LINE
  8
0
 62
2
  6
CONTINUOUS
 10
95.0
 20
30.0
 11
95.0
 21
10.0
  0
LINE
  8
0
 62
2
  6
CONTINUOUS
 10
115.0
 20
30.0
 11
115.0
 21
10.0
  0
LINE
  8
0
 62
2
  6
CONTINUOUS
 10
200.0
 20
30.0
 11
200.0
 21
10.0
  0
TEXT
  8
0
 62
5
  6
CONTINUOUS
 10
13.0
 20
23.303
  7
TEXTSTYLE_5
 40
1.52
  1
                                                                     Ammeraal Beltech Modular A/S
 41
1.0
 72
0
  0
TEXT
  8
0
 62
5
  6
CONTINUOUS
 10
13.0
 20
20.595
  7
TEXTSTYLE_5
 40
1.5
  1
                                                                      Hjulmagervej 21,  7100 Vejle,  DK
 41
1.0
 72
0
  0
TEXT
  8
0
 62
5
  6
CONTINUOUS
 10
13.0
 20
17.881
  7
TEXTSTYLE_5
 40
1.495
  1
                                                                      tel: 
 41
1.0
 72
0
  0
TEXT
  8
0
 62
5
  6
CONTINUOUS
 10
57.9869465649
 20
17.881
  7
TEXTSTYLE_5
 40
1.51
  1
+45 75723100     fax: +45 75723348
 41
1.0
 72
0
  0
TEXT
  8
0
 62
5
  6
CONTINUOUS
 10
13.0
 20
15.177
  7
TEXTSTYLE_5
 40
1.5
  1
                                                                      admin@unichains.dk  www.unichains.com
 41
1.0
 72
0
  0
TEXT
  8
0
 62
5
  6
CONTINUOUS
 10
99.75
 20
13.75
  7
TEXTSTYLE_6
 40
5.0
  1
1:1
 41
0.7
 72
1
 11
105.0
 21
13.75
  0
TEXT
  8
0
 62
5
  6
CONTINUOUS
 10
118.0
 20
13.75
  7
TEXTSTYLE_7
 40
7.5
  1
Sprocket Z12
 41
0.6361111111
 72
0
  0
LINE
  8
0
 62
7
  6
CONTINUOUS
 10
210.0
 20
0.0
 11
0.0
 21
0.0
  0
LINE
  8
0
 62
7
  6
CONTINUOUS
 10
10.0
 20
10.0
 11
200.0
 21
10.0
  0
LINE
  8
0
 62
7
  6
CONTINUOUS
 10
10.0
 20
30.0
 11
200.0
 21
30.0
  0
LINE
  8
0
 62
7
  6
CONTINUOUS
 10
0.0
 20
0.0
 11
0.0
 21
297.0
  0
LINE
  8
0
 62
7
  6
CONTINUOUS
 10
10.0
 20
10.0
 11
10.0
 21
287.0
  0
LINE
  8
0
 62
7
  6
CONTINUOUS
 10
200.0
 20
287.0
 11
200.0
 21
10.0
  0
LINE
  8
0
 62
7
  6
CONTINUOUS
 10
210.0
 20
0.0
 11
210.0
 21
297.0
  0
LINE
  8
0
 62
7
  6
CONTINUOUS
 10
10.0
 20
287.0
 11
200.0
 21
287.0
  0
LINE
  8
0
 62
7
  6
CONTINUOUS
 10
0.0
 20
297.0
 11
210.0
 21
297.0
  0
LINE
  8
0
 62
7
  6
CONTINUOUS
 10
58.2365057397
 20
208.8379620321
 11
58.2365057397
 21
207.0920160861
  0
LINE
  8
0
 62
7
  6
CONTINUOUS
 10
63.7626832892
 20
227.7159914727
 11
62.8897103163
 21
226.2039579299
  0
LINE
  8
0
 62
7
  6
CONTINUOUS
 10
77.9875081533
 20
241.3017557669
 11
76.4754746105
 21
240.4287827939
  0
LINE
  8
0
 62
7
  6
CONTINUOUS
 10
95.3535040511
 20
169.9750177747
 11
97.099449997
 21
169.9750177747
  0
LINE
  8
0
 62
7
  6
CONTINUOUS
 10
76.4754746105
 20
175.5011953242
 11
77.9875081533
 21
174.6282223513
  0
LINE
  8
0
 62
7
  6
CONTINUOUS
 10
62.8897103163
 20
189.7260201883
 11
63.7626832892
 21
188.2139866455
  0
LINE
  8
0
 62
7
  6
CONTINUOUS
 10
67.5007630251
 20
215.913031601
 11
67.375257689
 21
215.4446393102
  0
LINE
  8
0
 62
7
  6
CONTINUOUS
 10
75.32330023
 20
229.2110528102
 11
74.9804132753
 21
228.8681658555
  0
LINE
  8
0
 62
7
  6
CONTINUOUS
 10
103.7061272719
 20
179.1137697232
 11
104.1745195628
 21
179.2392750592
  0
LINE
  8
0
 62
7
  6
CONTINUOUS
 10
88.2784344822
 20
179.2392750601
 11
88.746826773
 21
179.113769724
  0
LINE
  8
0
 62
7
  6
CONTINUOUS
 10
74.9804132729
 20
187.061812265
 11
75.3233002277
 21
186.7189253103
  0
LINE
  8
0
 62
7
  6
CONTINUOUS
 10
67.3752576881
 20
200.4853388112
 11
67.5007630242
 21
200.0169465204
  0
LINE
  8
0
 62
7
  6
CONTINUOUS
 10
83.4817811482
 20
216.2733434694
 11
83.4281975062
 21
216.1098890942
  0
LINE
  8
0
 62
7
  6
CONTINUOUS
 10
83.5717967108
 20
216.0185017194
 11
83.6253803623
 21
216.1819560886
  0
LINE
  8
0
 62
7
  6
CONTINUOUS
 10
83.425374262
 20
218.1550363199
 11
83.3548672761
 21
217.9981371712
  0
LINE
  8
0
 62
7
  6
CONTINUOUS
 10
83.4880386811
 20
217.89212889
 11
83.558545667
 21
218.0490280388
  0
LINE
  8
0
 62
7
  6
CONTINUOUS
 10
82.7361952217
 20
217.2417271578
 11
82.6243408579
 21
217.0659676755
  0
LINE
  8
0
 62
7
  6
CONTINUOUS
 10
82.1769235066
 20
216.3629299096
 11
82.0650691667
 21
216.187170465
  0
LINE
  8
0
 62
7
  6
CONTINUOUS
 10
83.4281975062
 20
216.1098890942
 11
83.3387140215
 21
215.9692815184
  0
LINE
  8
0
 62
7
  6
CONTINUOUS
 10
83.4823132262
 20
215.8778941436
 11
83.5717967108
 21
216.0185017194
  0
LINE
  8
0
 62
7
  6
CONTINUOUS
 10
83.8178762537
 20
216.40517249
 11
83.9297306175
 21
216.5809319723
  0
LINE
  8
0
 62
7
  6
CONTINUOUS
 10
90.1812626934
 20
223.4926391519
 11
90.2693467703
 21
223.6155590043
  0
LINE
  8
0
 62
7
  6
CONTINUOUS
 10
90.157015359
 20
223.8009966851
 11
90.0053282889
 21
223.6094486724
  0
LINE
  8
0
 62
7
  6
CONTINUOUS
 10
83.5291740992
 20
218.2854333984
 11
83.425374262
 21
218.1550363199
  0
LINE
  8
0
 62
7
  6
CONTINUOUS
 10
83.1918247397
 20
217.8616430333
 11
83.0620749804
 21
217.6986467318
  0
LINE
  8
0
 62
7
  6
CONTINUOUS
 10
84.1274463138
 20
216.8505804083
 11
84.2571960731
 21
217.0135767098
  0
LINE
  8
0
 62
7
  6
CONTINUOUS
 10
84.7242951176
 20
217.6003632831
 11
84.8540448027
 21
217.7633594912
  0
LINE
  8
0
 62
7
  6
CONTINUOUS
 10
83.7470247972
 20
219.509430267
 11
83.6064912301
 21
219.3556347496
  0
LINE
  8
0
 62
7
  6
CONTINUOUS
 10
83.7635590338
 20
219.2121110689
 11
83.9040926009
 21
219.3659065864
  0
LINE
  8
0
 62
7
  6
CONTINUOUS
 10
84.2182282962
 20
219.0788591447
 11
84.0776947292
 21
218.9250636273
  0
LINE
  8
0
 62
7
  6
CONTINUOUS
 10
85.0829287607
 20
218.0065119908
 11
85.2234623278
 21
218.1603075083
  0
LINE
  8
DEFAULT_3
 62
2
  6
PHANTOM
 10
85.3208846957
 20
217.2826506726
 11
86.9088154105
 21
218.8705813875
  0
LINE
  8
0
 62
7
  6
CONTINUOUS
 10
83.3569299563
 20
215.7601334367
 11
83.4823132262
 21
215.8778941436
  0
LINE
  8
0
 62
7
  6
CONTINUOUS
 10
83.558545667
 20
218.0490280388
 11
83.6956383554
 21
218.1529230469
  0
LINE
  8
0
 62
7
  6
CONTINUOUS
 10
86.7956818741
 20
222.1153853085
 11
86.5911099246
 21
221.9716831252
  0
LINE
  8
0
 62
7
  6
CONTINUOUS
 10
87.7970535275
 20
221.4147284218
 11
87.4561004084
 21
221.1752248744
  0
LINE
  8
0
 62
7
  6
CONTINUOUS
 10
87.2515284589
 20
221.0315226911
 11
86.6719078053
 21
220.6243664137
  0
LINE
  8
0
 62
7
  6
CONTINUOUS
 10
86.5800003543
 20
220.2477893899
 11
87.3982881522
 21
220.822598123
  0
LINE
  8
0
 62
7
  6
CONTINUOUS
 10
87.6028601017
 20
220.9663003063
 11
87.9438132208
 21
221.2058038538
  0
LINE
  8
0
 62
7
  6
CONTINUOUS
 10
87.740727391
 20
220.3351075294
 11
87.9452993405
 21
220.4788097127
  0
LINE
  8
0
 62
7
  6
CONTINUOUS
 10
83.6403167912
 20
218.3567290903
 11
83.5291740992
 21
218.2854333984
  0
LINE
  8
0
 62
7
  6
CONTINUOUS
 10
90.2693467703
 20
223.6155590043
 11
90.450317283
 21
223.727197226
  0
LINE
  8
0
 62
7
  6
CONTINUOUS
 10
91.1730324501
 20
222.3605044475
 11
90.992061042
 21
222.2488658976
  0
LINE
  8
0
 62
7
  6
CONTINUOUS
 10
90.3771086766
 20
223.9269717033
 11
90.157015359
 21
223.8009966851
  0
LINE
  8
0
 62
7
  6
CONTINUOUS
 10
91.0652696587
 20
222.0490913922
 11
91.285362975
 21
222.175066414
  0
LINE
  8
0
 62
7
  6
CONTINUOUS
 10
88.7605208101
 20
223.2435069385
 11
88.5386610153
 21
223.1282757299
  0
LINE
  8
0
 62
7
  6
CONTINUOUS
 10
89.6598606229
 20
222.4159481432
 11
89.290094016
 21
222.2238959823
  0
LINE
  8
0
 62
7
  6
CONTINUOUS
 10
89.0682342212
 20
222.1086647737
 11
88.4396317513
 21
221.7821764958
  0
LINE
  8
0
 62
7
  6
CONTINUOUS
 10
88.298478415
 20
221.4211599171
 11
89.1859171711
 21
221.8820845318
  0
LINE
  8
0
 62
7
  6
CONTINUOUS
 10
89.4077769659
 20
221.9973157404
 11
89.7775435728
 21
222.1893679013
  0
LINE
  8
0
 62
7
  6
CONTINUOUS
 10
89.4605106843
 20
221.3533973713
 11
89.6823704791
 21
221.4686285799
  0
LINE
  8
0
 62
7
  6
CONTINUOUS
 10
83.6956383554
 20
218.1529230469
 11
83.780831051
 21
218.1916194226
  0
LINE
  8
DEFAULT_3
 62
2
  6
PHANTOM
 10
85.3208846957
 20
198.6473274455
 11
86.9088154105
 21
197.0593967307
  0
LINE
  8
0
 62
7
  6
CONTINUOUS
 10
83.4770941577
 20
216.4244928221
 11
83.4817811482
 21
216.2733434694
  0
LINE
  8
0
 62
7
  6
CONTINUOUS
 10
83.3548672761
 20
217.9981371712
 11
83.3436032121
 21
217.8473353616
  0
LINE
  8
0
 62
7
  6
CONTINUOUS
 10
83.4767746171
 20
217.7413270805
 11
83.4880386811
 21
217.89212889
  0
LINE
  8
0
 62
7
  6
CONTINUOUS
 10
83.6253803623
 20
216.1819560886
 11
83.6342223195
 21
216.2751067454
  0
LINE
  8
0
 62
7
  6
CONTINUOUS
 10
86.5911099246
 20
221.9716831252
 11
86.433240661
 21
220.4567139579
  0
LINE
  8
0
 62
7
  6
CONTINUOUS
 10
86.6719078053
 20
220.6243664137
 11
86.78678947
 21
221.6931170996
  0
LINE
  8
0
 62
7
  6
CONTINUOUS
 10
88.5386610153
 20
223.1282757299
 11
88.1807954651
 21
221.647740159
  0
LINE
  8
0
 62
7
  6
CONTINUOUS
 10
88.4396317513
 20
221.7821764958
 11
88.6955715786
 21
222.8261688112
  0
LINE
  8
0
 62
7
  6
CONTINUOUS
 10
90.0053282889
 20
223.6094486724
 11
89.9318859333
 21
223.4465739246
  0
LINE
  8
0
 62
7
  6
CONTINUOUS
 10
91.4370509367
 20
222.3666147653
 11
91.5104932872
 21
222.5294895271
  0
LINE
  8
0
 62
7
  6
CONTINUOUS
 10
91.261116527
 20
222.4834242998
 11
91.1730324501
 21
222.3605044475
  0
LINE
  8
0
 62
7
  6
CONTINUOUS
 10
91.285362975
 20
222.175066414
 11
91.4370509367
 21
222.3666147653
  0
LINE
  8
DEFAULT_3
 62
2
  6
PHANTOM
 10
92.0941723416
 20
221.7931966188
 11
91.0335121698
 21
220.732536447
  0
LINE
  8
DEFAULT_3
 62
2
  6
PHANTOM
 10
82.3982694644
 20
212.0972937415
 11
83.4589296362
 21
213.1579539133
  0
LINE
  8
0
 62
7
  6
CONTINUOUS
 10
98.3310909177
 20
223.0856914632
 11
99.9798095496
 21
224.2612466049
  0
LINE
  8
0
 62
7
  6
CONTINUOUS
 10
99.7896578323
 20
224.3816146313
 11
98.0999206171
 21
223.2133761796
  0
LINE
  8
0
 62
7
  6
CONTINUOUS
 10
100.7766855502
 20
224.3447205089
 11
100.4560788464
 21
224.124631319
  0
LINE
  8
0
 62
7
  6
CONTINUOUS
 10
100.3649607573
 20
223.7966266084
 11
100.6855674929
 21
224.0167159132
  0
LINE
  8
0
 62
7
  6
CONTINUOUS
 10
83.3387140215
 20
215.9692815184
 11
83.1774309442
 21
215.8743676592
  0
LINE
  8
0
 62
7
  6
CONTINUOUS
 10
101.6998535014
 20
223.9327071768
 11
101.4839246349
 21
223.8320857613
  0
LINE
  8
0
 62
7
  6
CONTINUOUS
 10
83.2180177373
 20
215.7003714442
 11
83.3569299563
 21
215.7601334367
  0
LINE
  8
0
 62
7
  6
CONTINUOUS
 10
102.3480232645
 20
223.0523297847
 11
100.8814710669
 21
222.4674639745
  0
LINE
  8
0
 62
7
  6
CONTINUOUS
 10
101.1934546655
 20
222.3500852319
 11
102.4980597669
 21
222.8594851484
  0
LINE
  8
0
 62
7
  6
CONTINUOUS
 10
83.7847523344
 20
218.4015227119
 11
83.6403167912
 21
218.3567290903
  0
LINE
  8
DEFAULT_3
 62
2
  6
PHANTOM
 10
91.0335121698
 20
195.1974416712
 11
92.0941723416
 21
194.1367814994
  0
LINE
  8
DEFAULT_3
 62
2
  6
PHANTOM
 10
83.4589296362
 20
202.7720242048
 11
82.3982694644
 21
203.8326843766
  0
LINE
  8
0
 62
7
  6
CONTINUOUS
 10
83.6342223195
 20
216.2751067454
 11
83.5936354801
 21
216.4491029015
  0
LINE
  8
0
 62
7
  6
CONTINUOUS
 10
83.3436032121
 20
217.8473353616
 11
83.358288996
 21
217.7291326818
  0
LINE
  8
0
 62
7
  6
CONTINUOUS
 10
83.491460401
 20
217.6231244007
 11
83.4767746171
 21
217.7413270805
  0
LINE
  8
0
 62
7
  6
CONTINUOUS
 10
89.9318859333
 20
223.4465739246
 11
89.9122081039
 21
223.2580810779
  0
LINE
  8
0
 62
7
  6
CONTINUOUS
 10
94.3930634604
 20
245.1366016615
 11
93.8740516417
 21
242.3225617108
  0
LINE
  8
0
 62
7
  6
CONTINUOUS
 10
90.1126227377
 20
223.1955628093
 11
90.1812626934
 21
223.4926391519
  0
LINE
  8
0
 62
7
  6
CONTINUOUS
 10
91.329755618
 20
222.7805002303
 11
91.261116527
 21
222.4834242998
  0
LINE
  8
0
 62
7
  6
CONTINUOUS
 10
77.0104305566
 20
179.3866710215
 11
76.0528880011
 21
176.6901350276
  0
LINE
  8
0
 62
7
  6
CONTINUOUS
 10
113.2245006035
 20
241.0732566542
 11
111.3680032083
 21
238.895732479
  0
LINE
  8
0
 62
7
  6
CONTINUOUS
 10
102.4859575703
 20
223.182295382
 11
102.3480232645
 21
223.0523297847
  0
LINE
  8
0
 62
7
  6
CONTINUOUS
 10
65.2957336041
 20
192.8234628749
 11
63.1182094289
 21
190.9669654796
  0
LINE
  8
0
 62
7
  6
CONTINUOUS
 10
101.5799775817
 20
223.614086275
 11
101.7029273976
 21
223.7042242596
  0
LINE
  8
0
 62
7
  6
CONTINUOUS
 10
102.4980597669
 20
222.8594851484
 11
102.6210095827
 21
222.949623133
  0
LINE
  8
0
 62
7
  6
CONTINUOUS
 10
127.5013310556
 20
228.138578082
 11
124.8047950616
 21
227.1810355266
  0
LINE
  8
0
 62
7
  6
CONTINUOUS
 10
130.5840496758
 20
205.6125636767
 11
133.3980896265
 21
206.1315754954
  0
LINE
  8
0
 62
7
  6
CONTINUOUS
 10
59.0548644217
 20
206.1315754954
 11
61.8689043724
 21
205.6125636767
  0
LINE
  8
0
 62
7
  6
CONTINUOUS
 10
124.8047950616
 20
188.7489425916
 11
127.5013310556
 21
187.7914000361
  0
LINE
  8
0
 62
7
  6
CONTINUOUS
 10
63.1182094289
 20
224.9630126385
 11
65.2957336041
 21
223.1065152433
  0
LINE
  8
0
 62
7
  6
CONTINUOUS
 10
111.3680032083
 20
177.0342456391
 11
113.2245006035
 21
174.856721464
  0
LINE
  8
0
 62
7
  6
CONTINUOUS
 10
83.4141364648
 20
216.563337126
 11
83.4770941577
 21
216.4244928221
  0
LINE
  8
0
 62
7
  6
CONTINUOUS
 10
76.0528880011
 20
239.2398430906
 11
77.0104305566
 21
236.5433070967
  0
LINE
  8
0
 62
7
  6
CONTINUOUS
 10
93.8740516417
 20
173.6074164074
 11
94.3930634604
 21
170.7933764567
  0
LINE
  8
0
 62
7
  6
CONTINUOUS
 10
89.9122081039
 20
223.2580810779
 11
89.9170105038
 21
223.123879483
  0
LINE
  8
0
 62
7
  6
CONTINUOUS
 10
91.5301711063
 20
222.7179824018
 11
91.5253687474
 21
222.8521838847
  0
LINE
  8
0
 62
7
  6
CONTINUOUS
 10
91.5104932872
 20
222.5294895271
 11
91.5301711063
 21
222.7179824018
  0
LINE
  8
0
 62
7
  6
CONTINUOUS
 10
101.4839246349
 20
223.8320857613
 11
101.3849876095
 21
223.6874480731
  0
LINE
  8
0
 62
7
  6
CONTINUOUS
 10
102.6210095827
 20
222.949623133
 11
102.7199448229
 21
223.094261493
  0
LINE
  8
0
 62
7
  6
CONTINUOUS
 10
109.2364505296
 20
217.9705598779
 11
109.1113410707
 21
217.9217680293
  0
LINE
  8
0
 62
7
  6
CONTINUOUS
 10
109.2370695544
 20
217.7015337857
 11
109.3621790134
 21
217.7503256343
  0
LINE
  8
0
 62
7
  6
CONTINUOUS
 10
90.1613511559
 20
222.9414969681
 11
90.1126227377
 21
223.1955628093
  0
LINE
  8
0
 62
7
  6
CONTINUOUS
 10
89.9170105038
 20
223.123879483
 11
89.9510963052
 21
222.9097682092
  0
LINE
  8
AXES
 62
2
  6
CONTINUOUS
 10
96.2264770241
 20
208.8449890591
 11
96.2264770241
 21
207.0849890591
  0
LINE
  8
AXES
 62
2
  6
CENTER
 10
96.2264770241
 20
203.5649890591
 11
96.2264770241
 21
167.9649890591
  0
LINE
  8
AXES
 62
2
  6
CENTER
 10
96.2264770241
 20
212.3649890591
 11
96.2264770241
 21
247.9649890591
  0
LINE
  8
0
 62
7
  6
CONTINUOUS
 10
98.3913472703
 20
224.8471625661
 11
98.3539848836
 21
224.6377027993
  0
LINE
  8
0
 62
7
  6
CONTINUOUS
 10
98.0999206171
 20
223.2133761796
 11
98.0401407931
 21
222.8782405234
  0
LINE
  8
0
 62
7
  6
CONTINUOUS
 10
100.4560788464
 20
224.124631319
 11
100.3649607573
 21
223.7966266084
  0
LINE
  8
0
 62
7
  6
CONTINUOUS
 10
100.6855674929
 20
224.0167159132
 11
100.2413669
 21
222.4176932795
  0
LINE
  8
0
 62
7
  6
CONTINUOUS
 10
100.4822453037
 20
222.3507784483
 11
101.0175639538
 21
224.2778056777
  0
LINE
  8
0
 62
7
  6
CONTINUOUS
 10
100.8814710669
 20
222.4674639745
 11
100.8065486066
 21
222.268325883
  0
LINE
  8
0
 62
7
  6
CONTINUOUS
 10
108.8773918116
 20
219.3469281987
 11
107.3315104467
 21
218.0779716172
  0
LINE
  8
0
 62
7
  6
CONTINUOUS
 10
107.4901300194
 20
217.8847364466
 11
108.1808429794
 21
218.4517170549
  0
LINE
  8
0
 62
7
  6
CONTINUOUS
 10
108.3781895131
 20
218.6137114928
 11
108.8715559395
 21
219.0186976631
  0
LINE
  8
0
 62
7
  6
CONTINUOUS
 10
110.5897685399
 20
215.3843216227
 11
110.3190611446
 21
215.2600420338
  0
LINE
  8
0
 62
7
  6
CONTINUOUS
 10
110.5993463774
 20
215.1594767936
 11
110.6766913475
 21
215.1949852476
  0
LINE
  8
0
 62
7
  6
CONTINUOUS
 10
110.1913322762
 20
214.9263157704
 11
110.3073497313
 21
214.9795784514
  0
LINE
  8
0
 62
7
  6
CONTINUOUS
 10
110.8778608149
 20
215.4707332431
 11
110.5897685399
 21
215.3843216227
  0
LINE
  8
AXES
 62
2
  6
CONTINUOUS
 10
97.1064770241
 20
207.9649890591
 11
95.3464770241
 21
207.9649890591
  0
LINE
  8
AXES
 62
2
  6
CENTER
 10
91.8264770241
 20
207.9649890591
 11
56.2264770241
 21
207.9649890591
  0
LINE
  8
AXES
 62
2
  6
CENTER
 10
100.6264770241
 20
207.9649890591
 11
136.2264770241
 21
207.9649890591
  0
LINE
  8
0
 62
7
  6
CONTINUOUS
 10
82.0650691667
 20
216.187170465
 11
82.7830651775
 21
215.7302335989
  0
LINE
  8
0
 62
7
  6
CONTINUOUS
 10
82.8949195174
 20
215.9059930435
 11
82.1769235066
 21
216.3629299096
  0
LINE
  8
0
 62
7
  6
CONTINUOUS
 10
82.6243408579
 20
217.0659676755
 11
83.4141364648
 21
216.563337126
  0
LINE
  8
0
 62
7
  6
CONTINUOUS
 10
83.0620749804
 20
217.6986467318
 11
84.1274463138
 21
216.8505804083
  0
LINE
  8
0
 62
7
  6
CONTINUOUS
 10
84.2571960731
 20
217.0135767098
 11
83.491460401
 21
217.6231244007
  0
LINE
  8
0
 62
7
  6
CONTINUOUS
 10
83.358288996
 20
217.7291326818
 11
83.1918247397
 21
217.8616430333
  0
LINE
  8
0
 62
7
  6
CONTINUOUS
 10
84.0917308506
 20
218.1039026928
 11
84.7242951176
 21
217.6003632831
  0
LINE
  8
0
 62
7
  6
CONTINUOUS
 10
83.6064912301
 20
219.3556347496
 11
83.7635590338
 21
219.2121110689
  0
LINE
  8
0
 62
7
  6
CONTINUOUS
 10
84.0776947292
 20
218.9250636273
 11
85.0829287607
 21
218.0065119908
  0
LINE
  8
0
 62
7
  6
CONTINUOUS
 10
85.2234623278
 20
218.1603075083
 11
84.2182282962
 21
219.0788591447
  0
LINE
  8
0
 62
7
  6
CONTINUOUS
 10
83.9040926009
 20
219.3659065864
 11
83.7470247972
 21
219.509430267
  0
LINE
  8
0
 62
7
  6
CONTINUOUS
 10
86.433240661
 20
220.4567139579
 11
86.5800003543
 21
220.2477893899
  0
LINE
  8
0
 62
7
  6
CONTINUOUS
 10
86.78678947
 20
221.6931170996
 11
87.2515284589
 21
221.0315226911
  0
LINE
  8
0
 62
7
  6
CONTINUOUS
 10
87.3982881522
 20
220.822598123
 11
87.740727391
 21
220.3351075294
  0
LINE
  8
0
 62
7
  6
CONTINUOUS
 10
87.9452993405
 20
220.4788097127
 11
87.6028601017
 21
220.9663003063
  0
LINE
  8
0
 62
7
  6
CONTINUOUS
 10
87.4561004084
 20
221.1752248744
 11
86.7956818741
 21
222.1153853085
  0
LINE
  8
0
 62
7
  6
CONTINUOUS
 10
88.1807954651
 20
221.647740159
 11
88.298478415
 21
221.4211599171
  0
LINE
  8
0
 62
7
  6
CONTINUOUS
 10
88.6955715786
 20
222.8261688112
 11
89.0682342212
 21
222.1086647737
  0
LINE
  8
0
 62
7
  6
CONTINUOUS
 10
89.1859171711
 20
221.8820845318
 11
89.4605106843
 21
221.3533973713
  0
LINE
  8
0
 62
7
  6
CONTINUOUS
 10
89.6823704791
 20
221.4686285799
 11
89.4077769659
 21
221.9973157404
  0
LINE
  8
0
 62
7
  6
CONTINUOUS
 10
89.290094016
 20
222.2238959823
 11
88.7605208101
 21
223.2435069385
  0
LINE
  8
0
 62
7
  6
CONTINUOUS
 10
89.9510963052
 20
222.9097682092
 11
90.0828717967
 21
222.5501741499
  0
LINE
  8
0
 62
7
  6
CONTINUOUS
 10
90.2638432048
 20
222.6618126998
 11
90.1613511559
 21
222.9414969681
  0
LINE
  8
0
 62
7
  6
CONTINUOUS
 10
91.2810280748
 20
223.0345664557
 11
91.329755618
 21
222.7805002303
  0
LINE
  8
0
 62
7
  6
CONTINUOUS
 10
91.5253687474
 20
222.8521838847
 11
91.49128203
 21
223.0662948864
  0
LINE
  8
0
 62
7
  6
CONTINUOUS
 10
99.6809104138
 20
222.5855682357
 11
99.7257452831
 21
222.8369199852
  0
LINE
  8
0
 62
7
  6
CONTINUOUS
 10
99.9798095496
 20
224.2612466049
 11
100.0321168911
 21
224.5544902784
  0
LINE
  8
0
 62
7
  6
CONTINUOUS
 10
102.5159265922
 20
223.261950719
 11
102.4859575703
 21
223.182295382
  0
LINE
  8
0
 62
7
  6
CONTINUOUS
 10
102.2104721223
 20
221.740122549
 11
102.2853945826
 21
221.9392606405
  0
LINE
  8
0
 62
7
  6
CONTINUOUS
 10
102.7199448229
 20
223.094261493
 11
102.7499138448
 21
223.17391683
  0
LINE
  8
0
 62
7
  6
CONTINUOUS
 10
109.3351238886
 20
218.0515571725
 11
109.2364505296
 21
217.9705598779
  0
LINE
  8
0
 62
7
  6
CONTINUOUS
 10
109.3621790134
 20
217.7503256343
 11
109.4937434613
 21
217.8583220018
  0
LINE
  8
0
 62
7
  6
CONTINUOUS
 10
110.3190611446
 20
215.2600420338
 11
110.0657385751
 21
215.0978944517
  0
LINE
  8
0
 62
7
  6
CONTINUOUS
 10
110.7419589948
 20
214.0329069764
 11
110.6259415397
 21
213.9796442954
  0
LINE
  8
0
 62
7
  6
CONTINUOUS
 10
110.6741902708
 20
213.7725571602
 11
110.8675527501
 21
213.8613283199
  0
LINE
  8
0
 62
7
  6
CONTINUOUS
 10
110.6766913475
 20
215.1949852476
 11
110.926109546
 21
215.2636461079
  0
LINE
  8
0
 62
7
  6
CONTINUOUS
 10
82.7830651775
 20
215.7302335989
 11
82.949035264
 21
215.6739981069
  0
LINE
  8
0
 62
7
  6
CONTINUOUS
 10
83.8993165979
 20
218.203813728
 11
84.0917308506
 21
218.1039026928
  0
LINE
  8
0
 62
7
  6
CONTINUOUS
 10
84.2214805357
 20
218.266898901
 11
84.0290664315
 21
218.3668101227
  0
LINE
  8
0
 62
7
  6
CONTINUOUS
 10
83.6695900459
 20
216.6477092255
 11
82.7361952217
 21
217.2417271578
  0
LINE
  8
0
 62
7
  6
CONTINUOUS
 10
84.8540448027
 20
217.7633594912
 11
84.2214805357
 21
218.266898901
  0
LINE
  8
0
 62
7
  6
CONTINUOUS
 10
87.9438132208
 20
221.2058038538
 11
87.7970535275
 21
221.4147284218
  0
LINE
  8
0
 62
7
  6
CONTINUOUS
 10
90.0828717967
 20
222.5501741499
 11
90.1952032286
 21
222.3647364131
  0
LINE
  8
0
 62
7
  6
CONTINUOUS
 10
91.3595065385
 20
223.4258889457
 11
91.2471760226
 21
223.6113269547
  0
LINE
  8
0
 62
7
  6
CONTINUOUS
 10
90.3908154625
 20
222.4364197393
 11
90.2638432048
 21
222.6618126998
  0
LINE
  8
0
 62
7
  6
CONTINUOUS
 10
91.0515628933
 20
223.5396433003
 11
91.1785360259
 21
223.314250724
  0
LINE
  8
0
 62
7
  6
CONTINUOUS
 10
89.7775435728
 20
222.1893679013
 11
89.6598606229
 21
222.4159481432
  0
LINE
  8
0
 62
7
  6
CONTINUOUS
 10
91.1785360259
 20
223.314250724
 11
91.2810280748
 21
223.0345664557
  0
LINE
  8
0
 62
7
  6
CONTINUOUS
 10
91.49128203
 20
223.0662948864
 11
91.3595065385
 21
223.4258889457
  0
LINE
  8
0
 62
7
  6
CONTINUOUS
 10
102.7499138448
 20
223.17391683
 11
102.7708545243
 21
223.3478993718
  0
LINE
  8
0
 62
7
  6
CONTINUOUS
 10
109.4073609634
 20
218.1647597617
 11
109.3351238886
 21
218.0515571725
  0
LINE
  8
0
 62
7
  6
CONTINUOUS
 10
109.4937434613
 20
217.8583220018
 11
109.5659805361
 21
217.9715245911
  0
LINE
  8
0
 62
7
  6
CONTINUOUS
 10
109.391249542
 20
215.2026135634
 11
110.734616878
 21
216.827362097
  0
LINE
  8
0
 62
7
  6
CONTINUOUS
 10
109.6037073162
 20
215.8264915526
 11
109.2588415338
 21
215.414670441
  0
LINE
  8
0
 62
7
  6
CONTINUOUS
 10
110.5019650655
 20
216.8785843048
 11
109.7260177749
 21
215.9519855667
  0
LINE
  8
0
 62
7
  6
CONTINUOUS
 10
110.0657385751
 20
215.0978944517
 11
109.9071442909
 21
214.9333908345
  0
LINE
  8
0
 62
7
  6
CONTINUOUS
 10
110.8675527501
 20
213.8613283199
 11
111.0261470072
 21
214.0258319248
  0
LINE
  8
0
 62
7
  6
CONTINUOUS
 10
110.0926997009
 20
214.8351851211
 11
110.1913322762
 21
214.9263157704
  0
LINE
  8
0
 62
7
  6
CONTINUOUS
 10
110.8405916242
 20
214.1240376505
 11
110.7419589948
 21
214.0329069764
  0
LINE
  8
0
 62
7
  6
CONTINUOUS
 10
111.5288894209
 20
214.2566369252
 11
111.6275219962
 21
214.3477675745
  0
LINE
  8
0
 62
7
  6
CONTINUOUS
 10
108.6409378321
 20
216.4042686641
 11
109.162346952
 21
216.5333483507
  0
LINE
  8
0
 62
7
  6
CONTINUOUS
 10
109.3287937502
 20
216.5881561996
 11
110.5019650655
 21
216.8785843048
  0
LINE
  8
0
 62
7
  6
CONTINUOUS
 10
110.5580725303
 20
217.1101051398
 11
108.5085298239
 21
216.6163255418
  0
LINE
  8
0
 62
7
  6
CONTINUOUS
 10
110.6259415397
 20
213.9796442954
 11
110.4925392048
 21
213.9642495829
  0
LINE
  8
0
 62
7
  6
CONTINUOUS
 10
110.3073497313
 20
214.9795784514
 11
110.4407521204
 21
214.9949731888
  0
LINE
  8
0
 62
7
  6
CONTINUOUS
 10
110.926109546
 20
215.2636461079
 11
111.0595119893
 21
215.2790408701
  0
LINE
  8
0
 62
7
  6
CONTINUOUS
 10
110.4460596504
 20
213.7595184828
 11
110.6741902708
 21
213.7725571602
  0
LINE
  8
0
 62
7
  6
CONTINUOUS
 10
111.1059915166
 20
215.4837719578
 11
110.8778608149
 21
215.4707332431
  0
LINE
  8
0
 62
7
  6
CONTINUOUS
 10
82.949035264
 20
215.6739981069
 11
83.0432057292
 21
215.6634563143
  0
LINE
  8
0
 62
7
  6
CONTINUOUS
 10
83.9297306175
 20
216.5809319723
 11
83.835560104
 21
216.5914737029
  0
LINE
  8
0
 62
7
  6
CONTINUOUS
 10
83.5936354801
 20
216.4491029015
 11
83.8178762537
 21
216.40517249
  0
LINE
  8
0
 62
7
  6
CONTINUOUS
 10
83.0249897826
 20
215.8726044124
 11
82.8949195174
 21
215.9059930435
  0
LINE
  8
0
 62
7
  6
CONTINUOUS
 10
83.835560104
 20
216.5914737029
 11
83.6695900459
 21
216.6477092255
  0
LINE
  8
0
 62
7
  6
CONTINUOUS
 10
84.0290664315
 20
218.3668101227
 11
83.9032378813
 21
218.4137170173
  0
LINE
  8
0
 62
7
  6
CONTINUOUS
 10
90.2782511974
 20
222.2592085232
 11
90.4150628072
 21
222.1280621782
  0
LINE
  8
0
 62
7
  6
CONTINUOUS
 10
90.1952032286
 20
222.3647364131
 11
90.2782511974
 21
222.2592085232
  0
LINE
  8
0
 62
7
  6
CONTINUOUS
 10
91.2471760226
 20
223.6113269547
 11
91.1641280128
 21
223.7168549565
  0
LINE
  8
0
 62
7
  6
CONTINUOUS
 10
98.0598905877
 20
170.7933764567
 11
98.5789024064
 21
173.6074164074
  0
LINE
  8
0
 62
7
  6
CONTINUOUS
 10
109.5659805361
 20
217.9715245911
 11
109.6182351055
 21
218.1761384684
  0
LINE
  8
0
 62
7
  6
CONTINUOUS
 10
115.4425234916
 20
236.5433070967
 11
116.400066047
 21
239.2398430906
  0
LINE
  8
0
 62
7
  6
CONTINUOUS
 10
109.9071442909
 20
214.9333908345
 11
109.8046073852
 21
214.748773482
  0
LINE
  8
0
 62
7
  6
CONTINUOUS
 10
111.6275219962
 20
214.3477675745
 11
111.7300588883
 21
214.5323849207
  0
LINE
  8
0
 62
7
  6
CONTINUOUS
 10
110.0114503869
 20
214.7061899578
 11
110.0926997009
 21
214.8351851211
  0
LINE
  8
0
 62
7
  6
CONTINUOUS
 10
111.5232159002
 20
214.5749684512
 11
111.4419682048
 21
214.4459698335
  0
LINE
  8
0
 62
7
  6
CONTINUOUS
 10
79.2284534446
 20
174.856721464
 11
81.0849508399
 21
177.0342456391
  0
LINE
  8
0
 62
7
  6
CONTINUOUS
 10
127.157220444
 20
223.1065152433
 11
129.3347446192
 21
224.9630126385
  0
LINE
  8
0
 62
7
  6
CONTINUOUS
 10
64.9516229926
 20
187.7914000361
 11
67.6481589865
 21
188.7489425916
  0
LINE
  8
0
 62
7
  6
CONTINUOUS
 10
83.0432057292
 20
215.6634563143
 11
83.2180177373
 21
215.7003714442
  0
LINE
  8
0
 62
7
  6
CONTINUOUS
 10
61.8689043724
 20
210.3174144415
 11
59.0548644217
 21
209.7984026227
  0
LINE
  8
0
 62
7
  6
CONTINUOUS
 10
109.0261954123
 20
217.690155079
 11
109.2370695544
 21
217.7015337857
  0
LINE
  8
0
 62
7
  6
CONTINUOUS
 10
83.1774309442
 20
215.8743676592
 11
83.0249897826
 21
215.8726044124
  0
LINE
  8
0
 62
7
  6
CONTINUOUS
 10
109.1113410707
 20
217.9217680293
 11
108.9926852985
 21
217.9321820983
  0
LINE
  8
0
 62
7
  6
CONTINUOUS
 10
110.4925392048
 20
213.9642495829
 11
110.3417535545
 21
213.9867193595
  0
LINE
  8
0
 62
7
  6
CONTINUOUS
 10
111.0595119893
 20
215.2790408701
 11
111.2102976125
 21
215.2565710811
  0
LINE
  8
0
 62
7
  6
CONTINUOUS
 10
133.3980896265
 20
209.7984026227
 11
130.5840496758
 21
210.3174144415
  0
LINE
  8
0
 62
7
  6
CONTINUOUS
 10
110.2392166488
 20
213.802102007
 11
110.4460596504
 21
213.7595184828
  0
LINE
  8
0
 62
7
  6
CONTINUOUS
 10
111.3128345046
 20
215.4411884274
 11
111.1059915166
 21
215.4837719578
  0
LINE
  8
0
 62
7
  6
CONTINUOUS
 10
67.6481589865
 20
227.1810355266
 11
64.9516229926
 21
228.138578082
  0
LINE
  8
0
 62
7
  6
CONTINUOUS
 10
90.4150628072
 20
222.1280621782
 11
90.5763554956
 21
222.0512075391
  0
LINE
  8
0
 62
7
  6
CONTINUOUS
 10
90.6351561248
 20
222.2540371964
 11
90.3908154625
 21
222.4364197393
  0
LINE
  8
0
 62
7
  6
CONTINUOUS
 10
90.8072230956
 20
223.7220262553
 11
91.0515628933
 21
223.5396433003
  0
LINE
  8
0
 62
7
  6
CONTINUOUS
 10
129.3347446192
 20
190.9669654796
 11
127.157220444
 21
192.8234628749
  0
LINE
  8
0
 62
7
  6
CONTINUOUS
 10
91.1641280128
 20
223.7168549565
 11
91.0273164132
 21
223.8480012736
  0
LINE
  8
0
 62
7
  6
CONTINUOUS
 10
81.0849508399
 20
238.895732479
 11
79.2284534446
 21
241.0732566542
  0
LINE
  8
0
 62
7
  6
CONTINUOUS
 10
116.400066047
 20
176.6901350276
 11
115.4425234916
 21
179.3866710215
  0
LINE
  8
0
 62
7
  6
CONTINUOUS
 10
102.4828837161
 20
223.4107784107
 11
102.5159265922
 21
223.261950719
  0
LINE
  8
0
 62
7
  6
CONTINUOUS
 10
98.5789024064
 20
242.3225617108
 11
98.0598905877
 21
245.1366016615
  0
LINE
  8
0
 62
7
  6
CONTINUOUS
 10
109.9997390277
 20
214.4257264002
 11
109.9862584647
 21
214.5570810655
  0
LINE
  8
0
 62
7
  6
CONTINUOUS
 10
109.6182351055
 20
218.1761384684
 11
109.6111611838
 21
218.3859601172
  0
LINE
  8
0
 62
7
  6
CONTINUOUS
 10
109.420269547
 20
218.2831701227
 11
109.4073609634
 21
218.1647597617
  0
LINE
  8
0
 62
7
  6
CONTINUOUS
 10
109.8046073852
 20
214.748773482
 11
109.7755127276
 21
214.5061744213
  0
LINE
  8
0
 62
7
  6
CONTINUOUS
 10
111.0900114143
 20
214.192695044
 11
111.1191076533
 21
214.4352906332
  0
LINE
  8
0
 62
7
  6
CONTINUOUS
 10
111.7300588883
 20
214.5323849207
 11
111.7591551274
 21
214.77498051
  0
LINE
  8
0
 62
7
  6
CONTINUOUS
 10
109.9862584647
 20
214.5570810655
 11
110.0114503869
 21
214.7061899578
  0
LINE
  8
0
 62
7
  6
CONTINUOUS
 10
110.9083603483
 20
214.3843874667
 11
110.8831684262
 21
214.2352785744
  0
LINE
  8
0
 62
7
  6
CONTINUOUS
 10
111.5484078224
 20
214.7240773434
 11
111.5232159002
 21
214.5749684512
  0
LINE
  8
0
 62
7
  6
CONTINUOUS
 10
110.8831684262
 20
214.2352785744
 11
110.8405916242
 21
214.1240376505
  0
LINE
  8
0
 62
7
  6
CONTINUOUS
 10
111.0261470072
 20
214.0258319248
 11
111.0900114143
 21
214.192695044
  0
LINE
  8
DEFAULT_3
 62
2
  6
PHANTOM
 10
110.0546845837
 20
203.8326843766
 11
108.994024412
 21
202.7720242048
  0
LINE
  8
DEFAULT_3
 62
2
  6
PHANTOM
 10
100.3587817065
 20
194.1367814994
 11
101.4194418783
 21
195.1974416712
  0
LINE
  8
DEFAULT_3
 62
2
  6
PHANTOM
 10
105.5441386376
 20
197.0593967307
 11
107.1320693524
 21
198.6473274455
  0
LINE
  8
0
 62
7
  6
CONTINUOUS
 10
101.7029273976
 20
223.7042242596
 11
101.8498900038
 21
223.7398625406
  0
LINE
  8
0
 62
7
  6
CONTINUOUS
 10
90.8158928972
 20
222.0030261685
 11
91.0652696587
 21
222.0490913922
  0
LINE
  8
0
 62
7
  6
CONTINUOUS
 10
83.780831051
 20
218.1916194226
 11
83.8993165979
 21
218.203813728
  0
LINE
  8
0
 62
7
  6
CONTINUOUS
 10
83.9032378813
 20
218.4137170173
 11
83.7847523344
 21
218.4015227119
  0
LINE
  8
0
 62
7
  6
CONTINUOUS
 10
90.5763554956
 20
222.0512075391
 11
90.8158928972
 21
222.0030261685
  0
LINE
  8
0
 62
7
  6
CONTINUOUS
 10
90.86602373
 20
223.9248558986
 11
90.6264854368
 21
223.9730369306
  0
LINE
  8
0
 62
7
  6
CONTINUOUS
 10
108.8217749569
 20
217.73798229
 11
109.0261954123
 21
217.690155079
  0
LINE
  8
0
 62
7
  6
CONTINUOUS
 10
90.7818070868
 20
222.2171374668
 11
90.6351561248
 21
222.2540371964
  0
LINE
  8
0
 62
7
  6
CONTINUOUS
 10
90.6605721336
 20
223.7589259849
 11
90.8072230956
 21
223.7220262553
  0
LINE
  8
0
 62
7
  6
CONTINUOUS
 10
110.4407521204
 20
214.9949731888
 11
110.5528652586
 21
214.9547491728
  0
LINE
  8
0
 62
7
  6
CONTINUOUS
 10
91.0273164132
 20
223.8480012736
 11
90.86602373
 21
223.9248558986
  0
LINE
  8
0
 62
7
  6
CONTINUOUS
 10
110.3417535545
 20
213.9867193595
 11
110.2122555364
 21
214.0648113438
  0
LINE
  8
0
 62
7
  6
CONTINUOUS
 10
110.5528652586
 20
214.9547491728
 11
110.6823632766
 21
214.8766571884
  0
LINE
  8
0
 62
7
  6
CONTINUOUS
 10
110.8583424135
 20
215.0032928249
 11
110.5993463774
 21
215.1594767936
  0
LINE
  8
0
 62
7
  6
CONTINUOUS
 10
111.2102976125
 20
215.2565710811
 11
111.3397956305
 21
215.1784790968
  0
LINE
  8
0
 62
7
  6
CONTINUOUS
 10
110.0362779674
 20
213.9381722297
 11
110.2392166488
 21
213.802102007
  0
LINE
  8
0
 62
7
  6
CONTINUOUS
 10
111.5157747674
 20
215.3051147332
 11
111.3128345046
 21
215.4411884274
  0
LINE
  8
DEFAULT_3
 62
2
  6
PHANTOM
 10
108.994024412
 20
213.1579539133
 11
110.0546845837
 21
212.0972937415
  0
LINE
  8
DEFAULT_3
 62
2
  6
PHANTOM
 10
101.4194418783
 20
220.732536447
 11
100.3587817065
 21
221.7931966188
  0
LINE
  8
DEFAULT_3
 62
2
  6
PHANTOM
 10
105.5441386376
 20
218.8705813875
 11
107.1320693524
 21
217.2826506726
  0
LINE
  8
0
 62
7
  6
CONTINUOUS
 10
110.2122555364
 20
214.0648113438
 11
110.1214300034
 21
214.1606575552
  0
LINE
  8
0
 62
7
  6
CONTINUOUS
 10
109.9106826713
 20
214.1097543762
 11
110.0362779674
 21
213.9381722297
  0
LINE
  8
0
 62
7
  6
CONTINUOUS
 10
102.3958590698
 20
223.5344505806
 11
102.4828837161
 21
223.4107784107
  0
LINE
  8
0
 62
7
  6
CONTINUOUS
 10
102.7708545243
 20
223.3478993718
 11
102.6747997923
 21
223.5658995298
  0
LINE
  8
0
 62
7
  6
CONTINUOUS
 10
109.7755127276
 20
214.5061744213
 11
109.8237614553
 21
214.2990872845
  0
LINE
  8
0
 62
7
  6
CONTINUOUS
 10
110.8948797854
 20
214.515742132
 11
110.9083603483
 21
214.3843874667
  0
LINE
  8
0
 62
7
  6
CONTINUOUS
 10
111.5349272594
 20
214.8554320088
 11
111.5484078224
 21
214.7240773434
  0
LINE
  8
0
 62
7
  6
CONTINUOUS
 10
90.6264854368
 20
223.9730369306
 11
90.3771086766
 21
223.9269717033
  0
LINE
  8
0
 62
7
  6
CONTINUOUS
 10
90.992061042
 20
222.2488658976
 11
90.7818070868
 21
222.2171374668
  0
LINE
  8
0
 62
7
  6
CONTINUOUS
 10
90.450317283
 20
223.727197226
 11
90.6605721336
 21
223.7589259849
  0
LINE
  8
0
 62
7
  6
CONTINUOUS
 10
101.885813388
 20
223.9536733667
 11
101.6998535014
 21
223.9327071768
  0
LINE
  8
0
 62
7
  6
CONTINUOUS
 10
101.8498900038
 20
223.7398625406
 11
102.0598626808
 21
223.7063290269
  0
LINE
  8
0
 62
7
  6
CONTINUOUS
 10
98.0401407931
 20
222.8782405234
 11
99.6809104138
 21
222.5855682357
  0
LINE
  8
0
 62
7
  6
CONTINUOUS
 10
99.7257452831
 20
222.8369199852
 11
98.3310909177
 21
223.0856914632
  0
LINE
  8
0
 62
7
  6
CONTINUOUS
 10
98.3539848836
 20
224.6377027993
 11
99.7896578323
 21
224.3816146313
  0
LINE
  8
0
 62
7
  6
CONTINUOUS
 10
100.0321168911
 20
224.5544902784
 11
98.3913472703
 21
224.8471625661
  0
LINE
  8
0
 62
7
  6
CONTINUOUS
 10
102.1737841961
 20
223.8907943279
 11
101.885813388
 21
223.9536733667
  0
LINE
  8
0
 62
7
  6
CONTINUOUS
 10
100.2413669
 20
222.4176932795
 11
100.4822453037
 21
222.3507784483
  0
LINE
  8
0
 62
7
  6
CONTINUOUS
 10
101.0175639538
 20
224.2778056777
 11
100.7766855502
 21
224.3447205089
  0
LINE
  8
0
 62
7
  6
CONTINUOUS
 10
100.8065486066
 20
222.268325883
 11
102.2104721223
 21
221.740122549
  0
LINE
  8
0
 62
7
  6
CONTINUOUS
 10
102.2853945826
 20
221.9392606405
 11
101.1934546655
 21
222.3500852319
  0
LINE
  8
0
 62
7
  6
CONTINUOUS
 10
101.3849876095
 20
223.6874480731
 11
101.5799775817
 21
223.614086275
  0
LINE
  8
0
 62
7
  6
CONTINUOUS
 10
102.0598626808
 20
223.7063290269
 11
102.2158553727
 21
223.6476393198
  0
LINE
  8
0
 62
7
  6
CONTINUOUS
 10
102.3297751028
 20
223.8321052924
 11
102.1737841961
 21
223.8907943279
  0
LINE
  8
0
 62
7
  6
CONTINUOUS
 10
102.5487778655
 20
223.7042437907
 11
102.3297751028
 21
223.8321052924
  0
LINE
  8
0
 62
7
  6
CONTINUOUS
 10
108.9926852985
 20
217.9321820983
 11
108.8804844232
 21
218.0018006106
  0
LINE
  8
0
 62
7
  6
CONTINUOUS
 10
102.2158553727
 20
223.6476393198
 11
102.3958590698
 21
223.5344505806
  0
LINE
  8
0
 62
7
  6
CONTINUOUS
 10
108.6567016975
 20
217.872011543
 11
108.8217749569
 21
217.73798229
  0
LINE
  8
0
 62
7
  6
CONTINUOUS
 10
110.6823632766
 20
214.8766571884
 11
110.7731888096
 21
214.7808109771
  0
LINE
  8
0
 62
7
  6
CONTINUOUS
 10
111.3397956305
 20
215.1784790968
 11
111.4306211635
 21
215.0826328854
  0
LINE
  8
0
 62
7
  6
CONTINUOUS
 10
102.6747997923
 20
223.5658995298
 11
102.5487778655
 21
223.7042437907
  0
LINE
  8
0
 62
7
  6
CONTINUOUS
 10
107.3315104467
 20
218.0779716172
 11
107.4901300194
 21
217.8847364466
  0
LINE
  8
0
 62
7
  6
CONTINUOUS
 10
108.1808429794
 20
218.4517170549
 11
108.6567016975
 21
217.872011543
  0
LINE
  8
0
 62
7
  6
CONTINUOUS
 10
108.8804844232
 20
218.0018006106
 11
108.3781895131
 21
218.6137114928
  0
LINE
  8
0
 62
7
  6
CONTINUOUS
 10
108.8715559395
 20
219.0186976631
 11
109.3738508496
 21
218.406786781
  0
LINE
  8
0
 62
7
  6
CONTINUOUS
 10
109.5118701023
 20
218.5739875162
 11
108.8773918116
 21
219.3469281987
  0
LINE
  8
0
 62
7
  6
CONTINUOUS
 10
110.9839361146
 20
214.8317141436
 11
110.8583424135
 21
215.0032928249
  0
LINE
  8
0
 62
7
  6
CONTINUOUS
 10
111.6413684685
 20
215.1335360519
 11
111.5157747674
 21
215.3051147332
  0
LINE
  8
0
 62
7
  6
CONTINUOUS
 10
108.5085298239
 20
216.6163255418
 11
108.6409378321
 21
216.4042686641
  0
LINE
  8
0
 62
7
  6
CONTINUOUS
 10
109.2588415338
 20
215.414670441
 11
109.391249542
 21
215.2026135634
  0
LINE
  8
0
 62
7
  6
CONTINUOUS
 10
109.162346952
 20
216.5333483507
 11
109.6037073162
 21
215.8264915526
  0
LINE
  8
0
 62
7
  6
CONTINUOUS
 10
109.7260177749
 20
215.9519855667
 11
109.3287937502
 21
216.5881561996
  0
LINE
  8
0
 62
7
  6
CONTINUOUS
 10
110.734616878
 20
216.827362097
 11
110.5580725303
 21
217.1101051398
  0
LINE
  8
0
 62
7
  6
CONTINUOUS
 10
109.6111611838
 20
218.3859601172
 11
109.5118701023
 21
218.5739875162
  0
LINE
  8
0
 62
7
  6
CONTINUOUS
 10
109.8237614553
 20
214.2990872845
 11
109.9106826713
 21
214.1097543762
  0
LINE
  8
0
 62
7
  6
CONTINUOUS
 10
110.1214300034
 20
214.1606575552
 11
109.9997390277
 21
214.4257264002
  0
LINE
  8
0
 62
7
  6
CONTINUOUS
 10
110.7731888096
 20
214.7808109771
 11
110.8948797854
 21
214.515742132
  0
LINE
  8
0
 62
7
  6
CONTINUOUS
 10
111.0708573307
 20
214.6423812353
 11
110.9839361146
 21
214.8317141436
  0
LINE
  8
0
 62
7
  6
CONTINUOUS
 10
111.4419682048
 20
214.4459698335
 11
111.5288894209
 21
214.2566369252
  0
LINE
  8
0
 62
7
  6
CONTINUOUS
 10
111.4306211635
 20
215.0826328854
 11
111.5349272594
 21
214.8554320088
  0
LINE
  8
0
 62
7
  6
CONTINUOUS
 10
111.7109063963
 20
214.9820676452
 11
111.6413684685
 21
215.1335360519
  0
LINE
  8
0
 62
7
  6
CONTINUOUS
 10
109.3738508496
 20
218.406786781
 11
109.420269547
 21
218.2831701227
  0
LINE
  8
0
 62
7
  6
CONTINUOUS
 10
111.1191076533
 20
214.4352906332
 11
111.0708573307
 21
214.6423812353
  0
LINE
  8
0
 62
7
  6
CONTINUOUS
 10
111.7591551274
 20
214.77498051
 11
111.7109063963
 21
214.9820676452
  0
LINE
  8
0
 62
7
  6
CONTINUOUS
 10
124.9521910231
 20
200.0169465172
 11
125.0776963592
 21
200.485338808
  0
LINE
  8
0
 62
7
  6
CONTINUOUS
 10
117.1296538181
 20
186.7189253079
 11
117.4725407729
 21
187.0618122627
  0
LINE
  8
0
 62
7
  6
CONTINUOUS
 10
88.7468267762
 20
236.816208395
 11
88.2784344854
 21
236.690703059
  0
LINE
  8
0
 62
7
  6
CONTINUOUS
 10
104.174519566
 20
236.6907030581
 11
103.7061272752
 21
236.8162083942
  0
LINE
  8
0
 62
7
  6
CONTINUOUS
 10
117.4725407752
 20
228.8681658531
 11
117.1296538205
 21
229.2110528079
  0
LINE
  8
0
 62
7
  6
CONTINUOUS
 10
125.07769636
 20
215.4446393069
 11
124.952191024
 21
215.9130315978
  0
LINE
  8
0
 62
7
  6
CONTINUOUS
 10
134.2164483085
 20
208.8379620321
 11
134.2164483085
 21
207.0920160861
  0
LINE
  8
0
 62
7
  6
CONTINUOUS
 10
128.6902707589
 20
188.2139866455
 11
129.5632437319
 21
189.7260201883
  0
LINE
  8
0
 62
7
  6
CONTINUOUS
 10
114.4654458949
 20
174.6282223513
 11
115.9774794377
 21
175.5011953242
  0
LINE
  8
0
 62
7
  6
CONTINUOUS
 10
97.099449997
 20
245.9549603435
 11
95.3535040511
 21
245.9549603435
  0
LINE
  8
0
 62
7
  6
CONTINUOUS
 10
115.9774794377
 20
240.4287827939
 11
114.4654458949
 21
241.3017557669
  0
LINE
  8
0
 62
7
  6
CONTINUOUS
 10
129.5632437319
 20
226.2039579299
 11
128.6902707589
 21
227.7159914727
  0
LINE
  8
0
 62
7
  6
CONTINUOUS
 10
58.2264770241
 20
120.4059080963
 11
58.2264770241
 21
106.6059080963
  0
LINE
  8
0
 62
9
  6
CONTINUOUS
 10
58.2365057397
 20
106.6059080963
 11
58.2365057397
 21
120.4059080963
  0
LINE
  8
0
 62
9
  6
CONTINUOUS
 10
59.0548644217
 20
106.6059080963
 11
59.0548644217
 21
120.4059080963
  0
LINE
  8
0
 62
9
  6
CONTINUOUS
 10
61.8689043724
 20
106.6059080963
 11
61.8689043724
 21
120.4059080963
  0
POLYLINE
  8
0
 62
9
  6
CONTINUOUS
 66
1
 70
0
  0
VERTEX
  8
0
 62
9
  6
CONTINUOUS
 10
59.2362418261
 20
121.4059080963
  0
VERTEX
  8
0
 62
9
  6
CONTINUOUS
 10
59.1296308627
 20
121.2149250907
  0
VERTEX
  8
0
 62
9
  6
CONTINUOUS
 10
59.0895044235
 20
120.9936933486
  0
VERTEX
  8
0
 62
9
  6
CONTINUOUS
 10
59.0548644217
 20
120.4059080963
  0
SEQEND
  0
POLYLINE
  8
0
 62
9
  6
CONTINUOUS
 66
1
 70
0
  0
VERTEX
  8
0
 62
9
  6
CONTINUOUS
 10
59.2362418261
 20
105.6059080963
  0
VERTEX
  8
0
 62
9
  6
CONTINUOUS
 10
59.1299132153
 20
105.7957623685
  0
VERTEX
  8
0
 62
9
  6
CONTINUOUS
 10
59.0896599046
 20
106.0169447821
  0
VERTEX
  8
0
 62
9
  6
CONTINUOUS
 10
59.0548644217
 20
106.6059080963
  0
SEQEND
  0
LINE
  8
0
 62
7
  6
CONTINUOUS
 10
62.7669936507
 20
120.4059080963
 11
62.7669936507
 21
106.6059080963
  0
LINE
  8
0
 62
9
  6
CONTINUOUS
 10
62.8897103163
 20
106.6059080963
 11
62.8897103163
 21
120.4059080963
  0
LINE
  8
0
 62
9
  6
CONTINUOUS
 10
63.7626832892
 20
106.6059080963
 11
63.7626832892
 21
120.4059080963
  0
LINE
  8
0
 62
7
  6
CONTINUOUS
 10
62.9264078646
 20
120.9475865399
 11
62.7670001172
 21
120.4059080963
  0
POLYLINE
  8
0
 62
9
  6
CONTINUOUS
 66
1
 70
0
  0
VERTEX
  8
0
 62
9
  6
CONTINUOUS
 10
62.0502817768
 20
121.4059080963
  0
VERTEX
  8
0
 62
9
  6
CONTINUOUS
 10
61.9436701686
 20
121.2149225117
  0
VERTEX
  8
0
 62
9
  6
CONTINUOUS
 10
61.9035439475
 20
120.9936901198
  0
VERTEX
  8
0
 62
9
  6
CONTINUOUS
 10
61.8689043704
 20
120.4059080963
  0
SEQEND
  0
POLYLINE
  8
0
 62
9
  6
CONTINUOUS
 66
1
 70
0
  0
VERTEX
  8
0
 62
9
  6
CONTINUOUS
 10
62.0502817768
 20
105.6059080963
  0
VERTEX
  8
0
 62
9
  6
CONTINUOUS
 10
61.943670813
 20
105.7968911018
  0
VERTEX
  8
0
 62
9
  6
CONTINUOUS
 10
61.9035443731
 20
106.0181228439
  0
VERTEX
  8
0
 62
9
  6
CONTINUOUS
 10
61.8689043724
 20
106.6059080963
  0
SEQEND
  0
LINE
  8
0
 62
7
  6
CONTINUOUS
 10
62.8068966878
 20
106.3262407548
 11
62.7669943812
 21
106.6059080963
  0
LINE
  8
0
 62
9
  6
CONTINUOUS
 10
64.9516229926
 20
106.6059080963
 11
64.9516229926
 21
120.4059080963
  0
LINE
  8
0
 62
9
  6
CONTINUOUS
 10
67.6481589865
 20
106.6059080963
 11
67.6481589865
 21
120.4059080963
  0
LINE
  8
AXES
 62
7
  6
CONTINUOUS
 10
68.2264770241
 20
125.0059080963
 11
68.2264770241
 21
122.2059080963
  0
LINE
  8
AXES
 62
7
  6
CONTINUOUS
 10
68.2264770241
 20
104.8059080963
 11
68.2264770241
 21
102.0059080963
  0
LINE
  8
0
 62
9
  6
CONTINUOUS
 10
74.9804132729
 20
106.6059080963
 11
74.9804132729
 21
120.4059080963
  0
LINE
  8
0
 62
9
  6
CONTINUOUS
 10
75.32330023
 20
106.6059080963
 11
75.32330023
 21
120.4059080963
  0
LINE
  8
0
 62
7
  6
CONTINUOUS
 10
75.9952378319
 20
120.4059080963
 11
75.9952378319
 21
106.6059080963
  0
LINE
  8
0
 62
9
  6
CONTINUOUS
 10
76.4754746105
 20
106.6059080963
 11
76.4754746105
 21
120.4059080963
  0
POLYLINE
  8
0
 62
9
  6
CONTINUOUS
 66
1
 70
0
  0
VERTEX
  8
0
 62
9
  6
CONTINUOUS
 10
64.6169936507
 20
121.4059080963
  0
VERTEX
  8
0
 62
9
  6
CONTINUOUS
 10
64.1161725357
 20
121.216053824
  0
VERTEX
  8
0
 62
9
  6
CONTINUOUS
 10
63.9265743851
 20
120.9948714105
  0
VERTEX
  8
0
 62
9
  6
CONTINUOUS
 10
63.7626832892
 20
120.4059080963
  0
SEQEND
  0
POLYLINE
  8
0
 62
9
  6
CONTINUOUS
 66
1
 70
0
  0
VERTEX
  8
0
 62
9
  6
CONTINUOUS
 10
63.7669936507
 20
121.4059080963
  0
VERTEX
  8
0
 62
9
  6
CONTINUOUS
 10
63.2513394446
 20
121.2149250907
  0
VERTEX
  8
0
 62
9
  6
CONTINUOUS
 10
63.0572565243
 20
120.9936933486
  0
VERTEX
  8
0
 62
9
  6
CONTINUOUS
 10
62.8897103163
 20
120.4059080963
  0
SEQEND
  0
POLYLINE
  8
0
 62
7
  6
CONTINUOUS
 66
1
 70
0
  0
VERTEX
  8
0
 62
7
  6
CONTINUOUS
 10
59.2362418261
 20
121.4059080963
  0
VERTEX
  8
0
 62
7
  6
CONTINUOUS
 10
58.6501680009
 20
121.216053824
  0
VERTEX
  8
0
 62
7
  6
CONTINUOUS
 10
58.42829534
 20
120.9948714105
  0
VERTEX
  8
0
 62
7
  6
CONTINUOUS
 10
58.2365057397
 20
120.4059080963
  0
SEQEND
  0
POLYLINE
  8
0
 62
9
  6
CONTINUOUS
 66
1
 70
0
  0
VERTEX
  8
0
 62
9
  6
CONTINUOUS
 10
59.2362418261
 20
105.6059080963
  0
VERTEX
  8
0
 62
9
  6
CONTINUOUS
 10
58.6486116983
 20
105.7968911019
  0
VERTEX
  8
0
 62
9
  6
CONTINUOUS
 10
58.4274383423
 20
106.018122844
  0
VERTEX
  8
0
 62
9
  6
CONTINUOUS
 10
58.2365057397
 20
106.6059080963
  0
SEQEND
  0
POLYLINE
  8
0
 62
9
  6
CONTINUOUS
 66
1
 70
0
  0
VERTEX
  8
0
 62
9
  6
CONTINUOUS
 10
63.7669936507
 20
105.6059080963
  0
VERTEX
  8
0
 62
9
  6
CONTINUOUS
 10
63.2527051234
 20
105.7957623685
  0
VERTEX
  8
0
 62
9
  6
CONTINUOUS
 10
63.0580085525
 20
106.0169447821
  0
VERTEX
  8
0
 62
9
  6
CONTINUOUS
 10
62.8897103163
 20
106.6059080963
  0
SEQEND
  0
POLYLINE
  8
0
 62
9
  6
CONTINUOUS
 66
1
 70
0
  0
VERTEX
  8
0
 62
9
  6
CONTINUOUS
 10
64.6169936507
 20
105.6059080963
  0
VERTEX
  8
0
 62
9
  6
CONTINUOUS
 10
64.1148426193
 20
105.7968911019
  0
VERTEX
  8
0
 62
9
  6
CONTINUOUS
 10
63.9258420498
 20
106.018122844
  0
VERTEX
  8
0
 62
9
  6
CONTINUOUS
 10
63.7626832892
 20
106.6059080963
  0
SEQEND
  0
LINE
  8
0
 62
9
  6
CONTINUOUS
 10
77.9875081533
 20
106.6059080963
 11
77.9875081533
 21
120.4059080963
  0
LINE
  8
0
 62
9
  6
CONTINUOUS
 10
79.2284534446
 20
106.6059080963
 11
79.2284534446
 21
120.4059080963
  0
POLYLINE
  8
0
 62
9
  6
CONTINUOUS
 66
1
 70
0
  0
VERTEX
  8
0
 62
9
  6
CONTINUOUS
 10
64.6169936507
 20
105.6059080963
  0
VERTEX
  8
0
 62
9
  6
CONTINUOUS
 10
64.8131629209
 20
105.7957623685
  0
VERTEX
  8
0
 62
9
  6
CONTINUOUS
 10
64.8874276228
 20
106.0169447821
  0
VERTEX
  8
0
 62
9
  6
CONTINUOUS
 10
64.9516229926
 20
106.6059080963
  0
SEQEND
  0
POLYLINE
  8
0
 62
9
  6
CONTINUOUS
 66
1
 70
0
  0
VERTEX
  8
0
 62
9
  6
CONTINUOUS
 10
78.4674810183
 20
121.4059080963
  0
VERTEX
  8
0
 62
9
  6
CONTINUOUS
 10
78.1861072269
 20
121.216053824
  0
VERTEX
  8
0
 62
9
  6
CONTINUOUS
 10
78.0795862579
 20
120.9948714105
  0
VERTEX
  8
0
 62
9
  6
CONTINUOUS
 10
77.9875081533
 20
120.4059080963
  0
SEQEND
  0
POLYLINE
  8
0
 62
9
  6
CONTINUOUS
 66
1
 70
0
  0
VERTEX
  8
0
 62
9
  6
CONTINUOUS
 10
76.9952378319
 20
121.4059080963
  0
VERTEX
  8
0
 62
9
  6
CONTINUOUS
 10
76.6897286756
 20
121.2149250907
  0
VERTEX
  8
0
 62
9
  6
CONTINUOUS
 10
76.5747405527
 20
120.9936933486
  0
VERTEX
  8
0
 62
9
  6
CONTINUOUS
 10
76.4754746105
 20
120.4059080963
  0
SEQEND
  0
POLYLINE
  8
0
 62
9
  6
CONTINUOUS
 66
1
 70
0
  0
VERTEX
  8
0
 62
9
  6
CONTINUOUS
 10
76.0246314426
 20
121.4059080963
  0
VERTEX
  8
0
 62
9
  6
CONTINUOUS
 10
75.6123968088
 20
121.2149225117
  0
VERTEX
  8
0
 62
9
  6
CONTINUOUS
 10
75.4572409269
 20
120.9936901198
  0
VERTEX
  8
0
 62
9
  6
CONTINUOUS
 10
75.3233002286
 20
120.4059080963
  0
SEQEND
  0
POLYLINE
  8
0
 62
9
  6
CONTINUOUS
 66
1
 70
0
  0
VERTEX
  8
0
 62
9
  6
CONTINUOUS
 10
75.6932488291
 20
121.4059080963
  0
VERTEX
  8
0
 62
9
  6
CONTINUOUS
 10
75.274254602
 20
121.2149250908
  0
VERTEX
  8
0
 62
9
  6
CONTINUOUS
 10
75.11655275
 20
120.9936933487
  0
VERTEX
  8
0
 62
9
  6
CONTINUOUS
 10
74.9804132729
 20
120.4059080963
  0
SEQEND
  0
POLYLINE
  8
0
 62
7
  6
CONTINUOUS
 66
1
 70
0
  0
VERTEX
  8
0
 62
7
  6
CONTINUOUS
 10
63.7669936507
 20
121.4059080963
  0
VERTEX
  8
0
 62
7
  6
CONTINUOUS
 10
63.1549320784
 20
121.1967182073
  0
VERTEX
  8
0
 62
7
  6
CONTINUOUS
 10
62.9264078646
 20
120.9475865399
  0
SEQEND
  0
POLYLINE
  8
0
 62
7
  6
CONTINUOUS
 66
1
 70
0
  0
VERTEX
  8
0
 62
7
  6
CONTINUOUS
 10
63.7669936507
 20
105.6059080963
  0
VERTEX
  8
0
 62
7
  6
CONTINUOUS
 10
63.1809641608
 20
105.7956183722
  0
VERTEX
  8
0
 62
7
  6
CONTINUOUS
 10
62.8068966878
 20
106.3262407548
  0
SEQEND
  0
POLYLINE
  8
0
 62
9
  6
CONTINUOUS
 66
1
 70
0
  0
VERTEX
  8
0
 62
9
  6
CONTINUOUS
 10
76.9952378319
 20
105.6059080963
  0
VERTEX
  8
0
 62
9
  6
CONTINUOUS
 10
76.690537798
 20
105.7957623685
  0
VERTEX
  8
0
 62
9
  6
CONTINUOUS
 10
76.5751861062
 20
106.0169447821
  0
VERTEX
  8
0
 62
9
  6
CONTINUOUS
 10
76.4754746105
 20
106.6059080963
  0
SEQEND
  0
POLYLINE
  8
0
 62
9
  6
CONTINUOUS
 66
1
 70
0
  0
VERTEX
  8
0
 62
9
  6
CONTINUOUS
 10
78.4674810183
 20
105.6059080963
  0
VERTEX
  8
0
 62
9
  6
CONTINUOUS
 10
78.1853600467
 20
105.7968911019
  0
VERTEX
  8
0
 62
9
  6
CONTINUOUS
 10
78.0791748137
 20
106.018122844
  0
VERTEX
  8
0
 62
9
  6
CONTINUOUS
 10
77.9875081533
 20
106.6059080963
  0
SEQEND
  0
POLYLINE
  8
0
 62
9
  6
CONTINUOUS
 66
1
 70
0
  0
VERTEX
  8
0
 62
9
  6
CONTINUOUS
 10
64.6169936507
 20
121.4059080963
  0
VERTEX
  8
0
 62
9
  6
CONTINUOUS
 10
64.8136838428
 20
121.2149250907
  0
VERTEX
  8
0
 62
9
  6
CONTINUOUS
 10
64.8877144751
 20
120.9936933486
  0
VERTEX
  8
0
 62
9
  6
CONTINUOUS
 10
64.9516229926
 20
120.4059080963
  0
SEQEND
  0
LINE
  8
0
 62
9
  6
CONTINUOUS
 10
81.0849508399
 20
106.6059080963
 11
81.0849508399
 21
120.4059080963
  0
LINE
  8
0
 62
7
  6
CONTINUOUS
 10
82.0650691667
 20
101.0059080963
 11
82.0650691667
 21
100.8059080963
  0
LINE
  8
0
 62
7
  6
CONTINUOUS
 10
82.1769235066
 20
101.0059080963
 11
82.1769235066
 21
100.8059080963
  0
LINE
  8
0
 62
7
  6
CONTINUOUS
 10
82.6243408579
 20
101.0059080963
 11
82.6243408579
 21
100.8059080963
  0
LINE
  8
0
 62
7
  6
CONTINUOUS
 10
82.7361952217
 20
101.0059080963
 11
82.7361952217
 21
100.8059080963
  0
LINE
  8
0
 62
7
  6
CONTINUOUS
 10
83.0620749804
 20
101.0059080963
 11
83.0620749804
 21
100.8059080963
  0
LINE
  8
0
 62
7
  6
CONTINUOUS
 10
83.1918247397
 20
101.0059080963
 11
83.1918247397
 21
100.8059080963
  0
POLYLINE
  8
0
 62
9
  6
CONTINUOUS
 66
1
 70
0
  0
VERTEX
  8
0
 62
9
  6
CONTINUOUS
 10
67.3135296446
 20
105.6059080963
  0
VERTEX
  8
0
 62
9
  6
CONTINUOUS
 10
67.5102198363
 20
105.7968911018
  0
VERTEX
  8
0
 62
9
  6
CONTINUOUS
 10
67.5842504679
 20
106.0181228439
  0
VERTEX
  8
0
 62
9
  6
CONTINUOUS
 10
67.6481589865
 20
106.6059080963
  0
SEQEND
  0
POLYLINE
  8
0
 62
7
  6
CONTINUOUS
 66
1
 70
0
  0
VERTEX
  8
0
 62
7
  6
CONTINUOUS
 10
76.9952378319
 20
105.6059080963
  0
VERTEX
  8
0
 62
7
  6
CONTINUOUS
 10
76.3995315004
 20
105.8027057764
  0
VERTEX
  8
0
 62
7
  6
CONTINUOUS
 10
76.1738028865
 20
106.035605869
  0
VERTEX
  8
0
 62
7
  6
CONTINUOUS
 10
75.9952392066
 20
106.6059080963
  0
SEQEND
  0
POLYLINE
  8
0
 62
9
  6
CONTINUOUS
 66
1
 70
0
  0
VERTEX
  8
0
 62
9
  6
CONTINUOUS
 10
75.6932488291
 20
105.6059080963
  0
VERTEX
  8
0
 62
9
  6
CONTINUOUS
 10
75.2742505269
 20
105.7968952564
  0
VERTEX
  8
0
 62
9
  6
CONTINUOUS
 10
75.1165500509
 20
106.0181280585
  0
VERTEX
  8
0
 62
9
  6
CONTINUOUS
 10
74.9804132753
 20
106.6059080963
  0
SEQEND
  0
POLYLINE
  8
0
 62
9
  6
CONTINUOUS
 66
1
 70
0
  0
VERTEX
  8
0
 62
9
  6
CONTINUOUS
 10
76.0246314427
 20
105.6059080963
  0
VERTEX
  8
0
 62
9
  6
CONTINUOUS
 10
75.6123992992
 20
105.7968911017
  0
VERTEX
  8
0
 62
9
  6
CONTINUOUS
 10
75.4572425731
 20
106.0181228437
  0
VERTEX
  8
0
 62
9
  6
CONTINUOUS
 10
75.32330023
 20
106.6059080963
  0
SEQEND
  0
POLYLINE
  8
0
 62
9
  6
CONTINUOUS
 66
1
 70
0
  0
VERTEX
  8
0
 62
9
  6
CONTINUOUS
 10
67.3135296446
 20
121.4059080963
  0
VERTEX
  8
0
 62
9
  6
CONTINUOUS
 10
67.5102210237
 20
121.2149225117
  0
VERTEX
  8
0
 62
9
  6
CONTINUOUS
 10
67.5842512528
 20
120.9936901198
  0
VERTEX
  8
0
 62
9
  6
CONTINUOUS
 10
67.6481589846
 20
120.4059080963
  0
SEQEND
  0
LINE
  8
0
 62
7
  6
CONTINUOUS
 10
83.3436032121
 20
101.0059080963
 11
83.3436032121
 21
100.8059080963
  0
LINE
  8
0
 62
7
  6
CONTINUOUS
 10
83.3548672761
 20
101.0059080963
 11
83.3548672761
 21
100.8059080963
  0
LINE
  8
0
 62
7
  6
CONTINUOUS
 10
83.425374262
 20
101.0059080963
 11
83.425374262
 21
100.8059080963
  0
LINE
  8
0
 62
7
  6
CONTINUOUS
 10
83.5291740992
 20
101.0059080963
 11
83.5291740992
 21
100.8059080963
  0
LINE
  8
0
 62
7
  6
CONTINUOUS
 10
83.6064912301
 20
101.0059080963
 11
83.6064912301
 21
100.8059080963
  0
LINE
  8
0
 62
7
  6
CONTINUOUS
 10
83.7470247972
 20
101.0059080963
 11
83.7470247972
 21
100.8059080963
  0
LINE
  8
0
 62
7
  6
CONTINUOUS
 10
83.9040926009
 20
101.0059080963
 11
83.9040926009
 21
100.8059080963
  0
LINE
  8
0
 62
7
  6
CONTINUOUS
 10
84.0290664315
 20
101.0059080963
 11
84.0290664315
 21
100.8059080963
  0
LINE
  8
0
 62
7
  6
CONTINUOUS
 10
84.0776947292
 20
101.0059080963
 11
84.0776947292
 21
100.8059080963
  0
LINE
  8
0
 62
7
  6
CONTINUOUS
 10
84.2182282962
 20
101.0059080963
 11
84.2182282962
 21
100.8059080963
  0
LINE
  8
0
 62
7
  6
CONTINUOUS
 10
85.2234623278
 20
101.0059080963
 11
85.2234623278
 21
100.8059080963
  0
POLYLINE
  8
0
 62
9
  6
CONTINUOUS
 66
1
 70
0
  0
VERTEX
  8
0
 62
9
  6
CONTINUOUS
 10
88.9977796447
 20
121.4059080963
  0
VERTEX
  8
0
 62
9
  6
CONTINUOUS
 10
88.8502723579
 20
121.2149225117
  0
VERTEX
  8
0
 62
9
  6
CONTINUOUS
 10
88.7947539194
 20
120.9936901198
  0
VERTEX
  8
0
 62
9
  6
CONTINUOUS
 10
88.7468267743
 20
120.4059080963
  0
SEQEND
  0
POLYLINE
  8
0
 62
9
  6
CONTINUOUS
 66
1
 70
0
  0
VERTEX
  8
0
 62
9
  6
CONTINUOUS
 10
88.5451025762
 20
121.4059080963
  0
VERTEX
  8
0
 62
9
  6
CONTINUOUS
 10
88.3883590033
 20
121.2149250908
  0
VERTEX
  8
0
 62
9
  6
CONTINUOUS
 10
88.3293635563
 20
120.9936933487
  0
VERTEX
  8
0
 62
9
  6
CONTINUOUS
 10
88.2784344822
 20
120.4059080963
  0
SEQEND
  0
POLYLINE
  8
0
 62
7
  6
CONTINUOUS
 66
1
 70
0
  0
VERTEX
  8
0
 62
7
  6
CONTINUOUS
 10
115.4577162163
 20
105.6059080963
  0
VERTEX
  8
0
 62
7
  6
CONTINUOUS
 10
115.7453141603
 20
105.6481568642
  0
VERTEX
  8
0
 62
7
  6
CONTINUOUS
 10
116.2260907037
 20
105.9659075908
  0
VERTEX
  8
0
 62
7
  6
CONTINUOUS
 10
116.3844954071
 20
106.2303014784
  0
VERTEX
  8
0
 62
7
  6
CONTINUOUS
 10
116.4577160836
 20
106.6059080963
  0
SEQEND
  0
LINE
  8
0
 62
7
  6
CONTINUOUS
 10
111.7591551274
 20
100.8059080963
 11
109.6182351055
 21
100.8059080963
  0
LINE
  8
0
 62
7
  6
CONTINUOUS
 10
109.6111611838
 20
100.8059080963
 11
107.3315104467
 21
100.8059080963
  0
LINE
  8
0
 62
7
  6
CONTINUOUS
 10
102.7708545243
 20
100.8059080963
 11
100.2413669
 21
100.8059080963
  0
LINE
  8
0
 62
7
  6
CONTINUOUS
 10
100.0321168911
 20
100.8059080963
 11
98.0401407931
 21
100.8059080963
  0
LINE
  8
0
 62
7
  6
CONTINUOUS
 10
91.5301711063
 20
100.8059080963
 11
89.9122081039
 21
100.8059080963
  0
LINE
  8
0
 62
7
  6
CONTINUOUS
 10
89.7775435728
 20
100.8059080963
 11
88.1807954651
 21
100.8059080963
  0
LINE
  8
0
 62
7
  6
CONTINUOUS
 10
87.9438132208
 20
100.8059080963
 11
86.433240661
 21
100.8059080963
  0
LINE
  8
0
 62
7
  6
CONTINUOUS
 10
85.2234623278
 20
100.8059080963
 11
82.0650691667
 21
100.8059080963
  0
LINE
  8
AXES
 62
7
  6
CONTINUOUS
 10
69.2264770241
 20
101.0059080963
 11
123.2264770241
 21
101.0059080963
  0
LINE
  8
AXES
 62
9
  6
CONTINUOUS
 10
68.2264770241
 20
102.0059080963
 11
124.2264770241
 21
102.0059080963
  0
POLYLINE
  8
0
 62
9
  6
CONTINUOUS
 66
1
 70
0
  0
VERTEX
  8
0
 62
9
  6
CONTINUOUS
 10
88.5451025763
 20
105.6059080963
  0
VERTEX
  8
0
 62
9
  6
CONTINUOUS
 10
88.3883574799
 20
105.7968952564
  0
VERTEX
  8
0
 62
9
  6
CONTINUOUS
 10
88.329362548
 20
106.0181280585
  0
VERTEX
  8
0
 62
9
  6
CONTINUOUS
 10
88.2784344854
 20
106.6059080963
  0
SEQEND
  0
POLYLINE
  8
0
 62
9
  6
CONTINUOUS
 66
1
 70
0
  0
VERTEX
  8
0
 62
9
  6
CONTINUOUS
 10
88.9977796448
 20
105.6059080963
  0
VERTEX
  8
0
 62
9
  6
CONTINUOUS
 10
88.8502732497
 20
105.7968911017
  0
VERTEX
  8
0
 62
9
  6
CONTINUOUS
 10
88.7947545094
 20
106.0181228437
  0
VERTEX
  8
0
 62
9
  6
CONTINUOUS
 10
88.7468267762
 20
106.6059080963
  0
SEQEND
  0
LINE
  8
0
 62
7
  6
CONTINUOUS
 10
86.433240661
 20
101.0059080963
 11
86.433240661
 21
100.8059080963
  0
LINE
  8
0
 62
7
  6
CONTINUOUS
 10
86.5911099246
 20
101.0059080963
 11
86.5911099246
 21
100.8059080963
  0
LINE
  8
0
 62
7
  6
CONTINUOUS
 10
86.7956818741
 20
101.0059080963
 11
86.7956818741
 21
100.8059080963
  0
LINE
  8
0
 62
7
  6
CONTINUOUS
 10
87.4561004084
 20
101.0059080963
 11
87.4561004084
 21
100.8059080963
  0
LINE
  8
0
 62
7
  6
CONTINUOUS
 10
87.7970535275
 20
101.0059080963
 11
87.7970535275
 21
100.8059080963
  0
LINE
  8
0
 62
7
  6
CONTINUOUS
 10
87.9438132208
 20
101.0059080963
 11
87.9438132208
 21
100.8059080963
  0
LINE
  8
0
 62
7
  6
CONTINUOUS
 10
88.1807954651
 20
101.0059080963
 11
88.1807954651
 21
100.8059080963
  0
LINE
  8
0
 62
9
  6
CONTINUOUS
 10
88.2784344822
 20
106.6059080963
 11
88.2784344822
 21
120.4059080963
  0
LINE
  8
0
 62
7
  6
CONTINUOUS
 10
88.5386610153
 20
101.0059080963
 11
88.5386610153
 21
100.8059080963
  0
POLYLINE
  8
0
 62
9
  6
CONTINUOUS
 66
1
 70
0
  0
VERTEX
  8
0
 62
9
  6
CONTINUOUS
 10
94.8574652053
 20
121.4059080963
  0
VERTEX
  8
0
 62
9
  6
CONTINUOUS
 10
94.2794292161
 20
121.2149250908
  0
VERTEX
  8
0
 62
9
  6
CONTINUOUS
 10
94.0618669204
 20
120.9936933489
  0
VERTEX
  8
0
 62
9
  6
CONTINUOUS
 10
93.8740516417
 20
120.4059080963
  0
SEQEND
  0
POLYLINE
  8
0
 62
9
  6
CONTINUOUS
 66
1
 70
0
  0
VERTEX
  8
0
 62
9
  6
CONTINUOUS
 10
95.3764770241
 20
121.4059080963
  0
VERTEX
  8
0
 62
9
  6
CONTINUOUS
 10
94.7999719275
 20
121.216053824
  0
VERTEX
  8
0
 62
9
  6
CONTINUOUS
 10
94.5817217442
 20
120.9948714105
  0
VERTEX
  8
0
 62
9
  6
CONTINUOUS
 10
94.3930634604
 20
120.4059080963
  0
SEQEND
  0
LINE
  8
AXES
 62
9
  6
CONTINUOUS
 10
68.2264770241
 20
104.8059080963
 11
124.2264770241
 21
104.8059080963
  0
LINE
  8
0
 62
7
  6
CONTINUOUS
 10
133.216712222
 20
105.6059080963
 11
59.2363402048
 21
105.6059080963
  0
POLYLINE
  8
0
 62
9
  6
CONTINUOUS
 66
1
 70
0
  0
VERTEX
  8
0
 62
9
  6
CONTINUOUS
 10
94.8574652053
 20
105.6059080963
  0
VERTEX
  8
0
 62
9
  6
CONTINUOUS
 10
94.2794235928
 20
105.7968952564
  0
VERTEX
  8
0
 62
9
  6
CONTINUOUS
 10
94.0618631946
 20
106.0181280585
  0
VERTEX
  8
0
 62
9
  6
CONTINUOUS
 10
93.8740516423
 20
106.6059080963
  0
SEQEND
  0
POLYLINE
  8
0
 62
9
  6
CONTINUOUS
 66
1
 70
0
  0
VERTEX
  8
0
 62
9
  6
CONTINUOUS
 10
95.3764770241
 20
105.6059080963
  0
VERTEX
  8
0
 62
9
  6
CONTINUOUS
 10
94.7984410345
 20
105.7968911019
  0
VERTEX
  8
0
 62
9
  6
CONTINUOUS
 10
94.5808787386
 20
106.018122844
  0
VERTEX
  8
0
 62
9
  6
CONTINUOUS
 10
94.3930634604
 20
106.6059080963
  0
SEQEND
  0
LINE
  8
0
 62
9
  6
CONTINUOUS
 10
88.7468267762
 20
106.6059080963
 11
88.7468267762
 21
120.4059080963
  0
LINE
  8
0
 62
7
  6
CONTINUOUS
 10
88.7605208101
 20
101.0059080963
 11
88.7605208101
 21
100.8059080963
  0
LINE
  8
0
 62
7
  6
CONTINUOUS
 10
89.290094016
 20
101.0059080963
 11
89.290094016
 21
100.8059080963
  0
LINE
  8
0
 62
7
  6
CONTINUOUS
 10
89.6598606229
 20
101.0059080963
 11
89.6598606229
 21
100.8059080963
  0
LINE
  8
0
 62
7
  6
CONTINUOUS
 10
89.7775435728
 20
101.0059080963
 11
89.7775435728
 21
100.8059080963
  0
LINE
  8
0
 62
7
  6
CONTINUOUS
 10
89.9122081039
 20
101.0059080963
 11
89.9122081039
 21
100.8059080963
  0
LINE
  8
0
 62
7
  6
CONTINUOUS
 10
89.9318859333
 20
101.0059080963
 11
89.9318859333
 21
100.8059080963
  0
LINE
  8
0
 62
7
  6
CONTINUOUS
 10
90.0053282889
 20
101.0059080963
 11
90.0053282889
 21
100.8059080963
  0
LINE
  8
0
 62
7
  6
CONTINUOUS
 10
90.157015359
 20
101.0059080963
 11
90.157015359
 21
100.8059080963
  0
LINE
  8
0
 62
7
  6
CONTINUOUS
 10
90.3771086766
 20
101.0059080963
 11
90.3771086766
 21
100.8059080963
  0
LINE
  8
0
 62
7
  6
CONTINUOUS
 10
90.6264854368
 20
101.0059080963
 11
90.6264854368
 21
100.8059080963
  0
LINE
  8
0
 62
7
  6
CONTINUOUS
 10
90.86602373
 20
101.0059080963
 11
90.86602373
 21
100.8059080963
  0
LINE
  8
0
 62
7
  6
CONTINUOUS
 10
91.0273164132
 20
101.0059080963
 11
91.0273164132
 21
100.8059080963
  0
LINE
  8
0
 62
7
  6
CONTINUOUS
 10
91.1641280128
 20
101.0059080963
 11
91.1641280128
 21
100.8059080963
  0
LINE
  8
0
 62
9
  6
CONTINUOUS
 10
58.2264770241
 20
106.6059080963
 11
134.2264770241
 21
106.6059080963
  0
LINE
  8
0
 62
7
  6
CONTINUOUS
 10
91.2471760226
 20
101.0059080963
 11
91.2471760226
 21
100.8059080963
  0
LINE
  8
0
 62
7
  6
CONTINUOUS
 10
91.3595065385
 20
101.0059080963
 11
91.3595065385
 21
100.8059080963
  0
LINE
  8
0
 62
7
  6
CONTINUOUS
 10
91.49128203
 20
101.0059080963
 11
91.49128203
 21
100.8059080963
  0
LINE
  8
0
 62
7
  6
CONTINUOUS
 10
91.5253687474
 20
101.0059080963
 11
91.5253687474
 21
100.8059080963
  0
LINE
  8
0
 62
7
  6
CONTINUOUS
 10
91.5301711063
 20
101.0059080963
 11
91.5301711063
 21
100.8059080963
  0
LINE
  8
0
 62
9
  6
CONTINUOUS
 10
93.8740516417
 20
106.6059080963
 11
93.8740516417
 21
120.4059080963
  0
POLYLINE
  8
0
 62
9
  6
CONTINUOUS
 66
1
 70
0
  0
VERTEX
  8
0
 62
9
  6
CONTINUOUS
 10
95.3764770241
 20
105.6059080963
  0
VERTEX
  8
0
 62
9
  6
CONTINUOUS
 10
95.3630096117
 20
105.7957623685
  0
VERTEX
  8
0
 62
9
  6
CONTINUOUS
 10
95.3579111915
 20
106.0169447821
  0
VERTEX
  8
0
 62
9
  6
CONTINUOUS
 10
95.3535040511
 20
106.6059080963
  0
SEQEND
  0
LINE
  8
0
 62
9
  6
CONTINUOUS
 10
94.3930634604
 20
106.6059080963
 11
94.3930634604
 21
120.4059080963
  0
LINE
  8
0
 62
9
  6
CONTINUOUS
 10
95.3535040511
 20
106.6059080963
 11
95.3535040511
 21
120.4059080963
  0
LINE
  8
AXES
 62
2
  6
CENTER
 10
96.2264770241
 20
99.0059080963
 11
96.2264770241
 21
128.0059080963
  0
POLYLINE
  8
0
 62
9
  6
CONTINUOUS
 66
1
 70
0
  0
VERTEX
  8
0
 62
9
  6
CONTINUOUS
 10
95.3764770241
 20
121.4059080963
  0
VERTEX
  8
0
 62
9
  6
CONTINUOUS
 10
95.3629738494
 20
121.2149250907
  0
VERTEX
  8
0
 62
9
  6
CONTINUOUS
 10
95.3578914985
 20
120.9936933486
  0
VERTEX
  8
0
 62
9
  6
CONTINUOUS
 10
95.3535040511
 20
120.4059080963
  0
SEQEND
  0
POLYLINE
  8
0
 62
9
  6
CONTINUOUS
 66
1
 70
0
  0
VERTEX
  8
0
 62
9
  6
CONTINUOUS
 10
112.1289756346
 20
121.4059080963
  0
VERTEX
  8
0
 62
9
  6
CONTINUOUS
 10
111.6816872657
 20
121.2149250908
  0
VERTEX
  8
0
 62
9
  6
CONTINUOUS
 10
111.5133360108
 20
120.9936933489
  0
VERTEX
  8
0
 62
9
  6
CONTINUOUS
 10
111.3680032083
 20
120.4059080963
  0
SEQEND
  0
POLYLINE
  8
0
 62
9
  6
CONTINUOUS
 66
1
 70
0
  0
VERTEX
  8
0
 62
9
  6
CONTINUOUS
 10
113.9854730298
 20
121.4059080963
  0
VERTEX
  8
0
 62
9
  6
CONTINUOUS
 10
113.5393692762
 20
121.216053824
  0
VERTEX
  8
0
 62
9
  6
CONTINUOUS
 10
113.3704857285
 20
120.9948714105
  0
VERTEX
  8
0
 62
9
  6
CONTINUOUS
 10
113.2245006035
 20
120.4059080963
  0
SEQEND
  0
POLYLINE
  8
0
 62
9
  6
CONTINUOUS
 66
1
 70
0
  0
VERTEX
  8
0
 62
9
  6
CONTINUOUS
 10
78.4674810183
 20
105.6059080963
  0
VERTEX
  8
0
 62
9
  6
CONTINUOUS
 10
78.9135847719
 20
105.7957623685
  0
VERTEX
  8
0
 62
9
  6
CONTINUOUS
 10
79.0824683197
 20
106.0169447821
  0
VERTEX
  8
0
 62
9
  6
CONTINUOUS
 10
79.2284534446
 20
106.6059080963
  0
SEQEND
  0
LINE
  8
DEFAULT_1
 62
2
  6
CENTER
 10
56.2264770241
 20
113.5059080963
 11
136.2264770241
 21
113.5059080963
  0
POLYLINE
  8
0
 62
9
  6
CONTINUOUS
 66
1
 70
0
  0
VERTEX
  8
0
 62
9
  6
CONTINUOUS
 10
112.1289756346
 20
105.6059080963
  0
VERTEX
  8
0
 62
9
  6
CONTINUOUS
 10
111.6816829147
 20
105.7968952564
  0
VERTEX
  8
0
 62
9
  6
CONTINUOUS
 10
111.5133331279
 20
106.0181280585
  0
VERTEX
  8
0
 62
9
  6
CONTINUOUS
 10
111.3680032104
 20
106.6059080963
  0
SEQEND
  0
POLYLINE
  8
0
 62
9
  6
CONTINUOUS
 66
1
 70
0
  0
VERTEX
  8
0
 62
9
  6
CONTINUOUS
 10
113.9854730298
 20
105.6059080963
  0
VERTEX
  8
0
 62
9
  6
CONTINUOUS
 10
113.5381846602
 20
105.7968911019
  0
VERTEX
  8
0
 62
9
  6
CONTINUOUS
 10
113.3698334047
 20
106.018122844
  0
VERTEX
  8
0
 62
9
  6
CONTINUOUS
 10
113.2245006035
 20
106.6059080963
  0
SEQEND
  0
POLYLINE
  8
0
 62
9
  6
CONTINUOUS
 66
1
 70
0
  0
VERTEX
  8
0
 62
9
  6
CONTINUOUS
 10
97.0764770241
 20
121.4059080963
  0
VERTEX
  8
0
 62
9
  6
CONTINUOUS
 10
97.0899444364
 20
121.216053824
  0
VERTEX
  8
0
 62
9
  6
CONTINUOUS
 10
97.0950428566
 20
120.9948714105
  0
VERTEX
  8
0
 62
9
  6
CONTINUOUS
 10
97.099449997
 20
120.4059080963
  0
SEQEND
  0
LINE
  8
0
 62
9
  6
CONTINUOUS
 10
97.099449997
 20
106.6059080963
 11
97.099449997
 21
120.4059080963
  0
LINE
  8
0
 62
7
  6
CONTINUOUS
 10
98.0401407931
 20
101.0059080963
 11
98.0401407931
 21
100.8059080963
  0
LINE
  8
0
 62
9
  6
CONTINUOUS
 10
98.0598905877
 20
106.6059080963
 11
98.0598905877
 21
120.4059080963
  0
LINE
  8
0
 62
7
  6
CONTINUOUS
 10
98.0999206171
 20
101.0059080963
 11
98.0999206171
 21
100.8059080963
  0
LINE
  8
0
 62
7
  6
CONTINUOUS
 10
98.3539848836
 20
101.0059080963
 11
98.3539848836
 21
100.8059080963
  0
LINE
  8
0
 62
7
  6
CONTINUOUS
 10
98.3913472703
 20
101.0059080963
 11
98.3913472703
 21
100.8059080963
  0
LINE
  8
0
 62
9
  6
CONTINUOUS
 10
98.5789024064
 20
106.6059080963
 11
98.5789024064
 21
120.4059080963
  0
POLYLINE
  8
0
 62
9
  6
CONTINUOUS
 66
1
 70
0
  0
VERTEX
  8
0
 62
9
  6
CONTINUOUS
 10
97.0764770241
 20
105.6059080963
  0
VERTEX
  8
0
 62
9
  6
CONTINUOUS
 10
97.0899801988
 20
105.7968911019
  0
VERTEX
  8
0
 62
9
  6
CONTINUOUS
 10
97.0950625496
 20
106.018122844
  0
VERTEX
  8
0
 62
9
  6
CONTINUOUS
 10
97.099449997
 20
106.6059080963
  0
SEQEND
  0
POLYLINE
  8
0
 62
9
  6
CONTINUOUS
 66
1
 70
0
  0
VERTEX
  8
0
 62
9
  6
CONTINUOUS
 10
80.3239784135
 20
105.6059080963
  0
VERTEX
  8
0
 62
9
  6
CONTINUOUS
 10
80.7712667828
 20
105.7968911018
  0
VERTEX
  8
0
 62
9
  6
CONTINUOUS
 10
80.9396180379
 20
106.0181228439
  0
VERTEX
  8
0
 62
9
  6
CONTINUOUS
 10
81.0849508399
 20
106.6059080963
  0
SEQEND
  0
POLYLINE
  8
0
 62
9
  6
CONTINUOUS
 66
1
 70
0
  0
VERTEX
  8
0
 62
9
  6
CONTINUOUS
 10
78.4674810183
 20
121.4059080963
  0
VERTEX
  8
0
 62
9
  6
CONTINUOUS
 10
78.9147693879
 20
121.2149250907
  0
VERTEX
  8
0
 62
9
  6
CONTINUOUS
 10
79.0831206435
 20
120.9936933486
  0
VERTEX
  8
0
 62
9
  6
CONTINUOUS
 10
79.2284534446
 20
120.4059080963
  0
SEQEND
  0
POLYLINE
  8
0
 62
9
  6
CONTINUOUS
 66
1
 70
0
  0
VERTEX
  8
0
 62
9
  6
CONTINUOUS
 10
80.3239784135
 20
121.4059080963
  0
VERTEX
  8
0
 62
9
  6
CONTINUOUS
 10
80.7712694837
 20
121.2149225117
  0
VERTEX
  8
0
 62
9
  6
CONTINUOUS
 10
80.9396198229
 20
120.9936901198
  0
VERTEX
  8
0
 62
9
  6
CONTINUOUS
 10
81.0849508386
 20
120.4059080963
  0
SEQEND
  0
LINE
  8
0
 62
7
  6
CONTINUOUS
 10
100.0321168911
 20
101.0059080963
 11
100.0321168911
 21
100.8059080963
  0
LINE
  8
0
 62
7
  6
CONTINUOUS
 10
100.2413669
 20
101.0059080963
 11
100.2413669
 21
100.8059080963
  0
LINE
  8
0
 62
7
  6
CONTINUOUS
 10
100.3649607573
 20
101.0059080963
 11
100.3649607573
 21
100.8059080963
  0
LINE
  8
0
 62
7
  6
CONTINUOUS
 10
100.4560788464
 20
101.0059080963
 11
100.4560788464
 21
100.8059080963
  0
LINE
  8
0
 62
7
  6
CONTINUOUS
 10
100.7766855502
 20
101.0059080963
 11
100.7766855502
 21
100.8059080963
  0
LINE
  8
0
 62
7
  6
CONTINUOUS
 10
101.0175639538
 20
101.0059080963
 11
101.0175639538
 21
100.8059080963
  0
LINE
  8
0
 62
7
  6
CONTINUOUS
 10
101.3849876095
 20
101.0059080963
 11
101.3849876095
 21
100.8059080963
  0
LINE
  8
0
 62
7
  6
CONTINUOUS
 10
101.4839246349
 20
101.0059080963
 11
101.4839246349
 21
100.8059080963
  0
LINE
  8
0
 62
7
  6
CONTINUOUS
 10
101.6998535014
 20
101.0059080963
 11
101.6998535014
 21
100.8059080963
  0
LINE
  8
0
 62
7
  6
CONTINUOUS
 10
101.885813388
 20
101.0059080963
 11
101.885813388
 21
100.8059080963
  0
LINE
  8
0
 62
7
  6
CONTINUOUS
 10
102.1737841961
 20
101.0059080963
 11
102.1737841961
 21
100.8059080963
  0
LINE
  8
0
 62
7
  6
CONTINUOUS
 10
102.3297751028
 20
101.0059080963
 11
102.3297751028
 21
100.8059080963
  0
LINE
  8
0
 62
7
  6
CONTINUOUS
 10
102.5487778655
 20
101.0059080963
 11
102.5487778655
 21
100.8059080963
  0
LINE
  8
0
 62
7
  6
CONTINUOUS
 10
102.6747997923
 20
101.0059080963
 11
102.6747997923
 21
100.8059080963
  0
LINE
  8
0
 62
7
  6
CONTINUOUS
 10
102.7708545243
 20
101.0059080963
 11
102.7708545243
 21
100.8059080963
  0
LINE
  8
0
 62
9
  6
CONTINUOUS
 10
103.7061272719
 20
106.6059080963
 11
103.7061272719
 21
120.4059080963
  0
LINE
  8
0
 62
9
  6
CONTINUOUS
 10
104.174519566
 20
106.6059080963
 11
104.174519566
 21
120.4059080963
  0
POLYLINE
  8
0
 62
9
  6
CONTINUOUS
 66
1
 70
0
  0
VERTEX
  8
0
 62
9
  6
CONTINUOUS
 10
97.5954888428
 20
105.6059080963
  0
VERTEX
  8
0
 62
9
  6
CONTINUOUS
 10
98.1735248322
 20
105.7968911018
  0
VERTEX
  8
0
 62
9
  6
CONTINUOUS
 10
98.391087128
 20
106.0181228439
  0
VERTEX
  8
0
 62
9
  6
CONTINUOUS
 10
98.5789024064
 20
106.6059080963
  0
SEQEND
  0
POLYLINE
  8
0
 62
9
  6
CONTINUOUS
 66
1
 70
0
  0
VERTEX
  8
0
 62
9
  6
CONTINUOUS
 10
97.0764770241
 20
105.6059080963
  0
VERTEX
  8
0
 62
9
  6
CONTINUOUS
 10
97.6529821206
 20
105.7957623685
  0
VERTEX
  8
0
 62
9
  6
CONTINUOUS
 10
97.8712323039
 20
106.0169447821
  0
VERTEX
  8
0
 62
9
  6
CONTINUOUS
 10
98.0598905877
 20
106.6059080963
  0
SEQEND
  0
LINE
  8
0
 62
9
  6
CONTINUOUS
 10
58.2264770241
 20
120.4059080963
 11
134.2264770241
 21
120.4059080963
  0
LINE
  8
0
 62
7
  6
CONTINUOUS
 10
59.2362418261
 20
121.4059080963
 11
133.2166202014
 21
121.4059080963
  0
POLYLINE
  8
0
 62
9
  6
CONTINUOUS
 66
1
 70
0
  0
VERTEX
  8
0
 62
9
  6
CONTINUOUS
 10
97.0764770241
 20
121.4059080963
  0
VERTEX
  8
0
 62
9
  6
CONTINUOUS
 10
97.6545130137
 20
121.2149250907
  0
VERTEX
  8
0
 62
9
  6
CONTINUOUS
 10
97.8720753096
 20
120.9936933486
  0
VERTEX
  8
0
 62
9
  6
CONTINUOUS
 10
98.0598905877
 20
120.4059080963
  0
SEQEND
  0
POLYLINE
  8
0
 62
9
  6
CONTINUOUS
 66
1
 70
0
  0
VERTEX
  8
0
 62
9
  6
CONTINUOUS
 10
97.5954888428
 20
121.4059080963
  0
VERTEX
  8
0
 62
9
  6
CONTINUOUS
 10
98.173528323
 20
121.2149225117
  0
VERTEX
  8
0
 62
9
  6
CONTINUOUS
 10
98.391089435
 20
120.9936901198
  0
VERTEX
  8
0
 62
9
  6
CONTINUOUS
 10
98.5789024061
 20
120.4059080963
  0
SEQEND
  0
POLYLINE
  8
0
 62
9
  6
CONTINUOUS
 66
1
 70
0
  0
VERTEX
  8
0
 62
9
  6
CONTINUOUS
 10
103.4551744036
 20
105.6059080963
  0
VERTEX
  8
0
 62
9
  6
CONTINUOUS
 10
103.6026822349
 20
105.7968952564
  0
VERTEX
  8
0
 62
9
  6
CONTINUOUS
 10
103.6582004916
 20
106.0181280585
  0
VERTEX
  8
0
 62
9
  6
CONTINUOUS
 10
103.7061272752
 20
106.6059080963
  0
SEQEND
  0
POLYLINE
  8
0
 62
9
  6
CONTINUOUS
 66
1
 70
0
  0
VERTEX
  8
0
 62
9
  6
CONTINUOUS
 10
103.907851472
 20
105.6059080963
  0
VERTEX
  8
0
 62
9
  6
CONTINUOUS
 10
104.0645950448
 20
105.7968911017
  0
VERTEX
  8
0
 62
9
  6
CONTINUOUS
 10
104.1235904918
 20
106.0181228437
  0
VERTEX
  8
0
 62
9
  6
CONTINUOUS
 10
104.174519566
 20
106.6059080963
  0
SEQEND
  0
POLYLINE
  8
0
 62
7
  6
CONTINUOUS
 66
1
 70
0
  0
VERTEX
  8
0
 62
7
  6
CONTINUOUS
 10
76.9952378319
 20
121.4059080963
  0
VERTEX
  8
0
 62
7
  6
CONTINUOUS
 10
76.7076398878
 20
121.3636593284
  0
VERTEX
  8
0
 62
7
  6
CONTINUOUS
 10
76.2268633444
 20
121.0459086017
  0
VERTEX
  8
0
 62
7
  6
CONTINUOUS
 10
76.068458641
 20
120.7815147141
  0
VERTEX
  8
0
 62
7
  6
CONTINUOUS
 10
75.9952379646
 20
120.4059080963
  0
SEQEND
  0
LINE
  8
AXES
 62
9
  6
CONTINUOUS
 10
68.2264770241
 20
122.2059080963
 11
124.2264770241
 21
122.2059080963
  0
POLYLINE
  8
0
 62
9
  6
CONTINUOUS
 66
1
 70
0
  0
VERTEX
  8
0
 62
9
  6
CONTINUOUS
 10
103.9078514719
 20
121.4059080963
  0
VERTEX
  8
0
 62
9
  6
CONTINUOUS
 10
104.0645959906
 20
121.2149225117
  0
VERTEX
  8
0
 62
9
  6
CONTINUOUS
 10
104.1235911162
 20
120.9936901198
  0
VERTEX
  8
0
 62
9
  6
CONTINUOUS
 10
104.174519564
 20
120.4059080963
  0
SEQEND
  0
POLYLINE
  8
0
 62
9
  6
CONTINUOUS
 66
1
 70
0
  0
VERTEX
  8
0
 62
9
  6
CONTINUOUS
 10
103.4551744034
 20
121.4059080963
  0
VERTEX
  8
0
 62
9
  6
CONTINUOUS
 10
103.6026807985
 20
121.2149250908
  0
VERTEX
  8
0
 62
9
  6
CONTINUOUS
 10
103.6581995388
 20
120.9936933487
  0
VERTEX
  8
0
 62
9
  6
CONTINUOUS
 10
103.7061272719
 20
120.4059080963
  0
SEQEND
  0
LINE
  8
0
 62
7
  6
CONTINUOUS
 10
107.3315104467
 20
101.0059080963
 11
107.3315104467
 21
100.8059080963
  0
LINE
  8
0
 62
7
  6
CONTINUOUS
 10
108.8773918116
 20
101.0059080963
 11
108.8773918116
 21
100.8059080963
  0
LINE
  8
0
 62
7
  6
CONTINUOUS
 10
109.5118701023
 20
101.0059080963
 11
109.5118701023
 21
100.8059080963
  0
LINE
  8
0
 62
7
  6
CONTINUOUS
 10
109.6111611838
 20
101.0059080963
 11
109.6111611838
 21
100.8059080963
  0
LINE
  8
0
 62
7
  6
CONTINUOUS
 10
109.6182351055
 20
101.0059080963
 11
109.6182351055
 21
100.8059080963
  0
LINE
  8
AXES
 62
9
  6
CONTINUOUS
 10
68.2264770241
 20
125.0059080963
 11
124.2264770241
 21
125.0059080963
  0
LINE
  8
AXES
 62
7
  6
CONTINUOUS
 10
123.2264770241
 20
126.0059080963
 11
69.2264770241
 21
126.0059080963
  0
POLYLINE
  8
0
 62
7
  6
CONTINUOUS
 66
1
 70
0
  0
VERTEX
  8
0
 62
7
  6
CONTINUOUS
 10
115.4577162163
 20
121.4059080963
  0
VERTEX
  8
0
 62
7
  6
CONTINUOUS
 10
116.0534225478
 20
121.2091104161
  0
VERTEX
  8
0
 62
7
  6
CONTINUOUS
 10
116.2791511617
 20
120.9762103236
  0
VERTEX
  8
0
 62
7
  6
CONTINUOUS
 10
116.4577148415
 20
120.4059080963
  0
SEQEND
  0
LINE
  8
0
 62
7
  6
CONTINUOUS
 10
110.5580725303
 20
101.0059080963
 11
110.5580725303
 21
100.8059080963
  0
LINE
  8
0
 62
7
  6
CONTINUOUS
 10
110.734616878
 20
101.0059080963
 11
110.734616878
 21
100.8059080963
  0
LINE
  8
0
 62
7
  6
CONTINUOUS
 10
110.8778608149
 20
101.0059080963
 11
110.8778608149
 21
100.8059080963
  0
LINE
  8
0
 62
7
  6
CONTINUOUS
 10
111.1059915166
 20
101.0059080963
 11
111.1059915166
 21
100.8059080963
  0
LINE
  8
0
 62
7
  6
CONTINUOUS
 10
111.3128345046
 20
101.0059080963
 11
111.3128345046
 21
100.8059080963
  0
LINE
  8
0
 62
9
  6
CONTINUOUS
 10
111.3680032083
 20
106.6059080963
 11
111.3680032083
 21
120.4059080963
  0
LINE
  8
0
 62
7
  6
CONTINUOUS
 10
111.5157747674
 20
101.0059080963
 11
111.5157747674
 21
100.8059080963
  0
LINE
  8
0
 62
7
  6
CONTINUOUS
 10
111.6413684685
 20
101.0059080963
 11
111.6413684685
 21
100.8059080963
  0
LINE
  8
0
 62
7
  6
CONTINUOUS
 10
111.7109063963
 20
101.0059080963
 11
111.7109063963
 21
100.8059080963
  0
LINE
  8
0
 62
7
  6
CONTINUOUS
 10
111.7591551274
 20
101.0059080963
 11
111.7591551274
 21
100.8059080963
  0
POLYLINE
  8
0
 62
9
  6
CONTINUOUS
 66
1
 70
0
  0
VERTEX
  8
0
 62
9
  6
CONTINUOUS
 10
125.1394244036
 20
121.4059080963
  0
VERTEX
  8
0
 62
9
  6
CONTINUOUS
 10
124.9427342121
 20
121.2149250908
  0
VERTEX
  8
0
 62
9
  6
CONTINUOUS
 10
124.8687035809
 20
120.9936933489
  0
VERTEX
  8
0
 62
9
  6
CONTINUOUS
 10
124.8047950616
 20
120.4059080963
  0
SEQEND
  0
POLYLINE
  8
0
 62
9
  6
CONTINUOUS
 66
1
 70
0
  0
VERTEX
  8
0
 62
9
  6
CONTINUOUS
 10
127.8359603975
 20
121.4059080963
  0
VERTEX
  8
0
 62
9
  6
CONTINUOUS
 10
127.6397911273
 20
121.216053824
  0
VERTEX
  8
0
 62
9
  6
CONTINUOUS
 10
127.5655264253
 20
120.9948714105
  0
VERTEX
  8
0
 62
9
  6
CONTINUOUS
 10
127.5013310556
 20
120.4059080963
  0
SEQEND
  0
POLYLINE
  8
0
 62
9
  6
CONTINUOUS
 66
1
 70
0
  0
VERTEX
  8
0
 62
9
  6
CONTINUOUS
 10
116.4283226057
 20
105.6059080963
  0
VERTEX
  8
0
 62
9
  6
CONTINUOUS
 10
116.8405587605
 20
105.7968952564
  0
VERTEX
  8
0
 62
9
  6
CONTINUOUS
 10
116.9957141337
 20
106.0181280585
  0
VERTEX
  8
0
 62
9
  6
CONTINUOUS
 10
117.1296538205
 20
106.6059080963
  0
SEQEND
  0
POLYLINE
  8
0
 62
9
  6
CONTINUOUS
 66
1
 70
0
  0
VERTEX
  8
0
 62
9
  6
CONTINUOUS
 10
116.7597052191
 20
105.6059080963
  0
VERTEX
  8
0
 62
9
  6
CONTINUOUS
 10
117.178699446
 20
105.7968911017
  0
VERTEX
  8
0
 62
9
  6
CONTINUOUS
 10
117.336401298
 20
106.0181228437
  0
VERTEX
  8
0
 62
9
  6
CONTINUOUS
 10
117.4725407752
 20
106.6059080963
  0
SEQEND
  0
POLYLINE
  8
0
 62
9
  6
CONTINUOUS
 66
1
 70
0
  0
VERTEX
  8
0
 62
9
  6
CONTINUOUS
 10
116.759705219
 20
121.4059080963
  0
VERTEX
  8
0
 62
9
  6
CONTINUOUS
 10
117.178701976
 20
121.2149225117
  0
VERTEX
  8
0
 62
9
  6
CONTINUOUS
 10
117.3364029695
 20
120.9936901198
  0
VERTEX
  8
0
 62
9
  6
CONTINUOUS
 10
117.4725407738
 20
120.4059080963
  0
SEQEND
  0
POLYLINE
  8
0
 62
9
  6
CONTINUOUS
 66
1
 70
0
  0
VERTEX
  8
0
 62
9
  6
CONTINUOUS
 10
116.4283226054
 20
121.4059080963
  0
VERTEX
  8
0
 62
9
  6
CONTINUOUS
 10
116.8405547491
 20
121.2149250908
  0
VERTEX
  8
0
 62
9
  6
CONTINUOUS
 10
116.9957114751
 20
120.9936933487
  0
VERTEX
  8
0
 62
9
  6
CONTINUOUS
 10
117.1296538181
 20
120.4059080963
  0
SEQEND
  0
POLYLINE
  8
0
 62
9
  6
CONTINUOUS
 66
1
 70
0
  0
VERTEX
  8
0
 62
9
  6
CONTINUOUS
 10
125.1394244036
 20
105.6059080963
  0
VERTEX
  8
0
 62
9
  6
CONTINUOUS
 10
124.9427322994
 20
105.7968952564
  0
VERTEX
  8
0
 62
9
  6
CONTINUOUS
 10
124.8687023134
 20
106.0181280585
  0
VERTEX
  8
0
 62
9
  6
CONTINUOUS
 10
124.8047950648
 20
106.6059080963
  0
SEQEND
  0
LINE
  8
0
 62
9
  6
CONTINUOUS
 10
113.2245006035
 20
106.6059080963
 11
113.2245006035
 21
120.4059080963
  0
LINE
  8
0
 62
9
  6
CONTINUOUS
 10
114.4654458949
 20
106.6059080963
 11
114.4654458949
 21
120.4059080963
  0
POLYLINE
  8
0
 62
9
  6
CONTINUOUS
 66
1
 70
0
  0
VERTEX
  8
0
 62
9
  6
CONTINUOUS
 10
113.9854730298
 20
105.6059080963
  0
VERTEX
  8
0
 62
9
  6
CONTINUOUS
 10
114.2668468212
 20
105.7957623685
  0
VERTEX
  8
0
 62
9
  6
CONTINUOUS
 10
114.3733677902
 20
106.0169447821
  0
VERTEX
  8
0
 62
9
  6
CONTINUOUS
 10
114.4654458949
 20
106.6059080963
  0
SEQEND
  0
POLYLINE
  8
0
 62
9
  6
CONTINUOUS
 66
1
 70
0
  0
VERTEX
  8
0
 62
9
  6
CONTINUOUS
 10
115.4577162163
 20
105.6059080963
  0
VERTEX
  8
0
 62
9
  6
CONTINUOUS
 10
115.7632253725
 20
105.7968911019
  0
VERTEX
  8
0
 62
9
  6
CONTINUOUS
 10
115.8782134954
 20
106.018122844
  0
VERTEX
  8
0
 62
9
  6
CONTINUOUS
 10
115.9774794377
 20
106.6059080963
  0
SEQEND
  0
POLYLINE
  8
0
 62
9
  6
CONTINUOUS
 66
1
 70
0
  0
VERTEX
  8
0
 62
9
  6
CONTINUOUS
 10
127.8359603975
 20
105.6059080963
  0
VERTEX
  8
0
 62
9
  6
CONTINUOUS
 10
128.3367815124
 20
105.7957623685
  0
VERTEX
  8
0
 62
9
  6
CONTINUOUS
 10
128.526379663
 20
106.0169447821
  0
VERTEX
  8
0
 62
9
  6
CONTINUOUS
 10
128.6902707589
 20
106.6059080963
  0
SEQEND
  0
POLYLINE
  8
0
 62
9
  6
CONTINUOUS
 66
1
 70
0
  0
VERTEX
  8
0
 62
9
  6
CONTINUOUS
 10
128.6859603975
 20
105.6059080963
  0
VERTEX
  8
0
 62
9
  6
CONTINUOUS
 10
129.2016146035
 20
105.7968911019
  0
VERTEX
  8
0
 62
9
  6
CONTINUOUS
 10
129.3956975239
 20
106.018122844
  0
VERTEX
  8
0
 62
9
  6
CONTINUOUS
 10
129.5632437319
 20
106.6059080963
  0
SEQEND
  0
POLYLINE
  8
0
 62
7
  6
CONTINUOUS
 66
1
 70
0
  0
VERTEX
  8
0
 62
7
  6
CONTINUOUS
 10
128.6859603975
 20
105.6059080963
  0
VERTEX
  8
0
 62
7
  6
CONTINUOUS
 10
129.2980219698
 20
105.8150979853
  0
VERTEX
  8
0
 62
7
  6
CONTINUOUS
 10
129.5265461835
 20
106.0642296527
  0
SEQEND
  0
POLYLINE
  8
0
 62
7
  6
CONTINUOUS
 66
1
 70
0
  0
VERTEX
  8
0
 62
7
  6
CONTINUOUS
 10
133.216712222
 20
105.6059080963
  0
VERTEX
  8
0
 62
7
  6
CONTINUOUS
 10
133.8027860472
 20
105.7957623685
  0
VERTEX
  8
0
 62
7
  6
CONTINUOUS
 10
134.0246587081
 20
106.0169447821
  0
VERTEX
  8
0
 62
7
  6
CONTINUOUS
 10
134.2164483085
 20
106.6059080963
  0
SEQEND
  0
POLYLINE
  8
0
 62
7
  6
CONTINUOUS
 66
1
 70
0
  0
VERTEX
  8
0
 62
7
  6
CONTINUOUS
 10
128.6859603975
 20
121.4059080963
  0
VERTEX
  8
0
 62
7
  6
CONTINUOUS
 10
129.2719898873
 20
121.2161978204
  0
VERTEX
  8
0
 62
7
  6
CONTINUOUS
 10
129.6460573603
 20
120.6855754377
  0
SEQEND
  0
POLYLINE
  8
0
 62
9
  6
CONTINUOUS
 66
1
 70
0
  0
VERTEX
  8
0
 62
9
  6
CONTINUOUS
 10
128.6859603975
 20
121.4059080963
  0
VERTEX
  8
0
 62
9
  6
CONTINUOUS
 10
129.2002489248
 20
121.216053824
  0
VERTEX
  8
0
 62
9
  6
CONTINUOUS
 10
129.3949454956
 20
120.9948714105
  0
VERTEX
  8
0
 62
9
  6
CONTINUOUS
 10
129.5632437319
 20
120.4059080963
  0
SEQEND
  0
POLYLINE
  8
0
 62
9
  6
CONTINUOUS
 66
1
 70
0
  0
VERTEX
  8
0
 62
9
  6
CONTINUOUS
 10
127.8359603975
 20
121.4059080963
  0
VERTEX
  8
0
 62
9
  6
CONTINUOUS
 10
128.3381114288
 20
121.2149250907
  0
VERTEX
  8
0
 62
9
  6
CONTINUOUS
 10
128.5271119983
 20
120.9936933486
  0
VERTEX
  8
0
 62
9
  6
CONTINUOUS
 10
128.6902707589
 20
120.4059080963
  0
SEQEND
  0
POLYLINE
  8
0
 62
9
  6
CONTINUOUS
 66
1
 70
0
  0
VERTEX
  8
0
 62
9
  6
CONTINUOUS
 10
115.4577162163
 20
121.4059080963
  0
VERTEX
  8
0
 62
9
  6
CONTINUOUS
 10
115.7624162501
 20
121.216053824
  0
VERTEX
  8
0
 62
9
  6
CONTINUOUS
 10
115.877767942
 20
120.9948714105
  0
VERTEX
  8
0
 62
9
  6
CONTINUOUS
 10
115.9774794377
 20
120.4059080963
  0
SEQEND
  0
POLYLINE
  8
0
 62
9
  6
CONTINUOUS
 66
1
 70
0
  0
VERTEX
  8
0
 62
9
  6
CONTINUOUS
 10
113.9854730298
 20
121.4059080963
  0
VERTEX
  8
0
 62
9
  6
CONTINUOUS
 10
114.2675940014
 20
121.2149250907
  0
VERTEX
  8
0
 62
9
  6
CONTINUOUS
 10
114.3737792345
 20
120.9936933486
  0
VERTEX
  8
0
 62
9
  6
CONTINUOUS
 10
114.4654458949
 20
120.4059080963
  0
SEQEND
  0
POLYLINE
  8
0
 62
9
  6
CONTINUOUS
 66
1
 70
0
  0
VERTEX
  8
0
 62
9
  6
CONTINUOUS
 10
127.8359603975
 20
105.6059080963
  0
VERTEX
  8
0
 62
9
  6
CONTINUOUS
 10
127.6392702053
 20
105.7968911019
  0
VERTEX
  8
0
 62
9
  6
CONTINUOUS
 10
127.565239573
 20
106.018122844
  0
VERTEX
  8
0
 62
9
  6
CONTINUOUS
 10
127.5013310556
 20
106.6059080963
  0
SEQEND
  0
LINE
  8
0
 62
9
  6
CONTINUOUS
 10
115.9774794377
 20
106.6059080963
 11
115.9774794377
 21
120.4059080963
  0
LINE
  8
0
 62
7
  6
CONTINUOUS
 10
116.4577162163
 20
120.4059080963
 11
116.4577162163
 21
106.6059080963
  0
LINE
  8
0
 62
9
  6
CONTINUOUS
 10
117.1296538181
 20
106.6059080963
 11
117.1296538181
 21
120.4059080963
  0
LINE
  8
0
 62
9
  6
CONTINUOUS
 10
117.4725407752
 20
106.6059080963
 11
117.4725407752
 21
120.4059080963
  0
POLYLINE
  8
0
 62
9
  6
CONTINUOUS
 66
1
 70
0
  0
VERTEX
  8
0
 62
9
  6
CONTINUOUS
 10
133.216712222
 20
121.4059080963
  0
VERTEX
  8
0
 62
9
  6
CONTINUOUS
 10
133.8043423498
 20
121.2149250907
  0
VERTEX
  8
0
 62
9
  6
CONTINUOUS
 10
134.0255157058
 20
120.9936933486
  0
VERTEX
  8
0
 62
9
  6
CONTINUOUS
 10
134.2164483085
 20
120.4059080963
  0
SEQEND
  0
LINE
  8
AXES
 62
7
  6
CONTINUOUS
 10
124.2264770241
 20
125.0059080963
 11
124.2264770241
 21
122.2059080963
  0
LINE
  8
AXES
 62
7
  6
CONTINUOUS
 10
124.2264770241
 20
104.8059080963
 11
124.2264770241
 21
102.0059080963
  0
LINE
  8
0
 62
9
  6
CONTINUOUS
 10
124.8047950616
 20
106.6059080963
 11
124.8047950616
 21
120.4059080963
  0
LINE
  8
0
 62
9
  6
CONTINUOUS
 10
127.5013310556
 20
106.6059080963
 11
127.5013310556
 21
120.4059080963
  0
LINE
  8
0
 62
9
  6
CONTINUOUS
 10
128.6902707589
 20
106.6059080963
 11
128.6902707589
 21
120.4059080963
  0
LINE
  8
0
 62
9
  6
CONTINUOUS
 10
129.5632437319
 20
106.6059080963
 11
129.5632437319
 21
120.4059080963
  0
LINE
  8
0
 62
7
  6
CONTINUOUS
 10
129.6859603975
 20
120.4059080963
 11
129.6859603975
 21
106.6059080963
  0
LINE
  8
0
 62
9
  6
CONTINUOUS
 10
130.5840496758
 20
106.6059080963
 11
130.5840496758
 21
120.4059080963
  0
LINE
  8
0
 62
7
  6
CONTINUOUS
 10
129.5265461835
 20
106.0642296527
 11
129.685953931
 21
106.6059080963
  0
POLYLINE
  8
0
 62
9
  6
CONTINUOUS
 66
1
 70
0
  0
VERTEX
  8
0
 62
9
  6
CONTINUOUS
 10
130.4026722714
 20
105.6059080963
  0
VERTEX
  8
0
 62
9
  6
CONTINUOUS
 10
130.5092842734
 20
105.7968952564
  0
VERTEX
  8
0
 62
9
  6
CONTINUOUS
 10
130.5494103632
 20
106.0181280585
  0
VERTEX
  8
0
 62
9
  6
CONTINUOUS
 10
130.5840496791
 20
106.6059080963
  0
SEQEND
  0
POLYLINE
  8
0
 62
9
  6
CONTINUOUS
 66
1
 70
0
  0
VERTEX
  8
0
 62
9
  6
CONTINUOUS
 10
130.4026722714
 20
121.4059080963
  0
VERTEX
  8
0
 62
9
  6
CONTINUOUS
 10
130.5092832354
 20
121.2149250908
  0
VERTEX
  8
0
 62
9
  6
CONTINUOUS
 10
130.5494096757
 20
120.9936933489
  0
VERTEX
  8
0
 62
9
  6
CONTINUOUS
 10
130.5840496758
 20
120.4059080963
  0
SEQEND
  0
LINE
  8
0
 62
7
  6
CONTINUOUS
 10
129.6460573603
 20
120.6855754377
 11
129.6859596669
 21
120.4059080963
  0
LINE
  8
0
 62
9
  6
CONTINUOUS
 10
133.3980896265
 20
106.6059080963
 11
133.3980896265
 21
120.4059080963
  0
LINE
  8
0
 62
9
  6
CONTINUOUS
 10
134.2164483085
 20
106.6059080963
 11
134.2164483085
 21
120.4059080963
  0
LINE
  8
0
 62
7
  6
CONTINUOUS
 10
134.2264770241
 20
120.4059080963
 11
134.2264770241
 21
106.6059080963
  0
POLYLINE
  8
0
 62
9
  6
CONTINUOUS
 66
1
 70
0
  0
VERTEX
  8
0
 62
9
  6
CONTINUOUS
 10
133.216712222
 20
105.6059080963
  0
VERTEX
  8
0
 62
9
  6
CONTINUOUS
 10
133.3233231855
 20
105.7968911019
  0
VERTEX
  8
0
 62
9
  6
CONTINUOUS
 10
133.3634496246
 20
106.018122844
  0
VERTEX
  8
0
 62
9
  6
CONTINUOUS
 10
133.3980896265
 20
106.6059080963
  0
SEQEND
  0
POLYLINE
  8
0
 62
9
  6
CONTINUOUS
 66
1
 70
0
  0
VERTEX
  8
0
 62
9
  6
CONTINUOUS
 10
133.216712222
 20
121.4059080963
  0
VERTEX
  8
0
 62
9
  6
CONTINUOUS
 10
133.3230408328
 20
121.216053824
  0
VERTEX
  8
0
 62
9
  6
CONTINUOUS
 10
133.3632941436
 20
120.9948714105
  0
VERTEX
  8
0
 62
9
  6
CONTINUOUS
 10
133.3980896265
 20
120.4059080963
  0
SEQEND
  0
ARC
  8
0
 62
7
  6
CONTINUOUS
 10
60.5992625413
 20
198.7286687312
 40
7.0
 50
14.5339051933
 51
79.55
  0
ARC
  8
0
 62
7
  6
CONTINUOUS
 10
60.754244052
 20
198.1502698591
 40
7.0
 50
310.45
 51
15.4660948067
  0
ARC
  8
0
 62
7
  6
CONTINUOUS
 10
69.9905643799
 20
182.1524937763
 40
7.0
 50
44.5339051933
 51
109.55
  0
ARC
  8
0
 62
7
  6
CONTINUOUS
 10
70.4139817412
 20
181.7290764149
 40
7.0
 50
340.45
 51
45.4660948067
  0
ARC
  8
0
 62
7
  6
CONTINUOUS
 10
86.4117578241
 20
172.492756087
 40
7.0
 50
74.5339051933
 51
139.55
  0
ARC
  8
0
 62
7
  6
CONTINUOUS
 10
86.9901566962
 20
172.3377745763
 40
7.0
 50
10.45
 51
75.4660948067
  0
ARC
  8
DEFAULT_3
 62
2
  6
PHANTOM
 10
89.8314306418
 20
191.8740397996
 40
3.2
 50
2.2544307753
 51
45.0
  0
ARC
  8
DEFAULT_3
 62
2
  6
PHANTOM
 10
88.77077047
 20
192.9346999714
 40
3.2
 50
45.0
 51
86.4096221093
  0
ARC
  8
DEFAULT_3
 62
2
  6
PHANTOM
 10
89.1715571103
 20
199.3221384305
 40
3.2
 50
225.0
 51
266.4096221093
  0
ARC
  8
DEFAULT_3
 62
2
  6
PHANTOM
 10
87.5836263955
 20
200.9100691453
 40
3.2
 50
183.5903778907
 51
225.0
  0
ARC
  8
DEFAULT_3
 62
2
  6
PHANTOM
 10
81.1961879364
 20
200.509282505
 40
3.2
 50
3.5903778907
 51
45.0
  0
ARC
  8
DEFAULT_3
 62
2
  6
PHANTOM
 10
80.1355277646
 20
201.5699426768
 40
3.2
 50
45.0
 51
87.7455692247
  0
ARC
  8
0
 62
7
  6
CONTINUOUS
 10
59.2362418261
 20
207.1149890591
 40
1.0
 50
181.3163701989
 51
259.55
  0
ARC
  8
0
 62
7
  6
CONTINUOUS
 10
64.6169936507
 20
188.7337498669
 40
1.0
 50
211.3163701989
 51
289.55
  0
ARC
  8
0
 62
7
  6
CONTINUOUS
 10
63.7669936507
 20
190.2059930533
 40
1.0
 50
130.45
 51
208.6836298011
  0
ARC
  8
0
 62
7
  6
CONTINUOUS
 10
78.4674810183
 20
175.5055056857
 40
1.0
 50
241.3163701989
 51
319.55
  0
ARC
  8
0
 62
7
  6
CONTINUOUS
 10
76.9952378319
 20
176.3555056857
 40
1.0
 50
160.45
 51
238.6836298011
  0
ARC
  8
0
 62
7
  6
CONTINUOUS
 10
95.3764770241
 20
170.9747538611
 40
1.0
 50
190.45
 51
268.6836298011
  0
ARC
  8
0
 62
7
  6
CONTINUOUS
 10
86.9901566962
 20
243.5922035418
 40
7.0
 50
284.5339051933
 51
349.55
  0
ARC
  8
0
 62
7
  6
CONTINUOUS
 10
86.4117578241
 20
243.4372220312
 40
7.0
 50
220.45
 51
285.4660948067
  0
ARC
  8
0
 62
7
  6
CONTINUOUS
 10
70.4139817412
 20
234.2009017033
 40
7.0
 50
314.5339051933
 51
19.55
  0
ARC
  8
0
 62
7
  6
CONTINUOUS
 10
69.9905643799
 20
233.7774843419
 40
7.0
 50
250.45
 51
315.4660948067
  0
ARC
  8
0
 62
7
  6
CONTINUOUS
 10
60.754244052
 20
217.779708259
 40
7.0
 50
344.5339051933
 51
49.55
  0
ARC
  8
0
 62
7
  6
CONTINUOUS
 10
60.5992625413
 20
217.201309387
 40
7.0
 50
280.45
 51
345.4660948067
  0
ARC
  8
DEFAULT_3
 62
2
  6
PHANTOM
 10
80.3872851255
 20
207.9649890591
 40
3.2
 50
92.2544307753
 51
267.7455692247
  0
ARC
  8
DEFAULT_3
 62
2
  6
PHANTOM
 10
80.1355277646
 20
214.3600354413
 40
3.2
 50
272.2544307753
 51
315.0
  0
ARC
  8
DEFAULT_3
 62
2
  6
PHANTOM
 10
81.1961879364
 20
215.4206956131
 40
3.2
 50
315.0
 51
356.4096221093
  0
ARC
  8
DEFAULT_3
 62
2
  6
PHANTOM
 10
87.5836263955
 20
215.0199089728
 40
3.2
 50
135.0
 51
176.4096221093
  0
ARC
  8
DEFAULT_3
 62
2
  6
PHANTOM
 10
89.1715571103
 20
216.6078396877
 40
3.2
 50
93.5903778907
 51
135.0
  0
ARC
  8
DEFAULT_3
 62
2
  6
PHANTOM
 10
88.77077047
 20
222.9952781468
 40
3.2
 50
273.5903778907
 51
315.0
  0
ARC
  8
DEFAULT_3
 62
2
  6
PHANTOM
 10
89.8314306418
 20
224.0559383186
 40
3.2
 50
315.0
 51
357.7455692247
  0
ARC
  8
0
 62
7
  6
CONTINUOUS
 10
95.3764770241
 20
244.955224257
 40
1.0
 50
91.3163701989
 51
169.55
  0
ARC
  8
0
 62
7
  6
CONTINUOUS
 10
76.9952378319
 20
239.5744724325
 40
1.0
 50
121.3163701989
 51
199.55
  0
ARC
  8
0
 62
7
  6
CONTINUOUS
 10
78.4674810183
 20
240.4244724325
 40
1.0
 50
40.45
 51
118.6836298011
  0
ARC
  8
0
 62
7
  6
CONTINUOUS
 10
63.7669936507
 20
225.7239850648
 40
1.0
 50
151.3163701989
 51
229.55
  0
ARC
  8
0
 62
7
  6
CONTINUOUS
 10
64.6169936507
 20
227.1962282513
 40
1.0
 50
70.45
 51
148.6836298011
  0
ARC
  8
0
 62
7
  6
CONTINUOUS
 10
59.2362418261
 20
208.8149890591
 40
1.0
 50
100.45
 51
178.6836298011
  0
ARC
  8
0
 62
7
  6
CONTINUOUS
 10
105.462797352
 20
172.3377745763
 40
7.0
 50
104.5339051933
 51
169.55
  0
ARC
  8
0
 62
7
  6
CONTINUOUS
 10
106.041196224
 20
172.492756087
 40
7.0
 50
40.45
 51
105.4660948067
  0
ARC
  8
0
 62
7
  6
CONTINUOUS
 10
122.0389723069
 20
181.7290764149
 40
7.0
 50
134.5339051933
 51
199.55
  0
ARC
  8
0
 62
7
  6
CONTINUOUS
 10
122.4623896683
 20
182.1524937763
 40
7.0
 50
70.45
 51
135.4660948067
  0
ARC
  8
0
 62
7
  6
CONTINUOUS
 10
131.6987099962
 20
198.1502698591
 40
7.0
 50
164.5339051933
 51
229.55
  0
ARC
  8
0
 62
7
  6
CONTINUOUS
 10
131.8536915068
 20
198.7286687312
 40
7.0
 50
100.45
 51
165.4660948067
  0
ARC
  8
DEFAULT_3
 62
2
  6
PHANTOM
 10
102.6215234063
 20
191.8740397996
 40
3.2
 50
135.0
 51
177.7455692247
  0
ARC
  8
DEFAULT_3
 62
2
  6
PHANTOM
 10
96.2264770241
 20
192.1257971605
 40
3.2
 50
182.2544307753
 51
357.7455692247
  0
ARC
  8
DEFAULT_3
 62
2
  6
PHANTOM
 10
112.3174262835
 20
201.5699426768
 40
3.2
 50
92.2544307753
 51
135.0
  0
ARC
  8
DEFAULT_3
 62
2
  6
PHANTOM
 10
111.2567661118
 20
200.509282505
 40
3.2
 50
135.0
 51
176.4096221093
  0
ARC
  8
DEFAULT_3
 62
2
  6
PHANTOM
 10
104.8693276526
 20
200.9100691453
 40
3.2
 50
315.0
 51
356.4096221093
  0
ARC
  8
DEFAULT_3
 62
2
  6
PHANTOM
 10
103.2813969378
 20
199.3221384305
 40
3.2
 50
273.5903778907
 51
315.0
  0
ARC
  8
DEFAULT_3
 62
2
  6
PHANTOM
 10
103.6821835781
 20
192.9346999714
 40
3.2
 50
93.5903778907
 51
135.0
  0
ARC
  8
0
 62
7
  6
CONTINUOUS
 10
97.0764770241
 20
170.9747538611
 40
1.0
 50
271.3163701989
 51
349.55
  0
ARC
  8
0
 62
7
  6
CONTINUOUS
 10
115.4577162163
 20
176.3555056857
 40
1.0
 50
301.3163701989
 51
19.55
  0
ARC
  8
0
 62
7
  6
CONTINUOUS
 10
113.9854730298
 20
175.5055056857
 40
1.0
 50
220.45
 51
298.6836298011
  0
ARC
  8
0
 62
7
  6
CONTINUOUS
 10
128.6859603975
 20
190.2059930533
 40
1.0
 50
331.3163701989
 51
49.55
  0
ARC
  8
0
 62
7
  6
CONTINUOUS
 10
127.8359603975
 20
188.7337498669
 40
1.0
 50
250.45
 51
328.6836298011
  0
ARC
  8
0
 62
7
  6
CONTINUOUS
 10
133.216712222
 20
207.1149890591
 40
1.0
 50
280.45
 51
358.6836298011
  0
ARC
  8
0
 62
7
  6
CONTINUOUS
 10
96.2264770241
 20
207.9649890591
 40
28.8022222136
 50
344.5482257567
 51
345.4435754542
  0
ARC
  8
0
 62
7
  6
CONTINUOUS
 10
96.2264770241
 20
207.9649890591
 40
28.8022222136
 50
314.5465127017
 51
315.4435694388
  0
ARC
  8
0
 62
7
  6
CONTINUOUS
 10
96.2264770241
 20
207.9649890591
 40
28.8022222136
 50
284.5482258639
 51
285.4435753591
  0
ARC
  8
0
 62
7
  6
CONTINUOUS
 10
96.2264770241
 20
207.9649890591
 40
28.8022222136
 50
254.5465127635
 51
255.4435693736
  0
ARC
  8
0
 62
7
  6
CONTINUOUS
 10
96.2264770241
 20
207.9649890591
 40
28.8022222136
 50
224.5482258536
 51
225.4435753684
  0
ARC
  8
0
 62
7
  6
CONTINUOUS
 10
96.2264770241
 20
207.9649890591
 40
28.8022222136
 50
194.5465127418
 51
195.4435694133
  0
ARC
  8
0
 62
7
  6
CONTINUOUS
 10
96.2264770241
 20
207.9649890591
 40
28.8022222136
 50
164.5482258344
 51
165.4435753757
  0
ARC
  8
0
 62
7
  6
CONTINUOUS
 10
96.2264770241
 20
207.9649890591
 40
28.8022222136
 50
134.5465127452
 51
135.4435693971
  0
ARC
  8
0
 62
7
  6
CONTINUOUS
 10
96.2264770241
 20
207.9649890591
 40
28.8022222136
 50
104.5482258728
 51
105.443575353
  0
ARC
  8
0
 62
7
  6
CONTINUOUS
 10
96.2264770241
 20
207.9649890591
 40
28.8022222136
 50
74.5465127536
 51
75.4435693879
  0
ARC
  8
0
 62
7
  6
CONTINUOUS
 10
96.2264770241
 20
207.9649890591
 40
28.8022222136
 50
44.5482258095
 51
45.4435754194
  0
ARC
  8
0
 62
7
  6
CONTINUOUS
 10
96.2264770241
 20
207.9649890591
 40
28.8022222136
 50
14.5465126615
 51
15.4435695025
  0
CIRCLE
  8
AXES
 62
7
  6
CONTINUOUS
 10
96.2264770241
 20
207.9649890591
 40
28.0
  0
CIRCLE
  8
DEFAULT_3
 62
2
  6
PHANTOM
 10
96.2264770241
 20
207.9649890591
 40
5.0
  0
ARC
  8
DEFAULT_3
 62
2
  6
PHANTOM
 10
96.2264770241
 20
223.8041809577
 40
3.2
 50
5.6524743089
 51
11.7985016357
  0
ARC
  8
DEFAULT_3
 62
2
  6
PHANTOM
 10
96.2264770241
 20
223.8041809577
 40
3.2
 50
15.9738977583
 51
177.7455692247
  0
ARC
  8
DEFAULT_3
 62
2
  6
PHANTOM
 10
102.6215234063
 20
224.0559383186
 40
3.2
 50
204.4002496311
 51
225.0
  0
ARC
  8
DEFAULT_3
 62
2
  6
PHANTOM
 10
102.6215234063
 20
224.0559383186
 40
3.2
 50
183.3805243269
 51
202.1603625593
  0
ARC
  8
DEFAULT_3
 62
2
  6
PHANTOM
 10
103.6821835781
 20
222.9952781468
 40
3.2
 50
225.0
 51
266.4096221093
  0
ARC
  8
DEFAULT_3
 62
2
  6
PHANTOM
 10
103.2813969378
 20
216.6078396877
 40
3.2
 50
45.0
 51
86.4096221093
  0
ARC
  8
DEFAULT_3
 62
2
  6
PHANTOM
 10
104.8693276526
 20
215.0199089728
 40
3.2
 50
3.5903778907
 51
45.0
  0
ARC
  8
DEFAULT_3
 62
2
  6
PHANTOM
 10
111.2567661118
 20
215.4206956131
 40
3.2
 50
183.5903778907
 51
225.0
  0
ARC
  8
DEFAULT_3
 62
2
  6
PHANTOM
 10
112.3174262835
 20
214.3600354413
 40
3.2
 50
225.0
 51
267.7455692247
  0
ARC
  8
DEFAULT_3
 62
2
  6
PHANTOM
 10
112.0656689226
 20
207.9649890591
 40
3.2
 50
272.2544307753
 51
87.7455692247
  0
ARC
  8
0
 62
7
  6
CONTINUOUS
 10
105.462797352
 20
243.5922035418
 40
7.0
 50
190.45
 51
255.4660948067
  0
ARC
  8
0
 62
7
  6
CONTINUOUS
 10
106.041196224
 20
243.4372220312
 40
7.0
 50
254.5339051933
 51
319.55
  0
CIRCLE
  8
0
 62
7
  6
CONTINUOUS
 10
96.2264770241
 20
238.9649890591
 40
1.2990381057
  0
ARC
  8
0
 62
7
  6
CONTINUOUS
 10
97.0764770241
 20
244.955224257
 40
1.0
 50
10.45
 51
88.6836298011
  0
ARC
  8
0
 62
7
  6
CONTINUOUS
 10
113.9854730298
 20
240.4244724325
 40
1.0
 50
61.3163701989
 51
139.55
  0
ARC
  8
0
 62
7
  6
CONTINUOUS
 10
131.8536915068
 20
217.201309387
 40
7.0
 50
194.5339051933
 51
259.55
  0
ARC
  8
0
 62
7
  6
CONTINUOUS
 10
131.6987099962
 20
217.779708259
 40
7.0
 50
130.45
 51
195.4660948067
  0
ARC
  8
0
 62
7
  6
CONTINUOUS
 10
133.216712222
 20
208.8149890591
 40
1.0
 50
1.3163701989
 51
79.55
  0
ARC
  8
0
 62
7
  6
CONTINUOUS
 10
128.6859603975
 20
225.7239850648
 40
1.0
 50
310.45
 51
28.6836298011
  0
ARC
  8
0
 62
7
  6
CONTINUOUS
 10
122.0389723069
 20
234.2009017033
 40
7.0
 50
160.45
 51
225.4660948067
  0
ARC
  8
0
 62
7
  6
CONTINUOUS
 10
122.4623896683
 20
233.7774843419
 40
7.0
 50
224.5339051933
 51
289.55
  0
ARC
  8
0
 62
7
  6
CONTINUOUS
 10
115.4577162163
 20
239.5744724325
 40
1.0
 50
340.45
 51
58.6836298011
  0
ARC
  8
0
 62
7
  6
CONTINUOUS
 10
127.8359603975
 20
227.1962282513
 40
1.0
 50
31.3163701989
 51
109.55
  0
ARC
  8
0
 62
7
  6
CONTINUOUS
 10
59.2264770241
 20
106.6059080963
 40
1.0
 50
180.0
 51
270.0
  0
ARC
  8
AXES
 62
7
  6
CONTINUOUS
 10
69.2264770241
 20
102.0059080963
 40
1.0
 50
180.0
 51
270.0
  0
ARC
  8
AXES
 62
7
  6
CONTINUOUS
 10
67.4264770241
 20
104.8059080963
 40
0.8
 50
0.0
 51
90.0
  0
ARC
  8
0
 62
7
  6
CONTINUOUS
 10
59.2264770241
 20
120.4059080963
 40
1.0
 50
90.0
 51
180.0
  0
ARC
  8
AXES
 62
7
  6
CONTINUOUS
 10
69.2264770241
 20
125.0059080963
 40
1.0
 50
90.0
 51
180.0
  0
ARC
  8
AXES
 62
7
  6
CONTINUOUS
 10
67.4264770241
 20
122.2059080963
 40
0.8
 50
270.0
 51
360.0
  0
ARC
  8
0
 62
7
  6
CONTINUOUS
 10
133.2264770241
 20
106.6059080963
 40
1.0
 50
270.0
 51
360.0
  0
ARC
  8
AXES
 62
7
  6
CONTINUOUS
 10
123.2264770241
 20
102.0059080963
 40
1.0
 50
270.0
 51
360.0
  0
ARC
  8
AXES
 62
7
  6
CONTINUOUS
 10
125.0264770241
 20
104.8059080963
 40
0.8
 50
90.0
 51
180.0
  0
ARC
  8
0
 62
7
  6
CONTINUOUS
 10
133.2264770241
 20
120.4059080963
 40
1.0
 50
0.0
 51
90.0
  0
ARC
  8
AXES
 62
7
  6
CONTINUOUS
 10
123.2264770241
 20
125.0059080963
 40
1.0
 50
0.0
 51
90.0
  0
ARC
  8
AXES
 62
7
  6
CONTINUOUS
 10
125.0264770241
 20
122.2059080963
 40
0.8
 50
180.0
 51
270.0
  0
ENDSEC
  0
EOF
