  0
SECTION
  2
HEADER
  9
$EXTMAX
 10
210.0
 20
297.0
 30
0.0
  9
$EXTMIN
 10
0.0
 20
0.0
 30
0.0
  9
$LIMMIN
 10
0.0
 20
0.0
  9
$LIMMAX
 10
210.0
 20
297.0
  9
$VIEWCTR
 10
105.0
 20
148.5
  9
$VIEWSIZE
 40
297.0
  9
$CLAYER
  8
0
  9
$LTSCALE
 40
19.36
  9
$CELTYPE
  6
BYLAYER
  9
$DIMSCALE
 40
1.0
  9
$DIMASZ
 40
3.5
  9
$DIMEXO
 40
1.0
  9
$DIMDLI
 40
13.376
  9
$DIMEXE
 40
2.0
  9
$DIMCEN
 40
3.168
  9
$DIMLFAC
 40
1.0
  9
$DIMBLK
  1
_FILLED
  9
$DIMTXT
 40
3.5
  9
$PDMODE
 70
3
  9
$PDSIZE
 40
0.3125
  9
$TILEMODE
 70
1
  0
ENDSEC
  0
SECTION
  2
TABLES
  0
TABLE
  2
LTYPE
 70
6
  0
LTYPE
  2
BYBLOCK
 70
0
  3

 72
65
 73
0
 40
0.0
  0
LTYPE
  2
BYLAYER
 70
0
  3

 72
65
 73
0
 40
0.0
  0
LTYPE
  2
CONTINUOUS
 70
64
  3
Solid line
 72
65
 73
0
 40
0.0
  0
LTYPE
  2
CENTER
 70
64
  3
____ _ ____ _ ____ _ ____ _ ____ _ ____ _ ____
 72
65
 73
4
 40
0.6
 49
0.375
 49
-0.075
 49
0.075
 49
-0.075
  0
LTYPE
  2
HIDDEN
 70
64
  3
- - - - - - - - - - - - - - - - - - - -
 72
65
 73
2
 40
0.2
 49
0.1
 49
-0.1
  0
LTYPE
  2
PHANTOM
 70
64
  3
_____ _ _ _____ _ _ _____ _ _ _____
 72
65
 73
6
 40
0.8
 49
0.45
 49
-0.05
 49
0.1
 49
-0.05
 49
0.1
 49
-0.05
  0
LTYPE
  2
DOT
 70
64
  3
. . . . . . . . . . . . . . . . . . . .
 72
65
 73
2
 40
0.2
 49
0.1
 49
-0.1
  0
LTYPE
  2
DASHED
 70
64
  3
- - - - - - - - - - - - - - - - - - - -
 72
65
 73
2
 40
0.2
 49
0.1
 49
-0.1
  0
ENDTAB
  0
TABLE
  2
LAYER
 70
36
  0
LAYER
  2
0
 70
0
 62
7
  6
CONTINUOUS
  0
LAYER
  2
DEFAULT_1
 70
0
 62
7
  6
CENTER
  0
LAYER
  2
DEFAULT_2
 70
0
 62
8
  6
HIDDEN
  0
LAYER
  2
DEFAULT_3
 70
0
 62
7
  6
PHANTOM
  0
LAYER
  2
1_AXIS
 70
0
 62
7
  6
CONTINUOUS
  0
LAYER
  2
1_DATUM_PLANE
 70
0
 62
7
  6
CONTINUOUS
  0
LAYER
  2
1_DATUM_PLANES
 70
0
 62
7
  6
CONTINUOUS
  0
LAYER
  2
2_FEATURE
 70
0
 62
7
  6
CONTINUOUS
  0
LAYER
  2
6_DIM
 70
0
 62
7
  6
CONTINUOUS
  0
LAYER
  2
6_NOTE
 70
0
 62
7
  6
CONTINUOUS
  0
LAYER
  2
CSYS
 70
0
 62
7
  6
CONTINUOUS
  0
ENDTAB
  0
TABLE
  2
STYLE
 70
1
  0
STYLE
  2
STANDARD
 70
0
 40
0.0
 41
0.8
 50
0.0
 71
0
 42
0.2
  3
txt
  4

  0
STYLE
  2
TEXTSTYLE_1
 70
0
 40
0.0
 41
0.8
 50
0.0
 71
0
 42
0.2
  3
gdt
  4

  0
STYLE
  2
TEXTSTYLE_2
 70
0
 40
0.0
 41
0.6
 50
0.0
 71
0
 42
0.2
  3
txt
  4

  0
STYLE
  2
TEXTSTYLE_3
 70
0
 40
0.0
 41
1.0
 50
0.0
 71
0
 42
0.2
  3
ftb_____.ttf
  4

  0
STYLE
  2
TEXTSTYLE_4
 70
0
 40
0.0
 41
1.0
 50
0.0
 71
0
 42
0.2
  3
fti_____.ttf
  4

  0
STYLE
  2
TEXTSTYLE_5
 70
0
 40
0.0
 41
1.0
 50
0.0
 71
0
 42
0.2
  3
frutiger light.ttf
  4

  0
STYLE
  2
TEXTSTYLE_6
 70
0
 40
0.0
 41
0.7
 50
0.0
 71
0
 42
0.2
  3
txt
  4

  0
STYLE
  2
TEXTSTYLE_7
 70
0
 40
0.0
 41
0.8
 50
0.0
 71
0
 42
0.2
  3
txt
  4

  0
ENDTAB
  0
ENDSEC
  0
SECTION
  2
BLOCKS
  0
BLOCK
  8
0
 62
2
  6
CONTINUOUS
  2
SYMBOL_11_BL1
 70
64
 10
173.3924355793
 20
35.4326167403
  0
TEXT
  8
0
 62
7
  6
CONTINUOUS
 10
164.4507205878
 20
30.5765230696
  7
TEXTSTYLE_4
 40
1.0655737705
  1
The brand for plastic modular belts and chains
 41
1.0
 72
0
  0
LINE
  8
0
 62
7
  6
CONTINUOUS
 10
149.3705039683
 20
36.0575371843
 11
149.3705039683
 21
33.9263896433
  0
LINE
  8
0
 62
7
  6
CONTINUOUS
 10
149.6595664615
 20
30.9354583476
 11
149.6595664615
 21
31.0322494069
  0
LINE
  8
0
 62
7
  6
CONTINUOUS
 10
149.3705039683
 20
30.9999857205
 11
149.4283164701
 21
30.8064036019
  0
LINE
  8
0
 62
7
  6
CONTINUOUS
 10
150.7639465913
 20
33.8444224302
 11
150.7639465913
 21
36.0575371843
  0
LINE
  8
0
 62
7
  6
CONTINUOUS
 10
151.6830039132
 20
32.0001601351
 11
151.6830039132
 21
30.4837666925
  0
LINE
  8
0
 62
7
  6
CONTINUOUS
 10
151.9720664683
 20
30.4837666925
 11
151.9720664683
 21
31.2258315706
  0
LINE
  8
0
 62
7
  6
CONTINUOUS
 10
151.9720664683
 20
31.3548863163
 11
151.9720664683
 21
32.0001601351
  0
LINE
  8
0
 62
7
  6
CONTINUOUS
 10
149.4283164701
 20
31.1935678842
 11
149.3705039683
 21
30.9999857205
  0
LINE
  8
0
 62
7
  6
CONTINUOUS
 10
149.7751914546
 20
30.7741399155
 11
149.6595664615
 21
30.9354583476
  0
LINE
  8
0
 62
7
  6
CONTINUOUS
 10
150.8736290235
 20
31.2903589434
 11
150.9314414683
 21
31.1935678842
  0
LINE
  8
0
 62
7
  6
CONTINUOUS
 10
151.2205040235
 20
31.1935678842
 11
151.1626914132
 21
31.3226226299
  0
LINE
  8
0
 62
7
  6
CONTINUOUS
 10
152.6491924929
 20
36.0575371843
 11
152.6491924929
 21
34.2542584958
  0
LINE
  8
0
 62
7
  6
CONTINUOUS
 10
152.6491924929
 20
32.9427830859
 11
152.6491924929
 21
32.287045381
  0
LINE
  8
0
 62
7
  6
CONTINUOUS
 10
153.0126914683
 20
31.1290405113
 11
153.0126914683
 21
30.4837666925
  0
LINE
  8
0
 62
7
  6
CONTINUOUS
 10
153.3017538581
 20
30.4837666925
 11
153.3017538581
 21
31.1290405113
  0
LINE
  8
0
 62
7
  6
CONTINUOUS
 10
149.6595664615
 20
31.0322494069
 11
149.7173789683
 21
31.1613041978
  0
LINE
  8
0
 62
7
  6
CONTINUOUS
 10
149.4283164701
 20
30.8064036019
 11
149.5439414683
 21
30.6773488336
  0
LINE
  8
0
 62
7
  6
CONTINUOUS
 10
152.9548788581
 20
31.258095257
 11
153.0126914683
 21
31.1290405113
  0
LINE
  8
0
 62
7
  6
CONTINUOUS
 10
153.7642540786
 20
30.7741399155
 11
153.8220663581
 21
30.6450851472
  0
LINE
  8
0
 62
7
  6
CONTINUOUS
 10
153.3017538581
 20
31.1290405113
 11
153.2439415786
 21
31.2903589434
  0
LINE
  8
0
 62
7
  6
CONTINUOUS
 10
153.7642540786
 20
31.3226226299
 11
153.7642540786
 21
31.258095257
  0
LINE
  8
0
 62
7
  6
CONTINUOUS
 10
153.7642540786
 20
30.8709309748
 11
153.7642540786
 21
30.7741399155
  0
LINE
  8
0
 62
7
  6
CONTINUOUS
 10
154.0426351159
 20
32.287045381
 11
154.0426351159
 21
36.0575371843
  0
LINE
  8
0
 62
7
  6
CONTINUOUS
 10
154.0533164683
 20
30.7418762065
 11
154.0533164683
 21
30.8064036019
  0
LINE
  8
0
 62
7
  6
CONTINUOUS
 10
154.3705039683
 20
36.0575371843
 11
154.3705039683
 21
32.287045381
  0
LINE
  8
0
 62
7
  6
CONTINUOUS
 10
151.1626914132
 20
30.6773488336
 11
151.2205040235
 21
30.8064036019
  0
LINE
  8
0
 62
7
  6
CONTINUOUS
 10
155.5564416889
 20
30.5805577631
 11
155.4986287478
 21
30.7418762065
  0
LINE
  8
0
 62
7
  6
CONTINUOUS
 10
155.2095666889
 20
31.258095257
 11
155.2095666889
 21
31.1613041978
  0
LINE
  8
0
 62
7
  6
CONTINUOUS
 10
155.2095666889
 20
31.0322494069
 11
155.2095666889
 21
30.8386672883
  0
LINE
  8
0
 62
7
  6
CONTINUOUS
 10
155.4986287478
 20
30.7418762065
 11
155.4986287478
 21
31.258095257
  0
LINE
  8
0
 62
7
  6
CONTINUOUS
 10
155.7639465913
 20
32.287045381
 11
155.7639465913
 21
34.0903240696
  0
LINE
  8
0
 62
7
  6
CONTINUOUS
 10
155.7639465913
 20
35.4017994794
 11
155.7639465913
 21
36.0575371843
  0
LINE
  8
0
 62
7
  6
CONTINUOUS
 10
156.0767541889
 20
32.0001601351
 11
156.0767541889
 21
31.838841703
  0
LINE
  8
0
 62
7
  6
CONTINUOUS
 10
156.0767541889
 20
31.5162047484
 11
156.0767541889
 21
30.4837666925
  0
LINE
  8
0
 62
7
  6
CONTINUOUS
 10
156.3658162478
 20
30.4837666925
 11
156.3658162478
 21
31.5162047484
  0
LINE
  8
0
 62
7
  6
CONTINUOUS
 10
156.3658162478
 20
31.838841703
 11
156.3658162478
 21
32.0001601351
  0
LINE
  8
0
 62
7
  6
CONTINUOUS
 10
150.9314414683
 20
30.8064036019
 11
150.8736290235
 21
30.7096125201
  0
LINE
  8
0
 62
7
  6
CONTINUOUS
 10
153.2439415786
 20
31.2903589434
 11
153.1861289683
 21
31.3548863163
  0
LINE
  8
0
 62
7
  6
CONTINUOUS
 10
154.1111290786
 20
30.6773488336
 11
154.0533164683
 21
30.7418762065
  0
LINE
  8
0
 62
7
  6
CONTINUOUS
 10
155.2673789683
 20
30.548294071
 11
155.3251912478
 21
30.4837666925
  0
LINE
  8
0
 62
7
  6
CONTINUOUS
 10
155.2095666889
 20
30.6450851472
 11
155.2673789683
 21
30.548294071
  0
LINE
  8
0
 62
7
  6
CONTINUOUS
 10
155.6142539683
 20
30.4837666925
 11
155.5564416889
 21
30.5805577631
  0
LINE
  8
0
 62
7
  6
CONTINUOUS
 10
155.4986287478
 20
31.258095257
 11
155.4408164683
 21
31.3548863163
  0
LINE
  8
0
 62
7
  6
CONTINUOUS
 10
156.8283164683
 20
31.5162047484
 11
156.8283164683
 21
30.4837666925
  0
LINE
  8
0
 62
7
  6
CONTINUOUS
 10
157.1173791889
 20
30.4837666925
 11
157.1173791889
 21
31.2258315706
  0
LINE
  8
0
 62
7
  6
CONTINUOUS
 10
157.1173791889
 20
31.3548863163
 11
157.1173791889
 21
31.5162047484
  0
LINE
  8
0
 62
7
  6
CONTINUOUS
 10
157.6491924929
 20
34.5001601351
 11
157.6491924929
 21
32.287045381
  0
LINE
  8
0
 62
7
  6
CONTINUOUS
 10
149.5439414683
 20
31.3226226299
 11
149.4283164701
 21
31.1935678842
  0
LINE
  8
0
 62
7
  6
CONTINUOUS
 10
149.7173789683
 20
31.1613041978
 11
149.7751914546
 21
31.2258315706
  0
LINE
  8
0
 62
7
  6
CONTINUOUS
 10
149.5439414683
 20
30.6773488336
 11
149.6595664615
 21
30.6128214495
  0
LINE
  8
0
 62
7
  6
CONTINUOUS
 10
149.9486289546
 20
30.6773488336
 11
149.7751914546
 21
30.7741399155
  0
LINE
  8
0
 62
7
  6
CONTINUOUS
 10
155.1517537478
 20
31.3226226299
 11
155.2095666889
 21
31.258095257
  0
LINE
  8
0
 62
7
  6
CONTINUOUS
 10
158.1001912478
 20
31.258095257
 11
158.1580041889
 21
31.0967768249
  0
LINE
  8
0
 62
7
  6
CONTINUOUS
 10
158.4470662478
 20
31.0967768249
 11
158.3892539683
 21
31.258095257
  0
LINE
  8
0
 62
7
  6
CONTINUOUS
 10
158.1580041889
 20
31.0967768249
 11
158.1580041889
 21
30.4837666925
  0
LINE
  8
0
 62
7
  6
CONTINUOUS
 10
158.4470662478
 20
30.4837666925
 11
158.4470662478
 21
31.0967768249
  0
LINE
  8
0
 62
7
  6
CONTINUOUS
 10
158.9095664683
 20
31.3226226299
 11
158.9095664683
 21
31.258095257
  0
LINE
  8
0
 62
7
  6
CONTINUOUS
 10
159.0426351159
 20
32.287045381
 11
159.0426351159
 21
34.418192922
  0
LINE
  8
0
 62
7
  6
CONTINUOUS
 10
159.3705039683
 20
36.0575371843
 11
159.3705039683
 21
32.287045381
  0
LINE
  8
0
 62
7
  6
CONTINUOUS
 10
154.0533164683
 20
30.8064036019
 11
154.1111290786
 21
30.9031946612
  0
LINE
  8
0
 62
7
  6
CONTINUOUS
 10
149.6595664615
 20
30.6128214495
 11
149.8330039821
 21
30.548294071
  0
LINE
  8
0
 62
7
  6
CONTINUOUS
 10
151.1626914132
 20
31.3226226299
 11
150.9892539132
 21
31.4194136891
  0
LINE
  8
0
 62
7
  6
CONTINUOUS
 10
153.8220663581
 20
30.6450851472
 11
153.9955038581
 21
30.548294071
  0
LINE
  8
0
 62
7
  6
CONTINUOUS
 10
152.8392539683
 20
31.3226226299
 11
152.9548788581
 21
31.258095257
  0
LINE
  8
0
 62
7
  6
CONTINUOUS
 10
153.1861289683
 20
31.3548863163
 11
153.0705040786
 21
31.4194136891
  0
LINE
  8
0
 62
7
  6
CONTINUOUS
 10
158.9095664683
 20
30.7418762065
 11
159.0251916889
 21
30.6128214495
  0
LINE
  8
0
 62
7
  6
CONTINUOUS
 10
159.2564414683
 20
30.6773488336
 11
159.1986291889
 21
30.7418762065
  0
LINE
  8
0
 62
7
  6
CONTINUOUS
 10
158.9095664683
 20
31.258095257
 11
159.0251916889
 21
31.1290405113
  0
LINE
  8
0
 62
7
  6
CONTINUOUS
 10
158.3892539683
 20
31.258095257
 11
158.3314416889
 21
31.3548863163
  0
LINE
  8
0
 62
7
  6
CONTINUOUS
 10
160.7595660273
 20
30.6773488336
 11
160.7595660273
 21
30.7418762065
  0
LINE
  8
0
 62
7
  6
CONTINUOUS
 10
160.7639465913
 20
32.287045381
 11
160.7639465913
 21
36.0575371843
  0
LINE
  8
0
 62
7
  6
CONTINUOUS
 10
153.8220663581
 20
31.3871500027
 11
153.7642540786
 21
31.3226226299
  0
LINE
  8
0
 62
7
  6
CONTINUOUS
 10
150.7001914408
 20
31.3548863163
 11
150.8736290235
 21
31.2903589434
  0
LINE
  8
0
 62
7
  6
CONTINUOUS
 10
155.4408164683
 20
31.3548863163
 11
155.3251912478
 21
31.4194136891
  0
LINE
  8
0
 62
7
  6
CONTINUOUS
 10
159.2564414683
 20
31.1935678842
 11
159.1986291889
 21
31.258095257
  0
LINE
  8
0
 62
7
  6
CONTINUOUS
 10
160.4126916889
 20
30.8064036019
 11
160.4705039683
 21
30.7418762065
  0
LINE
  8
0
 62
7
  6
CONTINUOUS
 10
160.7595660273
 20
30.7418762065
 11
160.6439414683
 21
30.8709309748
  0
LINE
  8
0
 62
7
  6
CONTINUOUS
 10
160.4126916889
 20
31.3226226299
 11
160.4705039683
 21
31.258095257
  0
LINE
  8
0
 62
7
  6
CONTINUOUS
 10
160.7595660273
 20
31.258095257
 11
160.6439414683
 21
31.3871500027
  0
LINE
  8
0
 62
7
  6
CONTINUOUS
 10
154.0533164683
 20
31.258095257
 11
154.1111290786
 21
31.3226226299
  0
LINE
  8
0
 62
7
  6
CONTINUOUS
 10
153.8798789683
 20
30.9999857205
 11
153.7642540786
 21
30.8709309748
  0
LINE
  8
0
 62
7
  6
CONTINUOUS
 10
155.2095666889
 20
30.8386672883
 11
155.1517537478
 21
30.7741399155
  0
LINE
  8
0
 62
7
  6
CONTINUOUS
 10
155.1517537478
 20
30.5805577631
 11
155.2095666889
 21
30.6450851472
  0
LINE
  8
0
 62
7
  6
CONTINUOUS
 10
153.9955038581
 20
30.548294071
 11
154.1111290786
 21
30.5160303817
  0
LINE
  8
0
 62
7
  6
CONTINUOUS
 10
150.9892539132
 20
31.4194136891
 11
150.7580039683
 21
31.483941062
  0
LINE
  8
0
 62
7
  6
CONTINUOUS
 10
154.3423788581
 20
30.6128214495
 11
154.1111290786
 21
30.6773488336
  0
LINE
  8
0
 62
7
  6
CONTINUOUS
 10
153.0705040786
 20
31.4194136891
 11
152.8970665786
 21
31.483941062
  0
LINE
  8
0
 62
7
  6
CONTINUOUS
 10
155.3251912478
 20
31.4194136891
 11
155.1517537478
 21
31.483941062
  0
LINE
  8
0
 62
7
  6
CONTINUOUS
 10
157.9845666889
 20
31.3226226299
 11
158.1001912478
 21
31.258095257
  0
LINE
  8
0
 62
7
  6
CONTINUOUS
 10
158.3314416889
 20
31.3548863163
 11
158.2158164683
 21
31.4194136891
  0
LINE
  8
0
 62
7
  6
CONTINUOUS
 10
149.8330039821
 20
30.548294071
 11
150.0064414821
 21
30.5160303817
  0
LINE
  8
0
 62
7
  6
CONTINUOUS
 10
150.2955039959
 20
30.6128214495
 11
149.9486289546
 21
30.6773488336
  0
LINE
  8
0
 62
7
  6
CONTINUOUS
 10
152.7236290786
 20
31.3548863163
 11
152.8392539683
 21
31.3226226299
  0
LINE
  8
0
 62
7
  6
CONTINUOUS
 10
155.0361291889
 20
31.3548863163
 11
155.1517537478
 21
31.3226226299
  0
LINE
  8
0
 62
7
  6
CONTINUOUS
 10
159.3720666889
 20
30.6450851472
 11
159.2564414683
 21
30.6773488336
  0
LINE
  8
0
 62
7
  6
CONTINUOUS
 10
157.8689414683
 20
31.3548863163
 11
157.9845666889
 21
31.3226226299
  0
LINE
  8
0
 62
7
  6
CONTINUOUS
 10
159.0251916889
 20
30.6128214495
 11
159.1986291889
 21
30.548294071
  0
LINE
  8
0
 62
7
  6
CONTINUOUS
 10
158.2158164683
 20
31.4194136891
 11
158.0423789683
 21
31.483941062
  0
LINE
  8
0
 62
7
  6
CONTINUOUS
 10
159.4298789683
 20
31.1290405113
 11
159.2564414683
 21
31.1935678842
  0
LINE
  8
0
 62
7
  6
CONTINUOUS
 10
160.2392541889
 20
30.8709309748
 11
160.4126916889
 21
30.8064036019
  0
LINE
  8
0
 62
7
  6
CONTINUOUS
 10
160.6439414683
 20
31.3871500027
 11
160.4705039683
 21
31.4516773756
  0
LINE
  8
0
 62
7
  6
CONTINUOUS
 10
159.0251916889
 20
31.1290405113
 11
159.2564414683
 21
31.0322494069
  0
LINE
  8
0
 62
7
  6
CONTINUOUS
 10
160.6439414683
 20
30.8709309748
 11
160.4126916889
 21
30.967722034
  0
LINE
  8
0
 62
7
  6
CONTINUOUS
 10
159.1986291889
 20
31.258095257
 11
159.2564414683
 21
31.3226226299
  0
LINE
  8
0
 62
7
  6
CONTINUOUS
 10
149.6595664615
 20
31.3871500027
 11
149.5439414683
 21
31.3226226299
  0
LINE
  8
0
 62
7
  6
CONTINUOUS
 10
149.7751914546
 20
31.2258315706
 11
149.9486289546
 21
31.3226226299
  0
LINE
  8
0
 62
7
  6
CONTINUOUS
 10
152.0876915235
 20
31.4194136891
 11
151.9720664683
 21
31.3548863163
  0
LINE
  8
0
 62
7
  6
CONTINUOUS
 10
151.9720664683
 20
31.2258315706
 11
152.0876915235
 21
31.2903589434
  0
LINE
  8
0
 62
7
  6
CONTINUOUS
 10
150.9892539132
 20
30.5805577631
 11
151.1626914132
 21
30.6773488336
  0
LINE
  8
0
 62
7
  6
CONTINUOUS
 10
150.0064414821
 20
30.5160303817
 11
150.3533164408
 21
30.4837666925
  0
LINE
  8
0
 62
7
  6
CONTINUOUS
 10
154.1111290786
 20
30.5160303817
 11
154.3423788581
 21
30.4837666925
  0
LINE
  8
0
 62
7
  6
CONTINUOUS
 10
152.4923789683
 20
31.3871500027
 11
152.7236290786
 21
31.3548863163
  0
LINE
  8
0
 62
7
  6
CONTINUOUS
 10
154.8048790786
 20
31.3871500027
 11
155.0361291889
 21
31.3548863163
  0
LINE
  8
0
 62
7
  6
CONTINUOUS
 10
159.2564414683
 20
31.0322494069
 11
160.2392541889
 21
30.8709309748
  0
LINE
  8
0
 62
7
  6
CONTINUOUS
 10
160.4126916889
 20
30.967722034
 11
159.4298789683
 21
31.1290405113
  0
LINE
  8
0
 62
7
  6
CONTINUOUS
 10
152.8970665786
 20
31.483941062
 11
152.7236290786
 21
31.5162047484
  0
LINE
  8
0
 62
7
  6
CONTINUOUS
 10
159.1986291889
 20
30.548294071
 11
159.3720666889
 21
30.5160303817
  0
LINE
  8
0
 62
7
  6
CONTINUOUS
 10
158.0423789683
 20
31.483941062
 11
157.8689414683
 21
31.5162047484
  0
LINE
  8
0
 62
7
  6
CONTINUOUS
 10
160.2970664683
 20
31.3548863163
 11
160.4126916889
 21
31.3226226299
  0
LINE
  8
0
 62
7
  6
CONTINUOUS
 10
160.4705039683
 20
30.7418762065
 11
160.4126916889
 21
30.6773488336
  0
LINE
  8
0
 62
7
  6
CONTINUOUS
 10
159.0251916889
 20
31.4194136891
 11
158.9095664683
 21
31.3226226299
  0
LINE
  8
0
 62
7
  6
CONTINUOUS
 10
153.9376915786
 20
31.4516773756
 11
153.8220663581
 21
31.3871500027
  0
LINE
  8
0
 62
7
  6
CONTINUOUS
 10
153.9955038581
 20
31.0645131385
 11
153.8798789683
 21
30.9999857205
  0
LINE
  8
0
 62
7
  6
CONTINUOUS
 10
154.1111290786
 20
30.9031946612
 11
154.2267539683
 21
30.967722034
  0
LINE
  8
0
 62
7
  6
CONTINUOUS
 10
151.6830039132
 20
30.4837666925
 11
151.9720664683
 21
30.4837666925
  0
LINE
  8
0
 62
7
  6
CONTINUOUS
 10
153.0126914683
 20
30.4837666925
 11
153.3017538581
 21
30.4837666925
  0
LINE
  8
0
 62
7
  6
CONTINUOUS
 10
154.3423788581
 20
30.4837666925
 11
154.6892538581
 21
30.4837666925
  0
LINE
  8
0
 62
7
  6
CONTINUOUS
 10
155.3251912478
 20
30.4837666925
 11
155.6142539683
 21
30.4837666925
  0
LINE
  8
0
 62
7
  6
CONTINUOUS
 10
156.0767541889
 20
30.4837666925
 11
156.3658162478
 21
30.4837666925
  0
LINE
  8
0
 62
7
  6
CONTINUOUS
 10
156.8283164683
 20
30.4837666925
 11
157.1173791889
 21
30.4837666925
  0
LINE
  8
0
 62
7
  6
CONTINUOUS
 10
158.1580041889
 20
30.4837666925
 11
158.4470662478
 21
30.4837666925
  0
LINE
  8
0
 62
7
  6
CONTINUOUS
 10
159.7189416889
 20
30.4837666925
 11
160.0658166889
 21
30.4837666925
  0
LINE
  8
0
 62
7
  6
CONTINUOUS
 10
160.0658166889
 20
30.6128214495
 11
159.7189416889
 21
30.6128214495
  0
LINE
  8
0
 62
7
  6
CONTINUOUS
 10
154.6892538581
 20
30.6128214495
 11
154.3423788581
 21
30.6128214495
  0
LINE
  8
0
 62
7
  6
CONTINUOUS
 10
159.1986291889
 20
30.7418762065
 11
158.9095664683
 21
30.7418762065
  0
LINE
  8
0
 62
7
  6
CONTINUOUS
 10
151.2205040235
 20
30.8064036019
 11
150.9314414683
 21
30.8064036019
  0
LINE
  8
0
 62
7
  6
CONTINUOUS
 10
150.2955039959
 20
31.3871500027
 11
150.7001914408
 21
31.3548863163
  0
LINE
  8
0
 62
7
  6
CONTINUOUS
 10
150.7580039683
 20
31.483941062
 11
150.3533164408
 21
31.5162047484
  0
LINE
  8
0
 62
7
  6
CONTINUOUS
 10
159.3720666889
 20
30.5160303817
 11
159.7189416889
 21
30.4837666925
  0
LINE
  8
0
 62
7
  6
CONTINUOUS
 10
159.7189416889
 20
30.6128214495
 11
159.3720666889
 21
30.6450851472
  0
LINE
  8
0
 62
7
  6
CONTINUOUS
 10
155.1517537478
 20
31.483941062
 11
154.8048790786
 21
31.5162047484
  0
LINE
  8
0
 62
7
  6
CONTINUOUS
 10
159.9501914683
 20
31.3871500027
 11
160.2970664683
 21
31.3548863163
  0
LINE
  8
0
 62
7
  6
CONTINUOUS
 10
160.2970664683
 20
31.483941062
 11
159.9501914683
 21
31.5162047484
  0
LINE
  8
0
 62
7
  6
CONTINUOUS
 10
157.6376916889
 20
31.3871500027
 11
157.8689414683
 21
31.3548863163
  0
LINE
  8
0
 62
7
  6
CONTINUOUS
 10
160.4705039683
 20
31.4516773756
 11
160.2970664683
 21
31.483941062
  0
LINE
  8
0
 62
7
  6
CONTINUOUS
 10
160.6439414683
 20
30.5805577631
 11
160.7595660273
 21
30.6773488336
  0
LINE
  8
0
 62
7
  6
CONTINUOUS
 10
155.1517537478
 20
30.7741399155
 11
154.9783162478
 21
30.6773488336
  0
LINE
  8
0
 62
7
  6
CONTINUOUS
 10
157.2330037478
 20
31.4194136891
 11
157.1173791889
 21
31.3548863163
  0
LINE
  8
0
 62
7
  6
CONTINUOUS
 10
157.1173791889
 20
31.2258315706
 11
157.2330037478
 21
31.2903589434
  0
LINE
  8
0
 62
7
  6
CONTINUOUS
 10
149.8330039821
 20
31.4516773756
 11
149.6595664615
 21
31.3871500027
  0
LINE
  8
0
 62
7
  6
CONTINUOUS
 10
152.2611288581
 20
31.483941062
 11
152.0876915235
 21
31.4194136891
  0
LINE
  8
0
 62
7
  6
CONTINUOUS
 10
152.0876915235
 20
31.2903589434
 11
152.2611288581
 21
31.3548863163
  0
LINE
  8
0
 62
7
  6
CONTINUOUS
 10
150.8736290235
 20
30.7096125201
 11
150.7001914408
 21
30.6450851472
  0
LINE
  8
0
 62
7
  6
CONTINUOUS
 10
160.2970664683
 20
30.6450851472
 11
160.0658166889
 21
30.6128214495
  0
LINE
  8
0
 62
7
  6
CONTINUOUS
 10
154.6892538581
 20
30.4837666925
 11
154.9783162478
 21
30.5160303817
  0
LINE
  8
0
 62
7
  6
CONTINUOUS
 10
160.0658166889
 20
30.4837666925
 11
160.4126916889
 21
30.5160303817
  0
LINE
  8
0
 62
7
  6
CONTINUOUS
 10
150.3533164408
 20
30.4837666925
 11
150.7580039683
 21
30.5160303817
  0
LINE
  8
0
 62
7
  6
CONTINUOUS
 10
150.7001914408
 20
30.6450851472
 11
150.2955039959
 21
30.6128214495
  0
LINE
  8
0
 62
7
  6
CONTINUOUS
 10
154.5736289683
 20
31.0322494069
 11
155.2095666889
 21
31.0322494069
  0
LINE
  8
0
 62
7
  6
CONTINUOUS
 10
155.2095666889
 20
31.1613041978
 11
154.5736289683
 21
31.1613041978
  0
LINE
  8
0
 62
7
  6
CONTINUOUS
 10
150.9314414683
 20
31.1935678842
 11
151.2205040235
 21
31.1935678842
  0
LINE
  8
0
 62
7
  6
CONTINUOUS
 10
153.7642540786
 20
31.258095257
 11
154.0533164683
 21
31.258095257
  0
LINE
  8
0
 62
7
  6
CONTINUOUS
 10
160.4705039683
 20
31.258095257
 11
160.7595660273
 21
31.258095257
  0
LINE
  8
0
 62
7
  6
CONTINUOUS
 10
154.4580040786
 20
31.3871500027
 11
154.8048790786
 21
31.3871500027
  0
LINE
  8
0
 62
7
  6
CONTINUOUS
 10
159.6033164683
 20
31.3871500027
 11
159.9501914683
 21
31.3871500027
  0
LINE
  8
0
 62
7
  6
CONTINUOUS
 10
159.9501914683
 20
31.5162047484
 11
159.6033164683
 21
31.5162047484
  0
LINE
  8
0
 62
7
  6
CONTINUOUS
 10
157.8689414683
 20
31.5162047484
 11
157.6376916889
 21
31.5162047484
  0
LINE
  8
0
 62
7
  6
CONTINUOUS
 10
157.1173791889
 20
31.5162047484
 11
156.8283164683
 21
31.5162047484
  0
LINE
  8
0
 62
7
  6
CONTINUOUS
 10
156.3658162478
 20
31.5162047484
 11
156.0767541889
 21
31.5162047484
  0
LINE
  8
0
 62
7
  6
CONTINUOUS
 10
154.8048790786
 20
31.5162047484
 11
154.4580040786
 21
31.5162047484
  0
LINE
  8
0
 62
7
  6
CONTINUOUS
 10
152.7236290786
 20
31.5162047484
 11
152.4923789683
 21
31.5162047484
  0
LINE
  8
0
 62
7
  6
CONTINUOUS
 10
156.0767541889
 20
31.838841703
 11
156.3658162478
 21
31.838841703
  0
LINE
  8
0
 62
7
  6
CONTINUOUS
 10
156.3658162478
 20
32.0001601351
 11
156.0767541889
 21
32.0001601351
  0
LINE
  8
0
 62
7
  6
CONTINUOUS
 10
151.9720664683
 20
32.0001601351
 11
151.6830039132
 21
32.0001601351
  0
LINE
  8
0
 62
7
  6
CONTINUOUS
 10
151.0098482306
 20
32.287045381
 11
151.4224195792
 21
32.287045381
  0
LINE
  8
0
 62
7
  6
CONTINUOUS
 10
152.6491924929
 20
32.287045381
 11
154.0426351159
 21
32.287045381
  0
LINE
  8
0
 62
7
  6
CONTINUOUS
 10
154.3705039683
 20
32.287045381
 11
155.7639465913
 21
32.287045381
  0
LINE
  8
0
 62
7
  6
CONTINUOUS
 10
157.6491924929
 20
32.287045381
 11
159.0426351159
 21
32.287045381
  0
LINE
  8
0
 62
7
  6
CONTINUOUS
 10
159.3705039683
 20
32.287045381
 11
160.7639465913
 21
32.287045381
  0
LINE
  8
0
 62
7
  6
CONTINUOUS
 10
157.4064412478
 20
31.483941062
 11
157.2330037478
 21
31.4194136891
  0
LINE
  8
0
 62
7
  6
CONTINUOUS
 10
154.9783162478
 20
30.5160303817
 11
155.1517537478
 21
30.5805577631
  0
LINE
  8
0
 62
7
  6
CONTINUOUS
 10
160.4126916889
 20
30.5160303817
 11
160.6439414683
 21
30.5805577631
  0
LINE
  8
0
 62
7
  6
CONTINUOUS
 10
160.4126916889
 20
30.6773488336
 11
160.2970664683
 21
30.6450851472
  0
LINE
  8
0
 62
7
  6
CONTINUOUS
 10
159.3720666889
 20
31.3548863163
 11
159.6033164683
 21
31.3871500027
  0
LINE
  8
0
 62
7
  6
CONTINUOUS
 10
157.4064412478
 20
31.3548863163
 11
157.6376916889
 21
31.3871500027
  0
LINE
  8
0
 62
7
  6
CONTINUOUS
 10
154.3423788581
 20
30.9999857205
 11
154.5736289683
 21
31.0322494069
  0
LINE
  8
0
 62
7
  6
CONTINUOUS
 10
157.6376916889
 20
31.5162047484
 11
157.4064412478
 21
31.483941062
  0
LINE
  8
0
 62
7
  6
CONTINUOUS
 10
154.2267539683
 20
31.3548863163
 11
154.4580040786
 21
31.3871500027
  0
LINE
  8
0
 62
7
  6
CONTINUOUS
 10
159.6033164683
 20
31.5162047484
 11
159.2564414683
 21
31.483941062
  0
LINE
  8
0
 62
7
  6
CONTINUOUS
 10
154.5736289683
 20
31.1613041978
 11
154.2267539683
 21
31.1290405113
  0
LINE
  8
0
 62
7
  6
CONTINUOUS
 10
150.3533164408
 20
31.5162047484
 11
150.0064414821
 21
31.483941062
  0
LINE
  8
0
 62
7
  6
CONTINUOUS
 10
154.4580040786
 20
31.5162047484
 11
154.0533164683
 21
31.483941062
  0
LINE
  8
0
 62
7
  6
CONTINUOUS
 10
151.8295203618
 20
33.4345863646
 11
151.1737826569
 21
33.4345863646
  0
LINE
  8
0
 62
7
  6
CONTINUOUS
 10
157.2330037478
 20
31.2903589434
 11
157.4064412478
 21
31.3548863163
  0
LINE
  8
0
 62
7
  6
CONTINUOUS
 10
159.2564414683
 20
31.3226226299
 11
159.3720666889
 21
31.3548863163
  0
LINE
  8
0
 62
7
  6
CONTINUOUS
 10
159.2564414683
 20
31.483941062
 11
159.0251916889
 21
31.4194136891
  0
LINE
  8
0
 62
7
  6
CONTINUOUS
 10
154.9783162478
 20
30.6773488336
 11
154.6892538581
 21
30.6128214495
  0
LINE
  8
0
 62
7
  6
CONTINUOUS
 10
152.2611288581
 20
31.3548863163
 11
152.4923789683
 21
31.3871500027
  0
LINE
  8
0
 62
7
  6
CONTINUOUS
 10
152.4923789683
 20
31.5162047484
 11
152.2611288581
 21
31.483941062
  0
LINE
  8
0
 62
7
  6
CONTINUOUS
 10
150.0642539683
 20
31.3548863163
 11
150.2955039959
 21
31.3871500027
  0
LINE
  8
0
 62
7
  6
CONTINUOUS
 10
156.5836187224
 20
34.9099962007
 11
157.2393564274
 21
34.9099962007
  0
LINE
  8
0
 62
7
  6
CONTINUOUS
 10
154.2267539683
 20
30.967722034
 11
154.3423788581
 21
30.9999857205
  0
LINE
  8
0
 62
7
  6
CONTINUOUS
 10
154.2267539683
 20
31.1290405113
 11
153.9955038581
 21
31.0645131385
  0
LINE
  8
0
 62
7
  6
CONTINUOUS
 10
154.1111290786
 20
31.3226226299
 11
154.2267539683
 21
31.3548863163
  0
LINE
  8
0
 62
7
  6
CONTINUOUS
 10
150.7580039683
 20
30.5160303817
 11
150.9892539132
 21
30.5805577631
  0
LINE
  8
0
 62
7
  6
CONTINUOUS
 10
154.0533164683
 20
31.483941062
 11
153.9376915786
 21
31.4516773756
  0
LINE
  8
0
 62
7
  6
CONTINUOUS
 10
150.0064414821
 20
31.483941062
 11
149.8330039821
 21
31.4516773756
  0
LINE
  8
0
 62
7
  6
CONTINUOUS
 10
160.7639465913
 20
36.0575371843
 11
159.3705039683
 21
36.0575371843
  0
LINE
  8
0
 62
7
  6
CONTINUOUS
 10
157.4032908536
 20
36.0575371843
 11
156.990719505
 21
36.0575371843
  0
LINE
  8
0
 62
7
  6
CONTINUOUS
 10
155.7639465913
 20
36.0575371843
 11
154.3705039683
 21
36.0575371843
  0
LINE
  8
0
 62
7
  6
CONTINUOUS
 10
154.0426351159
 20
36.0575371843
 11
152.6491924929
 21
36.0575371843
  0
LINE
  8
0
 62
7
  6
CONTINUOUS
 10
150.7639465913
 20
36.0575371843
 11
149.3705039683
 21
36.0575371843
  0
LINE
  8
0
 62
7
  6
CONTINUOUS
 10
149.9486289546
 20
31.3226226299
 11
150.0642539683
 21
31.3548863163
  0
CIRCLE
  8
0
 62
7
  6
CONTINUOUS
 10
160.0672252798
 20
38.3936027581
 40
2.0901639344
  0
ARC
  8
0
 62
7
  6
CONTINUOUS
 10
151.0098482306
 20
33.9263896433
 40
1.6393442623
 50
180.0
 51
270.0
  0
ARC
  8
0
 62
7
  6
CONTINUOUS
 10
157.4032908536
 20
34.418192922
 40
1.6393442623
 50
0.0
 51
90.0
  0
ARC
  8
0
 62
7
  6
CONTINUOUS
 10
151.4224195792
 20
33.7624552171
 40
1.4754098361
 50
270.0
 51
326.2510114041
  0
ARC
  8
0
 62
7
  6
CONTINUOUS
 10
156.990719505
 20
34.5821273482
 40
1.4754098361
 50
90.0
 51
146.2510114041
  0
ARC
  8
0
 62
7
  6
CONTINUOUS
 10
151.8295203618
 20
34.2542584958
 40
0.8196721311
 50
270.0
 51
360.0
  0
ARC
  8
0
 62
7
  6
CONTINUOUS
 10
156.5836187224
 20
34.0903240696
 40
0.8196721311
 50
90.0
 51
180.0
  0
ARC
  8
0
 62
7
  6
CONTINUOUS
 10
151.1737826569
 20
33.8444224302
 40
0.4098360656
 50
180.0
 51
270.0
  0
ARC
  8
0
 62
7
  6
CONTINUOUS
 10
157.2393564274
 20
34.5001601351
 40
0.4098360656
 50
0.0
 51
90.0
  0
SOLID
  8
0
 62
7
  6
CONTINUOUS
 10
156.0767541889
 20
31.8388420633
 11
156.0767541889
 21
32.0001605469
 12
156.3658162478
 22
31.8388420633
 13
156.3658162478
 23
32.0001605469
  0
SOLID
  8
0
 62
7
  6
CONTINUOUS
 10
150.3533164408
 20
31.5162050961
 11
150.7580039683
 21
31.4839409236
 12
150.0064414821
 22
31.4839409236
 13
150.0064414821
 23
31.4839409236
  0
SOLID
  8
0
 62
7
  6
CONTINUOUS
 10
149.8330039821
 20
31.4516780059
 11
150.0064414821
 21
31.4839409236
 12
150.7580039683
 22
31.4839409236
 13
150.7580039683
 23
31.4839409236
  0
SOLID
  8
0
 62
7
  6
CONTINUOUS
 10
150.7580039683
 20
31.4839409236
 11
150.9892539132
 21
31.4194137026
 12
149.8330039821
 22
31.4516780059
 13
149.8330039821
 23
31.4516780059
  0
SOLID
  8
0
 62
7
  6
CONTINUOUS
 10
149.6595664615
 20
31.3871495108
 11
149.8330039821
 21
31.4516780059
 12
150.9892539132
 22
31.4194137026
 13
150.9892539132
 23
31.4194137026
  0
SOLID
  8
0
 62
7
  6
CONTINUOUS
 10
149.6595664615
 20
31.3871495108
 11
150.9892539132
 21
31.4194137026
 12
150.2955039959
 22
31.3871495108
 13
150.2955039959
 23
31.3871495108
  0
SOLID
  8
0
 62
7
  6
CONTINUOUS
 10
150.2955039959
 20
31.3871495108
 11
150.9892539132
 21
31.4194137026
 12
150.7001914408
 22
31.3548866125
 13
150.7001914408
 23
31.3548866125
  0
SOLID
  8
0
 62
7
  6
CONTINUOUS
 10
150.9892539132
 20
31.4194137026
 11
151.1626914132
 21
31.3226223092
 12
150.7001914408
 22
31.3548866125
 13
150.7001914408
 23
31.3548866125
  0
SOLID
  8
0
 62
7
  6
CONTINUOUS
 10
150.8736290235
 20
31.2903595223
 11
150.7001914408
 21
31.3548866125
 12
151.1626914132
 22
31.3226223092
 13
151.1626914132
 23
31.3226223092
  0
SOLID
  8
0
 62
7
  6
CONTINUOUS
 10
150.8736290235
 20
31.2903595223
 11
151.1626914132
 21
31.3226223092
 12
150.9314414683
 22
31.1935679757
 13
150.9314414683
 23
31.1935679757
  0
SOLID
  8
0
 62
7
  6
CONTINUOUS
 10
151.1626914132
 20
31.3226223092
 11
151.2205040235
 21
31.1935679757
 12
150.9314414683
 22
31.1935679757
 13
150.9314414683
 23
31.1935679757
  0
SOLID
  8
0
 62
7
  6
CONTINUOUS
 10
152.2611288581
 20
31.4839414344
 11
152.4923789683
 21
31.5162057377
 12
152.7236290786
 22
31.5162057377
 13
152.7236290786
 23
31.5162057377
  0
SOLID
  8
0
 62
7
  6
CONTINUOUS
 10
152.7236290786
 20
31.5162057377
 11
152.8970665786
 21
31.4839414344
 12
152.2611288581
 22
31.4839414344
 13
152.2611288581
 23
31.4839414344
  0
SOLID
  8
0
 62
7
  6
CONTINUOUS
 10
152.0876915235
 20
31.4194143443
 11
152.2611288581
 21
31.4839414344
 12
152.8970665786
 22
31.4839414344
 13
152.8970665786
 23
31.4839414344
  0
SOLID
  8
0
 62
7
  6
CONTINUOUS
 10
152.8970665786
 20
31.4839414344
 11
153.0705040786
 21
31.4194143443
 12
152.0876915235
 22
31.4194143443
 13
152.0876915235
 23
31.4194143443
  0
SOLID
  8
0
 62
7
  6
CONTINUOUS
 10
153.0705040786
 20
31.4194143443
 11
152.4923789683
 21
31.3871493993
 12
152.0876915235
 22
31.4194143443
 13
152.0876915235
 23
31.4194143443
  0
SOLID
  8
0
 62
7
  6
CONTINUOUS
 10
151.9720664683
 20
31.3548872541
 11
152.0876915235
 21
31.4194143443
 12
152.4923789683
 22
31.3871493993
 13
152.4923789683
 23
31.3871493993
  0
SOLID
  8
0
 62
7
  6
CONTINUOUS
 10
152.4923789683
 20
31.3871493993
 11
152.2611288581
 21
31.3548872541
 12
151.9720664683
 22
31.3548872541
 13
151.9720664683
 23
31.3548872541
  0
SOLID
  8
0
 62
7
  6
CONTINUOUS
 10
152.4923789683
 20
31.3871493993
 11
153.0705040786
 21
31.4194143443
 12
152.7236290786
 22
31.3548872541
 13
152.7236290786
 23
31.3548872541
  0
SOLID
  8
0
 62
7
  6
CONTINUOUS
 10
153.0705040786
 20
31.4194143443
 11
153.1861289683
 21
31.3548872541
 12
152.7236290786
 22
31.3548872541
 13
152.7236290786
 23
31.3548872541
  0
SOLID
  8
0
 62
7
  6
CONTINUOUS
 10
152.8392539683
 20
31.3226223092
 11
152.7236290786
 21
31.3548872541
 12
153.1861289683
 22
31.3548872541
 13
153.1861289683
 23
31.3548872541
  0
SOLID
  8
0
 62
7
  6
CONTINUOUS
 10
153.1861289683
 20
31.3548872541
 11
153.2439415786
 21
31.2903601639
 12
152.8392539683
 22
31.3226223092
 13
152.8392539683
 23
31.3226223092
  0
SOLID
  8
0
 62
7
  6
CONTINUOUS
 10
152.9548788581
 20
31.258095219
 11
152.8392539683
 21
31.3226223092
 12
153.2439415786
 22
31.2903601639
 13
153.2439415786
 23
31.2903601639
  0
SOLID
  8
0
 62
7
  6
CONTINUOUS
 10
152.9548788581
 20
31.258095219
 11
153.2439415786
 21
31.2903601639
 12
153.0126914683
 22
31.1290416803
 13
153.0126914683
 23
31.1290416803
  0
SOLID
  8
0
 62
7
  6
CONTINUOUS
 10
153.2439415786
 20
31.2903601639
 11
153.3017538581
 21
31.1290416803
 12
153.0126914683
 22
31.1290416803
 13
153.0126914683
 23
31.1290416803
  0
SOLID
  8
0
 62
7
  6
CONTINUOUS
 10
152.2611288581
 20
31.3548872541
 11
152.0876915235
 21
31.2903601639
 12
151.9720664683
 22
31.3548872541
 13
151.9720664683
 23
31.3548872541
  0
SOLID
  8
0
 62
7
  6
CONTINUOUS
 10
152.0876915235
 20
31.2903601639
 11
151.9720664683
 21
31.2258309157
 12
151.9720664683
 22
31.3548872541
 13
151.9720664683
 23
31.3548872541
  0
SOLID
  8
0
 62
7
  6
CONTINUOUS
 10
151.9720664683
 20
31.2258309157
 11
151.6830039132
 21
30.4837677459
 12
151.9720664683
 22
31.3548872541
 13
151.9720664683
 23
31.3548872541
  0
SOLID
  8
0
 62
7
  6
CONTINUOUS
 10
151.9720664683
 20
31.3548872541
 11
151.6830039132
 21
30.4837677459
 12
151.9720664683
 22
32.0001611885
 13
151.9720664683
 23
32.0001611885
  0
SOLID
  8
0
 62
7
  6
CONTINUOUS
 10
151.6830039132
 20
30.4837677459
 11
151.6830039132
 21
32.0001611885
 12
151.9720664683
 22
32.0001611885
 13
151.9720664683
 23
32.0001611885
  0
SOLID
  8
0
 62
7
  6
CONTINUOUS
 10
151.9720664683
 20
31.2258309157
 11
151.9720664683
 21
30.4837677459
 12
151.6830039132
 22
30.4837677459
 13
151.6830039132
 23
30.4837677459
  0
SOLID
  8
0
 62
7
  6
CONTINUOUS
 10
153.0126914683
 20
30.4837677459
 11
153.0126914683
 21
31.1290416803
 12
153.3017538581
 22
31.1290416803
 13
153.3017538581
 23
31.1290416803
  0
SOLID
  8
0
 62
7
  6
CONTINUOUS
 10
153.3017538581
 20
31.1290416803
 11
153.3017538581
 21
30.4837677459
 12
153.0126914683
 22
30.4837677459
 13
153.0126914683
 23
30.4837677459
  0
SOLID
  8
0
 62
7
  6
CONTINUOUS
 10
154.0533164683
 20
31.4839408139
 11
154.4580040786
 21
31.5162048066
 12
154.8048790786
 22
31.5162048066
 13
154.8048790786
 23
31.5162048066
  0
SOLID
  8
0
 62
7
  6
CONTINUOUS
 10
154.8048790786
 20
31.5162048066
 11
155.1517537478
 21
31.4839408139
 12
154.0533164683
 22
31.4839408139
 13
154.0533164683
 23
31.4839408139
  0
SOLID
  8
0
 62
7
  6
CONTINUOUS
 10
153.9376915786
 20
31.4516780059
 11
154.0533164683
 21
31.4839408139
 12
155.1517537478
 22
31.4839408139
 13
155.1517537478
 23
31.4839408139
  0
SOLID
  8
0
 62
7
  6
CONTINUOUS
 10
155.1517537478
 20
31.4839408139
 11
155.3251912478
 21
31.4194137026
 12
153.9376915786
 22
31.4516780059
 13
153.9376915786
 23
31.4516780059
  0
SOLID
  8
0
 62
7
  6
CONTINUOUS
 10
153.8220663581
 20
31.38714961
 11
153.9376915786
 21
31.4516780059
 12
155.3251912478
 22
31.4194137026
 13
155.3251912478
 23
31.4194137026
  0
SOLID
  8
0
 62
7
  6
CONTINUOUS
 10
153.8220663581
 20
31.38714961
 11
155.3251912478
 21
31.4194137026
 12
154.4580040786
 22
31.38714961
 13
154.4580040786
 23
31.38714961
  0
SOLID
  8
0
 62
7
  6
CONTINUOUS
 10
154.4580040786
 20
31.38714961
 11
155.3251912478
 21
31.4194137026
 12
154.8048790786
 22
31.38714961
 13
154.8048790786
 23
31.38714961
  0
SOLID
  8
0
 62
7
  6
CONTINUOUS
 10
154.8048790786
 20
31.38714961
 11
155.3251912478
 21
31.4194137026
 12
155.0361291889
 22
31.3548863916
 13
155.0361291889
 23
31.3548863916
  0
SOLID
  8
0
 62
7
  6
CONTINUOUS
 10
155.3251912478
 20
31.4194137026
 11
155.4408164683
 21
31.3548863916
 12
155.0361291889
 22
31.3548863916
 13
155.0361291889
 23
31.3548863916
  0
SOLID
  8
0
 62
7
  6
CONTINUOUS
 10
153.7642540786
 20
31.3226223989
 11
153.8220663581
 21
31.38714961
 12
154.4580040786
 22
31.38714961
 13
154.4580040786
 23
31.38714961
  0
SOLID
  8
0
 62
7
  6
CONTINUOUS
 10
155.1517537478
 20
31.3226223989
 11
155.0361291889
 21
31.3548863916
 12
155.4408164683
 22
31.3548863916
 13
155.4408164683
 23
31.3548863916
  0
SOLID
  8
0
 62
7
  6
CONTINUOUS
 10
155.1517537478
 20
31.3226223989
 11
155.4408164683
 21
31.3548863916
 12
155.2095666889
 22
31.2580951877
 13
155.2095666889
 23
31.2580951877
  0
SOLID
  8
0
 62
7
  6
CONTINUOUS
 10
155.4408164683
 20
31.3548863916
 11
155.4986287478
 21
31.2580951877
 12
155.2095666889
 22
31.2580951877
 13
155.2095666889
 23
31.2580951877
  0
SOLID
  8
0
 62
7
  6
CONTINUOUS
 10
155.2095666889
 20
31.1613038256
 11
155.2095666889
 21
31.2580951877
 12
155.4986287478
 22
31.2580951877
 13
155.4986287478
 23
31.2580951877
  0
SOLID
  8
0
 62
7
  6
CONTINUOUS
 10
155.2095666889
 20
31.1613038256
 11
155.4986287478
 21
31.2580951877
 12
155.2095666889
 22
31.0322496452
 13
155.2095666889
 23
31.0322496452
  0
SOLID
  8
0
 62
7
  6
CONTINUOUS
 10
155.2095666889
 20
31.0322496452
 11
155.4986287478
 21
31.2580951877
 12
155.2095666889
 22
30.8386672883
 13
155.2095666889
 23
30.8386672883
  0
SOLID
  8
0
 62
7
  6
CONTINUOUS
 10
155.4986287478
 20
31.2580951877
 11
155.4986287478
 21
30.7418754649
 12
155.2095666889
 22
30.8386672883
 13
155.2095666889
 23
30.8386672883
  0
SOLID
  8
0
 62
7
  6
CONTINUOUS
 10
157.4064412478
 20
31.4839405154
 11
157.6376916889
 21
31.5162052351
 12
157.8689414683
 22
31.5162052351
 13
157.8689414683
 23
31.5162052351
  0
SOLID
  8
0
 62
7
  6
CONTINUOUS
 10
157.8689414683
 20
31.5162052351
 11
158.0423789683
 21
31.4839405154
 12
157.4064412478
 22
31.4839405154
 13
157.4064412478
 23
31.4839405154
  0
SOLID
  8
0
 62
7
  6
CONTINUOUS
 10
157.2330037478
 20
31.4194141734
 11
157.4064412478
 21
31.4839405154
 12
158.0423789683
 22
31.4839405154
 13
158.0423789683
 23
31.4839405154
  0
SOLID
  8
0
 62
7
  6
CONTINUOUS
 10
158.0423789683
 20
31.4839405154
 11
158.2158164683
 21
31.4194141734
 12
157.2330037478
 22
31.4194141734
 13
157.2330037478
 23
31.4194141734
  0
SOLID
  8
0
 62
7
  6
CONTINUOUS
 10
158.2158164683
 20
31.4194141734
 11
157.6376916889
 21
31.3871493993
 12
157.2330037478
 22
31.4194141734
 13
157.2330037478
 23
31.4194141734
  0
SOLID
  8
0
 62
7
  6
CONTINUOUS
 10
157.1173791889
 20
31.3548867989
 11
157.2330037478
 21
31.4194141734
 12
157.6376916889
 22
31.3871493993
 13
157.6376916889
 23
31.3871493993
  0
SOLID
  8
0
 62
7
  6
CONTINUOUS
 10
157.6376916889
 20
31.3871493993
 11
157.4064412478
 21
31.3548867989
 12
157.1173791889
 22
31.3548867989
 13
157.1173791889
 23
31.3548867989
  0
SOLID
  8
0
 62
7
  6
CONTINUOUS
 10
157.6376916889
 20
31.3871493993
 11
158.2158164683
 21
31.4194141734
 12
157.8689414683
 22
31.3548867989
 13
157.8689414683
 23
31.3548867989
  0
SOLID
  8
0
 62
7
  6
CONTINUOUS
 10
158.2158164683
 20
31.4194141734
 11
158.3314416889
 21
31.3548867989
 12
157.8689414683
 22
31.3548867989
 13
157.8689414683
 23
31.3548867989
  0
SOLID
  8
0
 62
7
  6
CONTINUOUS
 10
157.9845666889
 20
31.3226223092
 11
157.8689414683
 21
31.3548867989
 12
158.3314416889
 22
31.3548867989
 13
158.3314416889
 23
31.3548867989
  0
SOLID
  8
0
 62
7
  6
CONTINUOUS
 10
157.9845666889
 20
31.3226223092
 11
158.3314416889
 21
31.3548867989
 12
158.1001912478
 22
31.2580947047
 13
158.1001912478
 23
31.2580947047
  0
SOLID
  8
0
 62
7
  6
CONTINUOUS
 10
158.3314416889
 20
31.3548867989
 11
158.3892539683
 21
31.2580947047
 12
158.1001912478
 22
31.2580947047
 13
158.1001912478
 23
31.2580947047
  0
SOLID
  8
0
 62
7
  6
CONTINUOUS
 10
158.1580041889
 20
31.0967762685
 11
158.1001912478
 21
31.2580947047
 12
158.3892539683
 22
31.2580947047
 13
158.3892539683
 23
31.2580947047
  0
SOLID
  8
0
 62
7
  6
CONTINUOUS
 10
158.3892539683
 20
31.2580947047
 11
158.4470662478
 21
31.0967762685
 12
158.1580041889
 22
31.0967762685
 13
158.1580041889
 23
31.0967762685
  0
SOLID
  8
0
 62
7
  6
CONTINUOUS
 10
157.4064412478
 20
31.3548867989
 11
157.2330037478
 21
31.2903595223
 12
157.1173791889
 22
31.3548867989
 13
157.1173791889
 23
31.3548867989
  0
SOLID
  8
0
 62
7
  6
CONTINUOUS
 10
157.2330037478
 20
31.2903595223
 11
157.1173791889
 21
31.2258309157
 12
157.1173791889
 22
31.3548867989
 13
157.1173791889
 23
31.3548867989
  0
SOLID
  8
0
 62
7
  6
CONTINUOUS
 10
157.1173791889
 20
31.2258309157
 11
156.8283164683
 21
30.4837672433
 12
157.1173791889
 22
31.3548867989
 13
157.1173791889
 23
31.3548867989
  0
SOLID
  8
0
 62
7
  6
CONTINUOUS
 10
157.1173791889
 20
31.3548867989
 11
156.8283164683
 21
30.4837672433
 12
157.1173791889
 22
31.5162052351
 13
157.1173791889
 23
31.5162052351
  0
SOLID
  8
0
 62
7
  6
CONTINUOUS
 10
156.8283164683
 20
30.4837672433
 11
156.8283164683
 21
31.5162052351
 12
157.1173791889
 22
31.5162052351
 13
157.1173791889
 23
31.5162052351
  0
SOLID
  8
0
 62
7
  6
CONTINUOUS
 10
157.1173791889
 20
31.2258309157
 11
157.1173791889
 21
30.4837672433
 12
156.8283164683
 22
30.4837672433
 13
156.8283164683
 23
30.4837672433
  0
SOLID
  8
0
 62
7
  6
CONTINUOUS
 10
158.1580041889
 20
30.4837672433
 11
158.1580041889
 21
31.0967762685
 12
158.4470662478
 22
31.0967762685
 13
158.4470662478
 23
31.0967762685
  0
SOLID
  8
0
 62
7
  6
CONTINUOUS
 10
158.4470662478
 20
31.0967762685
 11
158.4470662478
 21
30.4837672433
 12
158.1580041889
 22
30.4837672433
 13
158.1580041889
 23
30.4837672433
  0
SOLID
  8
0
 62
7
  6
CONTINUOUS
 10
159.2564414683
 20
31.4839408138
 11
159.6033164683
 21
31.5162050633
 12
159.9501914683
 22
31.5162050633
 13
159.9501914683
 23
31.5162050633
  0
SOLID
  8
0
 62
7
  6
CONTINUOUS
 10
159.9501914683
 20
31.5162050633
 11
160.2970664683
 21
31.4839408138
 12
159.2564414683
 22
31.4839408138
 13
159.2564414683
 23
31.4839408138
  0
SOLID
  8
0
 62
7
  6
CONTINUOUS
 10
159.0251916889
 20
31.4194137026
 11
159.2564414683
 21
31.4839408138
 12
160.2970664683
 22
31.4839408138
 13
160.2970664683
 23
31.4839408138
  0
SOLID
  8
0
 62
7
  6
CONTINUOUS
 10
159.0251916889
 20
31.4194137026
 11
160.2970664683
 21
31.4839407928
 12
160.4705039683
 22
31.4516780059
 13
160.4705039683
 23
31.4516780059
  0
SOLID
  8
0
 62
7
  6
CONTINUOUS
 10
159.0251916889
 20
31.4194137026
 11
160.4705039683
 21
31.4516780059
 12
159.6033164683
 22
31.3871494664
 13
159.6033164683
 23
31.3871494664
  0
SOLID
  8
0
 62
7
  6
CONTINUOUS
 10
159.6033164683
 20
31.3871494664
 11
160.4705039683
 21
31.4516780059
 12
159.9501914683
 22
31.3871494664
 13
159.9501914683
 23
31.3871494664
  0
SOLID
  8
0
 62
7
  6
CONTINUOUS
 10
160.4705039683
 20
31.4516780059
 11
160.6439414683
 21
31.3871494664
 12
159.9501914683
 22
31.3871494664
 13
159.9501914683
 23
31.3871494664
  0
SOLID
  8
0
 62
7
  6
CONTINUOUS
 10
160.2970664683
 20
31.3548866125
 11
159.9501914683
 21
31.3871494664
 12
160.6439414683
 22
31.3871494664
 13
160.6439414683
 23
31.3871494664
  0
SOLID
  8
0
 62
7
  6
CONTINUOUS
 10
158.9095664683
 20
31.3226222241
 11
159.0251916889
 21
31.4194137026
 12
159.6033164683
 22
31.3871494664
 13
159.6033164683
 23
31.3871494664
  0
SOLID
  8
0
 62
7
  6
CONTINUOUS
 10
160.2970664683
 20
31.3548866125
 11
160.6439414683
 21
31.3871494664
 12
160.4126916889
 22
31.3226222241
 13
160.4126916889
 23
31.3226222241
  0
SOLID
  8
0
 62
7
  6
CONTINUOUS
 10
160.4126916889
 20
31.3226222241
 11
160.6439414683
 21
31.3871494664
 12
160.4705039683
 22
31.2580952077
 13
160.4705039683
 23
31.2580952077
  0
SOLID
  8
0
 62
7
  6
CONTINUOUS
 10
160.6439414683
 20
31.3871494664
 11
160.7595660273
 21
31.2580952077
 12
160.4705039683
 22
31.2580952077
 13
160.4705039683
 23
31.2580952077
  0
SOLID
  8
0
 62
7
  6
CONTINUOUS
 10
150.0642539683
 20
31.3548866125
 11
149.5439414683
 21
31.3226222809
 12
150.2955039959
 22
31.3871493065
 13
150.2955039959
 23
31.3871493065
  0
SOLID
  8
0
 62
7
  6
CONTINUOUS
 10
149.5439414683
 20
31.3226222809
 11
149.6595664615
 21
31.3871493065
 12
150.2955039959
 22
31.3871493065
 13
150.2955039959
 23
31.3871493065
  0
SOLID
  8
0
 62
7
  6
CONTINUOUS
 10
150.0642539683
 20
31.3548866125
 11
149.9486289546
 21
31.3226222809
 12
149.5439414683
 22
31.3226222809
 13
149.5439414683
 23
31.3226222809
  0
SOLID
  8
0
 62
7
  6
CONTINUOUS
 10
149.4283164701
 20
31.1935681288
 11
149.5439414683
 21
31.3226222809
 12
149.9486289546
 22
31.3226222809
 13
149.9486289546
 23
31.3226222809
  0
SOLID
  8
0
 62
7
  6
CONTINUOUS
 10
153.7642540786
 20
31.3226222809
 11
154.4580040786
 21
31.3871493993
 12
154.2267539683
 22
31.3548866125
 13
154.2267539683
 23
31.3548866125
  0
SOLID
  8
0
 62
7
  6
CONTINUOUS
 10
154.2267539683
 20
31.3548866125
 11
154.1111290786
 21
31.3226222809
 12
153.7642540786
 22
31.3226222809
 13
153.7642540786
 23
31.3226222809
  0
SOLID
  8
0
 62
7
  6
CONTINUOUS
 10
153.7642540786
 20
31.2580951907
 11
153.7642540786
 21
31.3226222809
 12
154.1111290786
 22
31.3226222809
 13
154.1111290786
 23
31.3226222809
  0
SOLID
  8
0
 62
7
  6
CONTINUOUS
 10
154.1111290786
 20
31.3226222809
 11
154.0533164683
 21
31.2580951907
 12
153.7642540786
 22
31.2580951907
 13
153.7642540786
 23
31.2580951907
  0
SOLID
  8
0
 62
7
  6
CONTINUOUS
 10
158.9095664683
 20
31.32262241
 11
159.6033164683
 21
31.3871493993
 12
159.3720666889
 22
31.3548866125
 13
159.3720666889
 23
31.3548866125
  0
SOLID
  8
0
 62
7
  6
CONTINUOUS
 10
159.3720666889
 20
31.3548866125
 11
159.2564414683
 21
31.32262241
 12
158.9095664683
 22
31.32262241
 13
158.9095664683
 23
31.32262241
  0
SOLID
  8
0
 62
7
  6
CONTINUOUS
 10
158.9095664683
 20
31.2580953198
 11
158.9095664683
 21
31.32262241
 12
159.2564414683
 22
31.32262241
 13
159.2564414683
 23
31.32262241
  0
SOLID
  8
0
 62
7
  6
CONTINUOUS
 10
159.2564414683
 20
31.32262241
 11
159.1986291889
 21
31.2580953198
 12
158.9095664683
 22
31.2580953198
 13
158.9095664683
 23
31.2580953198
  0
SOLID
  8
0
 62
7
  6
CONTINUOUS
 10
159.0251916889
 20
31.1290410387
 11
158.9095664683
 21
31.2580953198
 12
159.1986291889
 22
31.2580953198
 13
159.1986291889
 23
31.2580953198
  0
SOLID
  8
0
 62
7
  6
CONTINUOUS
 10
149.4283164701
 20
31.1935681288
 11
149.9486289546
 21
31.3226223092
 12
149.7751914546
 22
31.2258309157
 13
149.7751914546
 23
31.2258309157
  0
SOLID
  8
0
 62
7
  6
CONTINUOUS
 10
149.7751914546
 20
31.2258309157
 11
149.7173789683
 21
31.1613038256
 12
149.4283164701
 22
31.1935681288
 13
149.4283164701
 23
31.1935681288
  0
SOLID
  8
0
 62
7
  6
CONTINUOUS
 10
149.3705039683
 20
30.999985342
 11
149.4283164701
 21
31.1935681288
 12
149.7173789683
 22
31.1613038256
 13
149.7173789683
 23
31.1613038256
  0
SOLID
  8
0
 62
7
  6
CONTINUOUS
 10
154.2267539683
 20
31.1290410387
 11
154.5736289683
 21
31.1613037812
 12
155.2095666889
 22
31.1613037812
 13
155.2095666889
 23
31.1613037812
  0
SOLID
  8
0
 62
7
  6
CONTINUOUS
 10
154.2267539683
 20
31.1290410387
 11
155.2095666889
 21
31.1613037812
 12
153.9955038581
 22
31.0645131385
 13
153.9955038581
 23
31.0645131385
  0
SOLID
  8
0
 62
7
  6
CONTINUOUS
 10
153.9955038581
 20
31.0645131385
 11
155.2095666889
 21
31.1613037812
 12
154.5736289683
 22
31.0322496008
 13
154.5736289683
 23
31.0322496008
  0
SOLID
  8
0
 62
7
  6
CONTINUOUS
 10
155.2095666889
 20
31.1613037812
 11
155.2095666889
 21
31.0322496008
 12
154.5736289683
 22
31.0322496008
 13
154.5736289683
 23
31.0322496008
  0
SOLID
  8
0
 62
7
  6
CONTINUOUS
 10
159.0251916889
 20
31.1290409764
 11
159.1986291889
 21
31.258095219
 12
159.2564414683
 22
31.1935681288
 13
159.2564414683
 23
31.1935681288
  0
SOLID
  8
0
 62
7
  6
CONTINUOUS
 10
159.2564414683
 20
31.1935681288
 11
159.4298789683
 21
31.1290409764
 12
159.0251916889
 22
31.1290409764
 13
159.0251916889
 23
31.1290409764
  0
SOLID
  8
0
 62
7
  6
CONTINUOUS
 10
159.2564414683
 20
31.0322496452
 11
159.0251916889
 21
31.1290409764
 12
159.4298789683
 22
31.1290409764
 13
159.4298789683
 23
31.1290409764
  0
SOLID
  8
0
 62
7
  6
CONTINUOUS
 10
159.4298789683
 20
31.1290409764
 11
160.4126916889
 21
30.9677225551
 12
159.2564414683
 22
31.0322496452
 13
159.2564414683
 23
31.0322496452
  0
SOLID
  8
0
 62
7
  6
CONTINUOUS
 10
160.2392541889
 20
30.8709310886
 11
159.2564414683
 21
31.0322496452
 12
160.4126916889
 22
30.9677225551
 13
160.4126916889
 23
30.9677225551
  0
SOLID
  8
0
 62
7
  6
CONTINUOUS
 10
160.4126916889
 20
30.9677225551
 11
160.6439414683
 21
30.8709310886
 12
160.2392541889
 22
30.8709310886
 13
160.2392541889
 23
30.8709310886
  0
SOLID
  8
0
 62
7
  6
CONTINUOUS
 10
160.4126916889
 20
30.8064040715
 11
160.2392541889
 21
30.8709310886
 12
160.6439414683
 22
30.8709310886
 13
160.6439414683
 23
30.8709310886
  0
SOLID
  8
0
 62
7
  6
CONTINUOUS
 10
160.4126916889
 20
30.8064040715
 11
160.6439414683
 21
30.8709310886
 12
160.4705039683
 22
30.7418753703
 13
160.4705039683
 23
30.7418753703
  0
SOLID
  8
0
 62
7
  6
CONTINUOUS
 10
160.6439414683
 20
30.8709310886
 11
160.7595660273
 21
30.7418753703
 12
160.4705039683
 22
30.7418753703
 13
160.4705039683
 23
30.7418753703
  0
SOLID
  8
0
 62
7
  6
CONTINUOUS
 10
160.4126916889
 20
30.6773482855
 11
160.4705039683
 21
30.7418753703
 12
160.7595660273
 22
30.7418753703
 13
160.7595660273
 23
30.7418753703
  0
SOLID
  8
0
 62
7
  6
CONTINUOUS
 10
160.7595660273
 20
30.7418753703
 11
160.7595660273
 21
30.6773482855
 12
160.4126916889
 22
30.6773482855
 13
160.4126916889
 23
30.6773482855
  0
SOLID
  8
0
 62
7
  6
CONTINUOUS
 10
160.2970664683
 20
30.6450855879
 11
160.4126916889
 21
30.6773482855
 12
160.7595660273
 22
30.6773482855
 13
160.7595660273
 23
30.6773482855
  0
SOLID
  8
0
 62
7
  6
CONTINUOUS
 10
160.2970664683
 20
30.6450855879
 11
160.7595660273
 21
30.6773482855
 12
160.0658166889
 22
30.6128212008
 13
160.0658166889
 23
30.6128212008
  0
SOLID
  8
0
 62
7
  6
CONTINUOUS
 10
160.7595660273
 20
30.6773482855
 11
160.6439414683
 21
30.5805584977
 12
160.0658166889
 22
30.6128212008
 13
160.0658166889
 23
30.6128212008
  0
SOLID
  8
0
 62
7
  6
CONTINUOUS
 10
160.6439414683
 20
30.5805584977
 11
159.1986291889
 21
30.5482941944
 12
160.0658166889
 22
30.6128212008
 13
160.0658166889
 23
30.6128212008
  0
SOLID
  8
0
 62
7
  6
CONTINUOUS
 10
160.0658166889
 20
30.6128212008
 11
159.1986291889
 21
30.5482941944
 12
159.7189416889
 22
30.6128212008
 13
159.7189416889
 23
30.6128212008
  0
SOLID
  8
0
 62
7
  6
CONTINUOUS
 10
159.1986291889
 20
30.5482941944
 11
159.0251916889
 21
30.6128212008
 12
159.7189416889
 22
30.6128212008
 13
159.7189416889
 23
30.6128212008
  0
SOLID
  8
0
 62
7
  6
CONTINUOUS
 10
159.1986291889
 20
30.5482941944
 11
160.6439414683
 21
30.5805584977
 12
159.3720666889
 22
30.5160301864
 13
159.3720666889
 23
30.5160301864
  0
SOLID
  8
0
 62
7
  6
CONTINUOUS
 10
160.6439414683
 20
30.5805584977
 11
160.4126916889
 21
30.5160301864
 12
159.3720666889
 22
30.5160301864
 13
159.3720666889
 23
30.5160301864
  0
SOLID
  8
0
 62
7
  6
CONTINUOUS
 10
159.7189416889
 20
30.4837670312
 11
159.3720666889
 21
30.5160301864
 12
160.4126916889
 22
30.5160301864
 13
160.4126916889
 23
30.5160301864
  0
SOLID
  8
0
 62
7
  6
CONTINUOUS
 10
160.4126916889
 20
30.5160301864
 11
160.0658166889
 21
30.4837670312
 12
159.7189416889
 22
30.4837670312
 13
159.7189416889
 23
30.4837670312
  0
SOLID
  8
0
 62
7
  6
CONTINUOUS
 10
149.3705039683
 20
30.999985342
 11
149.7173789683
 21
31.1613038256
 12
149.6595664615
 22
31.0322496452
 13
149.6595664615
 23
31.0322496452
  0
SOLID
  8
0
 62
7
  6
CONTINUOUS
 10
149.6595664615
 20
31.0322496452
 11
149.6595664615
 21
30.9354583476
 12
149.3705039683
 22
30.999985342
 13
149.3705039683
 23
30.999985342
  0
SOLID
  8
0
 62
7
  6
CONTINUOUS
 10
149.4283164701
 20
30.8064040715
 11
149.3705039683
 21
30.999985342
 12
149.6595664615
 22
30.9354583476
 13
149.6595664615
 23
30.9354583476
  0
SOLID
  8
0
 62
7
  6
CONTINUOUS
 10
149.6595664615
 20
30.9354583476
 11
149.7751914546
 21
30.7741397682
 12
149.4283164701
 22
30.8064040715
 13
149.4283164701
 23
30.8064040715
  0
SOLID
  8
0
 62
7
  6
CONTINUOUS
 10
149.5439414683
 20
30.6773485435
 11
149.4283164701
 21
30.8064040715
 12
149.7751914546
 22
30.7741397682
 13
149.7751914546
 23
30.7741397682
  0
SOLID
  8
0
 62
7
  6
CONTINUOUS
 10
149.7751914546
 20
30.7741397682
 11
149.9486289546
 21
30.6773485435
 12
149.5439414683
 22
30.6773485435
 13
149.5439414683
 23
30.6773485435
  0
SOLID
  8
0
 62
7
  6
CONTINUOUS
 10
149.6595664615
 20
30.6128213107
 11
149.5439414683
 21
30.6773485435
 12
149.9486289546
 22
30.6773485435
 13
149.9486289546
 23
30.6773485435
  0
SOLID
  8
0
 62
7
  6
CONTINUOUS
 10
149.9486289546
 20
30.6773485435
 11
150.2955039959
 21
30.6128213107
 12
149.6595664615
 22
30.6128213107
 13
149.6595664615
 23
30.6128213107
  0
SOLID
  8
0
 62
7
  6
CONTINUOUS
 10
149.8330039821
 20
30.5482941944
 11
149.6595664615
 21
30.6128213107
 12
150.2955039959
 22
30.6128213107
 13
150.2955039959
 23
30.6128213107
  0
SOLID
  8
0
 62
7
  6
CONTINUOUS
 10
153.8798789683
 20
30.9999852815
 11
153.9955038581
 21
31.0645131385
 12
154.5736289683
 22
31.0322496452
 13
154.5736289683
 23
31.0322496452
  0
SOLID
  8
0
 62
7
  6
CONTINUOUS
 10
154.5736289683
 20
31.0322496452
 11
154.3423788581
 21
30.9999852815
 12
153.8798789683
 22
30.9999852815
 13
153.8798789683
 23
30.9999852815
  0
SOLID
  8
0
 62
7
  6
CONTINUOUS
 10
153.7642540786
 20
30.8709311616
 11
153.8798789683
 21
30.9999852815
 12
154.3423788581
 22
30.9999852815
 13
154.3423788581
 23
30.9999852815
  0
SOLID
  8
0
 62
7
  6
CONTINUOUS
 10
154.1111290786
 20
30.9031946612
 11
153.7642540786
 21
30.8709311616
 12
154.2267539683
 22
30.9677225551
 13
154.2267539683
 23
30.9677225551
  0
SOLID
  8
0
 62
7
  6
CONTINUOUS
 10
153.7642540786
 20
30.8709311616
 11
154.3423788581
 21
30.999985342
 12
154.2267539683
 22
30.9677225551
 13
154.2267539683
 23
30.9677225551
  0
SOLID
  8
0
 62
7
  6
CONTINUOUS
 10
154.1111290786
 20
30.9031946612
 11
154.0533164683
 21
30.8064040715
 12
153.7642540786
 22
30.8709311616
 13
153.7642540786
 23
30.8709311616
  0
SOLID
  8
0
 62
7
  6
CONTINUOUS
 10
153.7642540786
 20
30.7741397682
 11
153.7642540786
 21
30.8709311616
 12
154.0533164683
 22
30.8064040715
 13
154.0533164683
 23
30.8064040715
  0
SOLID
  8
0
 62
7
  6
CONTINUOUS
 10
154.0533164683
 20
30.8064040715
 11
154.0533164683
 21
30.7418754649
 12
153.7642540786
 22
30.7741397682
 13
153.7642540786
 23
30.7741397682
  0
SOLID
  8
0
 62
7
  6
CONTINUOUS
 10
153.8220663581
 20
30.6450855879
 11
153.7642540786
 21
30.7741397682
 12
154.0533164683
 22
30.7418754649
 13
154.0533164683
 23
30.7418754649
  0
SOLID
  8
0
 62
7
  6
CONTINUOUS
 10
155.2095666889
 20
30.8386672883
 11
155.4986287478
 21
30.7418754649
 12
155.1517537478
 22
30.7741397682
 13
155.1517537478
 23
30.7741397682
  0
SOLID
  8
0
 62
7
  6
CONTINUOUS
 10
154.9783162478
 20
30.6773483748
 11
155.1517537478
 21
30.7741397682
 12
155.4986287478
 22
30.7418754649
 13
155.4986287478
 23
30.7418754649
  0
SOLID
  8
0
 62
7
  6
CONTINUOUS
 10
154.9783162478
 20
30.6773483748
 11
155.4986287478
 21
30.7418754649
 12
155.2095666889
 22
30.6450855879
 13
155.2095666889
 23
30.6450855879
  0
SOLID
  8
0
 62
7
  6
CONTINUOUS
 10
155.4986287478
 20
30.7418754649
 11
155.5564416889
 21
30.5805584977
 12
155.2095666889
 22
30.6450855879
 13
155.2095666889
 23
30.6450855879
  0
SOLID
  8
0
 62
7
  6
CONTINUOUS
 10
155.2673789683
 20
30.5482941944
 11
155.2095666889
 21
30.6450855879
 12
155.5564416889
 22
30.5805584977
 13
155.5564416889
 23
30.5805584977
  0
SOLID
  8
0
 62
7
  6
CONTINUOUS
 10
155.2673789683
 20
30.5482941944
 11
155.5564416889
 21
30.5805584977
 12
155.3251912478
 22
30.4837669548
 13
155.3251912478
 23
30.4837669548
  0
SOLID
  8
0
 62
7
  6
CONTINUOUS
 10
155.5564416889
 20
30.5805584977
 11
155.6142539683
 21
30.4837669548
 12
155.3251912478
 22
30.4837669548
 13
155.3251912478
 23
30.4837669548
  0
SOLID
  8
0
 62
7
  6
CONTINUOUS
 10
150.8736290235
 20
30.7096125201
 11
150.9314414683
 21
30.8064039377
 12
151.2205040235
 22
30.8064039377
 13
151.2205040235
 23
30.8064039377
  0
SOLID
  8
0
 62
7
  6
CONTINUOUS
 10
151.2205040235
 20
30.8064039377
 11
151.1626914132
 21
30.6773483748
 12
150.8736290235
 22
30.7096125201
 13
150.8736290235
 23
30.7096125201
  0
SOLID
  8
0
 62
7
  6
CONTINUOUS
 10
150.7001914408
 20
30.6450855879
 11
150.8736290235
 21
30.7096125201
 12
151.1626914132
 22
30.6773483748
 13
151.1626914132
 23
30.6773483748
  0
SOLID
  8
0
 62
7
  6
CONTINUOUS
 10
150.7001914408
 20
30.6450855879
 11
151.1626914132
 21
30.6773483748
 12
150.2955039959
 22
30.6128212846
 13
150.2955039959
 23
30.6128212846
  0
SOLID
  8
0
 62
7
  6
CONTINUOUS
 10
151.1626914132
 20
30.6773483748
 11
150.9892539132
 21
30.5805584977
 12
150.2955039959
 22
30.6128212846
 13
150.2955039959
 23
30.6128212846
  0
SOLID
  8
0
 62
7
  6
CONTINUOUS
 10
149.8330039821
 20
30.5482941944
 11
150.2955039959
 21
30.6128212846
 12
150.9892539132
 22
30.5805584977
 13
150.9892539132
 23
30.5805584977
  0
SOLID
  8
0
 62
7
  6
CONTINUOUS
 10
149.8330039821
 20
30.5482941944
 11
150.9892539132
 21
30.5805584977
 12
150.0064414821
 22
30.5160300219
 13
150.0064414821
 23
30.5160300219
  0
SOLID
  8
0
 62
7
  6
CONTINUOUS
 10
150.9892539132
 20
30.5805584977
 11
150.7580039683
 21
30.5160300219
 12
150.0064414821
 22
30.5160300219
 13
150.0064414821
 23
30.5160300219
  0
SOLID
  8
0
 62
7
  6
CONTINUOUS
 10
150.3533164408
 20
30.4837671043
 11
150.0064414821
 21
30.5160300219
 12
150.7580039683
 22
30.5160300219
 13
150.7580039683
 23
30.5160300219
  0
SOLID
  8
0
 62
7
  6
CONTINUOUS
 10
153.8220663581
 20
30.6450855879
 11
154.0533164683
 21
30.7418754649
 12
154.1111290786
 22
30.6773483748
 13
154.1111290786
 23
30.6773483748
  0
SOLID
  8
0
 62
7
  6
CONTINUOUS
 10
154.1111290786
 20
30.6773483748
 11
154.3423788581
 21
30.6128212846
 12
153.8220663581
 22
30.6450855879
 13
153.8220663581
 23
30.6450855879
  0
SOLID
  8
0
 62
7
  6
CONTINUOUS
 10
153.9955038581
 20
30.5482941944
 11
153.8220663581
 21
30.6450855879
 12
154.3423788581
 22
30.6128212846
 13
154.3423788581
 23
30.6128212846
  0
SOLID
  8
0
 62
7
  6
CONTINUOUS
 10
154.6892538581
 20
30.6128213209
 11
154.9783162478
 21
30.6773483748
 12
155.2095666889
 22
30.6450855879
 13
155.2095666889
 23
30.6450855879
  0
SOLID
  8
0
 62
7
  6
CONTINUOUS
 10
155.2095666889
 20
30.6450855879
 11
155.1517537478
 21
30.5805584977
 12
154.6892538581
 22
30.6128213209
 13
154.6892538581
 23
30.6128213209
  0
SOLID
  8
0
 62
7
  6
CONTINUOUS
 10
155.1517537478
 20
30.5805584977
 11
153.9955038581
 21
30.5482941944
 12
154.6892538581
 22
30.6128213209
 13
154.6892538581
 23
30.6128213209
  0
SOLID
  8
0
 62
7
  6
CONTINUOUS
 10
153.9955038581
 20
30.5482941944
 11
154.3423788581
 21
30.6128213209
 12
154.6892538581
 22
30.6128213209
 13
154.6892538581
 23
30.6128213209
  0
SOLID
  8
0
 62
7
  6
CONTINUOUS
 10
153.9955038581
 20
30.5482941944
 11
155.1517537478
 21
30.5805584977
 12
154.1111290786
 22
30.5160299113
 13
154.1111290786
 23
30.5160299113
  0
SOLID
  8
0
 62
7
  6
CONTINUOUS
 10
155.1517537478
 20
30.5805584977
 11
154.9783162478
 21
30.5160299113
 12
154.1111290786
 22
30.5160299113
 13
154.1111290786
 23
30.5160299113
  0
SOLID
  8
0
 62
7
  6
CONTINUOUS
 10
154.3423788581
 20
30.483767076
 11
154.1111290786
 21
30.5160299113
 12
154.9783162478
 22
30.5160299113
 13
154.9783162478
 23
30.5160299113
  0
SOLID
  8
0
 62
7
  6
CONTINUOUS
 10
154.9783162478
 20
30.5160299113
 11
154.6892538581
 21
30.483767076
 12
154.3423788581
 22
30.483767076
 13
154.3423788581
 23
30.483767076
  0
SOLID
  8
0
 62
7
  6
CONTINUOUS
 10
159.3720666889
 20
30.6450855879
 11
159.0251916889
 21
30.6128213209
 12
159.2564414683
 22
30.6773483748
 13
159.2564414683
 23
30.6773483748
  0
SOLID
  8
0
 62
7
  6
CONTINUOUS
 10
159.2564414683
 20
30.6773483748
 11
159.0251916889
 21
30.6128213209
 12
159.1986291889
 22
30.7418755012
 13
159.1986291889
 23
30.7418755012
  0
SOLID
  8
0
 62
7
  6
CONTINUOUS
 10
159.0251916889
 20
30.6128213209
 11
158.9095664683
 21
30.7418755012
 12
159.1986291889
 22
30.7418755012
 13
159.1986291889
 23
30.7418755012
  0
SOLID
  8
0
 62
7
  6
CONTINUOUS
 10
159.3720666889
 20
30.6450855879
 11
159.7189416889
 21
30.6128213209
 12
159.0251916889
 22
30.6128213209
 13
159.0251916889
 23
30.6128213209
  0
SOLID
  8
0
 62
7
  6
CONTINUOUS
 10
156.0767541889
 20
30.4837671043
 11
156.0767541889
 21
31.5162050961
 12
156.3658162478
 22
30.4837671043
 13
156.3658162478
 23
31.5162050961
  0
ENDBLK
  8
0
  6
BYBLOCK
 62
0
  0
BLOCK
  8
0
 62
2
  6
CONTINUOUS
  2
SYMBOL_3_BL0
 70
64
 10
31.7661185167
 20
19.8972369706
  0
TEXT
  8
0
 62
7
  6
CONTINUOUS
 10
18.0387879101
 20
19.2884917655
  7
TEXTSTYLE_3
 40
2.7338706658
  1
Ammeraal Beltech
 41
1.0
 51
15.0
 72
0
  0
TEXT
  8
0
 62
7
  6
CONTINUOUS
 10
28.8395887358
 20
17.0149550926
  7
TEXTSTYLE_4
 40
1.0935482663
  1
Innovation & Service in Belting
 41
1.0
 72
0
  0
LINE
  8
0
 62
7
  6
CONTINUOUS
 10
12.0142472588
 20
20.055085074
 11
12.7923992521
 21
23.7160023717
  0
LINE
  8
0
 62
7
  6
CONTINUOUS
 10
22.8875675419
 20
27.3793962833
 11
13.2802169951
 21
24.257778862
  0
LINE
  8
0
 62
7
  6
CONTINUOUS
 10
12.2395305911
 20
19.361734271
 11
19.7466058522
 21
12.602333345
  0
LINE
  8
0
 62
7
  6
CONTINUOUS
 10
12.5020650018
 20
20.5968615644
 11
23.310334367
 21
24.1086811633
  0
LINE
  8
0
 62
7
  6
CONTINUOUS
 10
23.3061292298
 20
13.7588925996
 11
14.860669561
 21
21.3632186413
  0
LINE
  8
0
 62
7
  6
CONTINUOUS
 10
23.8259519496
 20
26.5344711676
 11
22.8493924124
 21
21.9401197651
  0
LINE
  8
0
 62
7
  6
CONTINUOUS
 10
22.1495904647
 20
18.6478104513
 11
21.4631422532
 21
15.4183255269
  0
LINE
  8
0
 62
7
  6
CONTINUOUS
 10
24.5070480481
 20
14.1490947773
 11
25.4632795838
 21
18.6478104513
  0
LINE
  8
0
 62
7
  6
CONTINUOUS
 10
26.1630815315
 20
21.9401197651
 11
26.6073233338
 21
24.0301131245
  0
LINE
  8
0
 62
7
  6
CONTINUOUS
 10
20.4597069275
 20
12.4507590323
 11
24.0192303051
 21
13.6073182869
  0
LINE
  8
0
 62
7
  6
CONTINUOUS
 10
23.6006686173
 20
27.2278219706
 11
26.3820400015
 21
24.7234639276
  0
ARC
  8
0
 62
7
  6
CONTINUOUS
 10
13.5055003274
 20
23.564428059
 40
0.7290321776
 50
108.0
 51
168.0
  0
ARC
  8
0
 62
7
  6
CONTINUOUS
 10
23.1128508743
 20
26.6860454803
 40
0.7290321776
 50
348.0
 51
108.0
  0
ARC
  8
0
 62
7
  6
CONTINUOUS
 10
25.8942222585
 20
24.1816874372
 40
0.7290321776
 50
348.0
 51
48.0
  0
ARC
  8
0
 62
7
  6
CONTINUOUS
 10
20.2344235952
 20
13.1441098354
 40
0.7290321776
 50
228.0
 51
288.0
  0
ARC
  8
0
 62
7
  6
CONTINUOUS
 10
12.7273483341
 20
19.9035107613
 40
0.7290321776
 50
108.0
 51
228.0
  0
ARC
  8
0
 62
7
  6
CONTINUOUS
 10
23.7939469728
 20
14.30066909
 40
0.7290321776
 50
228.0
 51
348.0
  0
ENDBLK
  8
0
  6
BYBLOCK
 62
0
  0
ENDSEC
  0
SECTION
  2
ENTITIES
  0
TEXT
  8
0
 62
5
  6
CONTINUOUS
 10
96.0
 20
25.636
  7
TEXTSTYLE_2
 40
2.8
  1
Scale :
 41
0.6
 51
0.000019
 72
0
  0
TEXT
  8
0
 62
5
  6
CONTINUOUS
 10
116.0
 20
25.636
  7
TEXTSTYLE_2
 40
2.8
  1
Chain type:
 41
0.6
 51
0.000019
 72
0
  0
INSERT
  8
0
 62
2
  6
CONTINUOUS
  2
SYMBOL_3_BL0
 10
31.7661185167
 20
19.8972369706
  0
INSERT
  8
0
 62
2
  6
CONTINUOUS
  2
SYMBOL_11_BL1
 10
173.3924355793
 20
35.4326167403
  0
LINE
  8
0
 62
2
  6
CONTINUOUS
 10
10.0
 20
30.0
 11
200.0
 21
30.0
  0
LINE
  8
0
 62
2
  6
CONTINUOUS
 10
10.0
 20
30.0
 11
10.0
 21
10.0
  0
LINE
  8
0
 62
2
  6
CONTINUOUS
 10
10.0
 20
10.0
 11
200.0
 21
10.0
  0
LINE
  8
0
 62
2
  6
CONTINUOUS
 10
95.0
 20
30.0
 11
95.0
 21
10.0
  0
LINE
  8
0
 62
2
  6
CONTINUOUS
 10
115.0
 20
30.0
 11
115.0
 21
10.0
  0
LINE
  8
0
 62
2
  6
CONTINUOUS
 10
200.0
 20
30.0
 11
200.0
 21
10.0
  0
TEXT
  8
0
 62
5
  6
CONTINUOUS
 10
13.0
 20
23.303
  7
TEXTSTYLE_5
 40
1.52
  1
                                                                     Ammeraal Beltech Modular A/S
 41
1.0
 72
0
  0
TEXT
  8
0
 62
5
  6
CONTINUOUS
 10
13.0
 20
20.595
  7
TEXTSTYLE_5
 40
1.5
  1
                                                                      Hjulmagervej 21,  7100 Vejle,  DK
 41
1.0
 72
0
  0
TEXT
  8
0
 62
5
  6
CONTINUOUS
 10
13.0
 20
17.881
  7
TEXTSTYLE_5
 40
1.495
  1
                                                                      tel: 
 41
1.0
 72
0
  0
TEXT
  8
0
 62
5
  6
CONTINUOUS
 10
57.9869465649
 20
17.881
  7
TEXTSTYLE_5
 40
1.51
  1
+45 75723100     fax: +45 75723348
 41
1.0
 72
0
  0
TEXT
  8
0
 62
5
  6
CONTINUOUS
 10
13.0
 20
15.177
  7
TEXTSTYLE_5
 40
1.5
  1
                                                                      admin@unichains.dk  www.unichains.com
 41
1.0
 72
0
  0
TEXT
  8
0
 62
5
  6
CONTINUOUS
 10
99.75
 20
13.75
  7
TEXTSTYLE_6
 40
5.0
  1
1:1
 41
0.7
 72
1
 11
105.0
 21
13.75
  0
TEXT
  8
0
 62
5
  6
CONTINUOUS
 10
118.0
 20
13.75
  7
TEXTSTYLE_7
 40
7.5
  1
Z19
 41
0.6222222222
 72
0
  0
LINE
  8
0
 62
7
  6
CONTINUOUS
 10
210.0
 20
0.0
 11
0.0
 21
0.0
  0
LINE
  8
0
 62
7
  6
CONTINUOUS
 10
10.0
 20
10.0
 11
200.0
 21
10.0
  0
LINE
  8
0
 62
7
  6
CONTINUOUS
 10
10.0
 20
30.0
 11
200.0
 21
30.0
  0
LINE
  8
0
 62
7
  6
CONTINUOUS
 10
0.0
 20
0.0
 11
0.0
 21
297.0
  0
LINE
  8
0
 62
7
  6
CONTINUOUS
 10
10.0
 20
10.0
 11
10.0
 21
287.0
  0
LINE
  8
0
 62
7
  6
CONTINUOUS
 10
200.0
 20
287.0
 11
200.0
 21
10.0
  0
LINE
  8
0
 62
7
  6
CONTINUOUS
 10
210.0
 20
0.0
 11
210.0
 21
297.0
  0
LINE
  8
0
 62
7
  6
CONTINUOUS
 10
10.0
 20
287.0
 11
200.0
 21
287.0
  0
LINE
  8
0
 62
7
  6
CONTINUOUS
 10
0.0
 20
297.0
 11
210.0
 21
297.0
  0
LINE
  8
2_FEATURE
 62
7
  6
CONTINUOUS
 10
42.1886701813
 20
222.6994118916
 11
41.9644971406
 21
219.9887508658
  0
LINE
  8
2_FEATURE
 62
7
  6
CONTINUOUS
 10
47.3469833868
 20
241.256021909
 11
46.2546920537
 21
238.7650710077
  0
LINE
  8
2_FEATURE
 62
7
  6
CONTINUOUS
 10
58.2518555582
 20
257.1317812102
 11
56.409845229
 21
255.1305479165
  0
LINE
  8
2_FEATURE
 62
7
  6
CONTINUOUS
 10
73.721249311
 20
268.6058313838
 11
71.3291853313
 21
267.3112400716
  0
LINE
  8
2_FEATURE
 62
7
  6
CONTINUOUS
 10
99.0246714904
 20
158.0391479615
 11
101.7445861253
 21
158.0402098233
  0
LINE
  8
2_FEATURE
 62
7
  6
CONTINUOUS
 10
80.1046434334
 20
161.6431053402
 11
82.6774898574
 21
160.7608366581
  0
LINE
  8
2_FEATURE
 62
7
  6
CONTINUOUS
 10
63.3803964702
 20
171.1958815848
 11
65.5272901067
 21
169.5259161772
  0
LINE
  8
2_FEATURE
 62
7
  6
CONTINUOUS
 10
50.6647611253
 20
185.6620002156
 11
52.1529886973
 21
183.3853545596
  0
LINE
  8
2_FEATURE
 62
7
  6
CONTINUOUS
 10
43.3360530827
 20
203.4734013084
 11
44.0042976486
 21
200.8368531961
  0
LINE
  8
0
 62
7
  6
CONTINUOUS
 10
61.9886378612
 20
246.3239709497
 11
61.7344864445
 21
245.9937909522
  0
LINE
  8
0
 62
7
  6
CONTINUOUS
 10
69.1349348522
 20
253.7459414887
 11
68.817453874
 21
253.4760978025
  0
LINE
  8
0
 62
7
  6
CONTINUOUS
 10
75.4798207185
 20
258.2543441451
 11
75.1228615867
 21
258.0394256377
  0
LINE
  8
0
 62
7
  6
CONTINUOUS
 10
86.119041732
 20
263.0042254994
 11
82.7703536598
 21
261.8511081097
  0
LINE
  8
0
 62
7
  6
CONTINUOUS
 10
53.3575336296
 20
215.6776260071
 11
53.3830583052
 21
215.157418399
  0
LINE
  8
0
 62
7
  6
CONTINUOUS
 10
53.4851569837
 20
213.0765884503
 11
53.5106816538
 21
212.5563809538
  0
LINE
  8
0
 62
7
  6
CONTINUOUS
 10
56.4041468319
 20
214.3670244205
 11
56.4245665709
 21
213.9508583638
  0
LINE
  8
0
 62
7
  6
CONTINUOUS
 10
56.8495871605
 20
213.9717125622
 11
56.8291674215
 21
214.3878786189
  0
LINE
  8
0
 62
7
  6
CONTINUOUS
 10
56.7730131484
 20
215.5323350888
 11
56.7474884728
 21
216.0525426969
  0
LINE
  8
0
 62
7
  6
CONTINUOUS
 10
54.1500729079
 20
229.3204848602
 11
54.1643471342
 21
229.7502805814
  0
LINE
  8
0
 62
7
  6
CONTINUOUS
 10
55.9293777322
 20
230.1045594617
 11
55.9151031729
 21
229.674762596
  0
LINE
  8
0
 62
7
  6
CONTINUOUS
 10
56.1929926368
 20
228.7259981614
 11
56.207266863
 21
229.1557938825
  0
LINE
  8
0
 62
7
  6
CONTINUOUS
 10
53.4309778431
 20
218.9033570404
 11
53.4135696964
 21
218.487053986
  0
LINE
  8
0
 62
7
  6
CONTINUOUS
 10
53.3744013851
 20
217.5503725602
 11
53.352641208
 21
217.0299938911
  0
LINE
  8
0
 62
7
  6
CONTINUOUS
 10
56.753924008
 20
216.8877657013
 11
56.7756841851
 21
217.4081443704
  0
LINE
  8
0
 62
7
  6
CONTINUOUS
 10
56.8540208078
 20
219.281507222
 11
56.8757809724
 21
219.8018855933
  0
LINE
  8
0
 62
7
  6
CONTINUOUS
 10
53.6536172735
 20
229.8989022353
 11
53.6102377478
 21
229.3690878081
  0
LINE
  8
0
 62
7
  6
CONTINUOUS
 10
52.0472874448
 20
221.6500976118
 11
51.995111657
 21
221.1318844883
  0
LINE
  8
0
 62
7
  6
CONTINUOUS
 10
52.5243507304
 20
221.0785985634
 11
52.5765265182
 21
221.5968116868
  0
LINE
  8
0
 62
7
  6
CONTINUOUS
 10
53.6350049615
 20
221.4902398071
 11
53.5828291737
 21
220.9720266836
  0
LINE
  8
0
 62
7
  6
CONTINUOUS
 10
56.9699595399
 20
220.6309967341
 11
57.0221353277
 21
221.1492098575
  0
LINE
  8
0
 62
7
  6
CONTINUOUS
 10
55.7879861712
 20
234.196809028
 11
55.8867383785
 21
234.7191445082
  0
LINE
  8
0
 62
7
  6
CONTINUOUS
 10
59.6285731876
 20
233.7510486707
 11
59.5298218831
 21
233.2287153972
  0
LINE
  8
0
 62
7
  6
CONTINUOUS
 10
55.3944298621
 20
234.9205538208
 11
55.2562355948
 21
234.3018093825
  0
LINE
  8
0
 62
7
  6
CONTINUOUS
 10
53.7700374719
 20
230.2989736256
 11
53.6536172735
 21
229.8989022353
  0
LINE
  8
0
 62
7
  6
CONTINUOUS
 10
54.1643471342
 20
229.7502805814
 11
54.2807673326
 21
230.1503519717
  0
LINE
  8
0
 62
7
  6
CONTINUOUS
 10
55.9151031729
 20
229.674762596
 11
55.7986829745
 21
229.2746912056
  0
LINE
  8
0
 62
7
  6
CONTINUOUS
 10
56.207266863
 20
229.1557938825
 11
56.3236870614
 21
229.5558652729
  0
LINE
  8
0
 62
7
  6
CONTINUOUS
 10
58.0601688023
 20
229.0505515872
 11
57.9437486039
 21
228.6504801968
  0
LINE
  8
0
 62
7
  6
CONTINUOUS
 10
58.4253735698
 20
228.4018409607
 11
58.600004034
 21
229.0019486185
  0
LINE
  8
0
 62
7
  6
CONTINUOUS
 10
53.8387300092
 20
218.4692754638
 11
53.962428234
 21
218.8811338877
  0
LINE
  8
0
 62
7
  6
CONTINUOUS
 10
57.8892524172
 20
238.7778649204
 11
58.0422848172
 21
239.2869473825
  0
LINE
  8
0
 62
7
  6
CONTINUOUS
 10
61.661833522
 20
237.9314384514
 11
61.508801122
 21
237.4223559892
  0
LINE
  8
0
 62
7
  6
CONTINUOUS
 10
57.57383673
 20
239.5389191591
 11
57.3714594747
 21
238.9380982357
  0
LINE
  8
0
 62
7
  6
CONTINUOUS
 10
53.550324025
 20
219.2111395518
 11
53.4309778431
 21
218.9033570404
  0
LINE
  8
0
 62
7
  6
CONTINUOUS
 10
68.3307541353
 20
252.9228082187
 11
68.1510661868
 21
252.490845987
  0
LINE
  8
0
 62
7
  6
CONTINUOUS
 10
61.9861416586
 20
245.2742734032
 11
62.1559919702
 21
245.6693429927
  0
LINE
  8
0
 62
7
  6
CONTINUOUS
 10
63.9288101624
 20
245.3563570382
 11
63.7589613051
 21
244.961289338
  0
LINE
  8
0
 62
7
  6
CONTINUOUS
 10
63.6721639975
 20
243.9764813834
 11
63.842014309
 21
244.3715509729
  0
LINE
  8
0
 62
7
  6
CONTINUOUS
 10
61.7344864445
 20
245.9937909522
 11
61.5010993695
 21
245.5161777803
  0
LINE
  8
0
 62
7
  6
CONTINUOUS
 10
54.0177089418
 20
230.7693393912
 11
53.7700374719
 21
230.2989736256
  0
LINE
  8
0
 62
7
  6
CONTINUOUS
 10
54.2807673326
 20
230.1503519717
 11
54.4993338362
 21
230.5207001759
  0
LINE
  8
0
 62
7
  6
CONTINUOUS
 10
55.7986829745
 20
229.2746912056
 11
55.5801168039
 21
228.9043441461
  0
LINE
  8
0
 62
7
  6
CONTINUOUS
 10
56.3236870614
 20
229.5558652729
 11
56.542253565
 21
229.9262134771
  0
LINE
  8
0
 62
7
  6
CONTINUOUS
 10
55.7295475359
 20
235.4587345341
 11
55.3944298621
 21
234.9205538208
  0
LINE
  8
0
 62
7
  6
CONTINUOUS
 10
65.28776311
 20
249.2189669439
 11
65.569995171
 21
249.66944604
  0
LINE
  8
0
 62
7
  6
CONTINUOUS
 10
68.7021248831
 20
247.4048708578
 11
68.4198944666
 21
246.9543934879
  0
LINE
  8
0
 62
7
  6
CONTINUOUS
 10
55.8867383785
 20
234.7191445082
 11
56.1824130897
 21
235.1609140566
  0
LINE
  8
0
 62
7
  6
CONTINUOUS
 10
59.5298218831
 20
233.2287153972
 11
59.2341462691
 21
232.7869436421
  0
LINE
  8
0
 62
7
  6
CONTINUOUS
 10
65.1848736956
 20
250.0363449849
 11
64.830791679
 21
249.5104474083
  0
LINE
  8
0
 62
7
  6
CONTINUOUS
 10
62.1559919702
 20
245.6693429927
 11
62.4101433868
 21
245.9995229902
  0
LINE
  8
0
 62
7
  6
CONTINUOUS
 10
63.7589613051
 20
244.961289338
 11
63.5048098885
 21
244.6311093405
  0
LINE
  8
0
 62
7
  6
CONTINUOUS
 10
63.842014309
 20
244.3715509729
 11
64.0961657257
 21
244.7017309704
  0
LINE
  8
0
 62
7
  6
CONTINUOUS
 10
65.5292846901
 20
243.5986077718
 11
65.2751332734
 21
243.2684277742
  0
LINE
  8
0
 62
7
  6
CONTINUOUS
 10
65.6331006404
 20
242.8614342975
 11
66.0143270382
 21
243.3567033492
  0
LINE
  8
0
 62
7
  6
CONTINUOUS
 10
57.9635932201
 20
240.0389513719
 11
57.57383673
 21
239.5389191591
  0
LINE
  8
0
 62
7
  6
CONTINUOUS
 10
68.7546096794
 20
252.5849750927
 11
69.082563479
 21
253.0033382012
  0
LINE
  8
0
 62
7
  6
CONTINUOUS
 10
58.0422848172
 20
239.2869473825
 11
58.3826964521
 21
239.6952411341
  0
LINE
  8
0
 62
7
  6
CONTINUOUS
 10
61.508801122
 20
237.4223559892
 11
61.1683894871
 21
237.0140622377
  0
LINE
  8
0
 62
7
  6
CONTINUOUS
 10
68.817453874
 20
253.4760978025
 11
68.3307541353
 21
252.9228082187
  0
LINE
  8
0
 62
7
  6
CONTINUOUS
 10
75.095140534
 20
257.2776740991
 11
75.3972266526
 21
257.5837314451
  0
LINE
  8
0
 62
7
  6
CONTINUOUS
 10
76.9342443526
 20
256.6464880861
 11
76.632154149
 21
256.3404282807
  0
LINE
  8
0
 62
7
  6
CONTINUOUS
 10
76.1926009513
 20
255.4548970732
 11
76.4946870699
 21
255.7609544192
  0
LINE
  8
0
 62
7
  6
CONTINUOUS
 10
75.1228615867
 20
258.0394256377
 11
74.7315326214
 21
257.6796368203
  0
LINE
  8
0
 62
7
  6
CONTINUOUS
 10
62.3906271464
 20
246.6718049378
 11
61.9886378612
 21
246.3239709497
  0
LINE
  8
0
 62
7
  6
CONTINUOUS
 10
69.082563479
 20
253.0033382012
 11
69.4000480906
 21
253.2731849755
  0
LINE
  8
0
 62
7
  6
CONTINUOUS
 10
68.305386175
 20
251.5050664253
 11
68.7022383062
 21
251.8423718051
  0
LINE
  8
0
 62
7
  6
CONTINUOUS
 10
73.2191470268
 20
251.3533693201
 11
70.9967729123
 21
249.4644573403
  0
LINE
  8
0
 62
7
  6
CONTINUOUS
 10
70.7062899453
 20
248.5194704593
 11
73.5636296497
 21
250.9480728997
  0
LINE
  8
0
 62
7
  6
CONTINUOUS
 10
62.4101433868
 20
245.9995229902
 11
62.7485944544
 21
246.2648115066
  0
LINE
  8
0
 62
7
  6
CONTINUOUS
 10
63.5048098885
 20
244.6311093405
 11
63.1663573667
 21
244.3658189348
  0
LINE
  8
0
 62
7
  6
CONTINUOUS
 10
64.0961657257
 20
244.7017309704
 11
64.4346167932
 21
244.9670194868
  0
LINE
  8
0
 62
7
  6
CONTINUOUS
 10
65.6930043023
 20
250.4154829834
 11
65.1848736956
 21
250.0363449849
  0
LINE
  8
0
 62
7
  6
CONTINUOUS
 10
79.6068170612
 20
259.7487227258
 11
80.0337451175
 21
260.065446296
  0
LINE
  8
0
 62
7
  6
CONTINUOUS
 10
82.125808273
 20
256.8155522169
 11
81.698875896
 21
256.4988266294
  0
LINE
  8
0
 62
7
  6
CONTINUOUS
 10
65.569995171
 20
249.66944604
 11
66.0062741776
 21
249.9731638319
  0
LINE
  8
0
 62
7
  6
CONTINUOUS
 10
68.4198944666
 20
246.9543934879
 11
67.9836138155
 21
246.6506739698
  0
LINE
  8
0
 62
7
  6
CONTINUOUS
 10
79.8087274745
 20
260.5474218628
 11
79.2874096447
 21
260.1866309875
  0
LINE
  8
0
 62
7
  6
CONTINUOUS
 10
84.6504018981
 20
259.910688513
 11
85.0097270455
 21
260.1469353341
  0
LINE
  8
0
 62
7
  6
CONTINUOUS
 10
75.3972266526
 20
257.5837314451
 11
75.7541857844
 21
257.7986499524
  0
LINE
  8
0
 62
7
  6
CONTINUOUS
 10
76.632154149
 20
256.3404282807
 11
76.2751950172
 21
256.1255097733
  0
LINE
  8
0
 62
7
  6
CONTINUOUS
 10
76.4946870699
 20
255.7609544192
 11
76.8516462017
 21
255.9758729266
  0
LINE
  8
0
 62
7
  6
CONTINUOUS
 10
77.784487541
 20
254.4265124801
 11
77.4275284093
 21
254.2115939727
  0
LINE
  8
0
 62
7
  6
CONTINUOUS
 10
77.6126547519
 20
253.7021707043
 11
78.1480954921
 21
254.0245496951
  0
LINE
  8
0
 62
7
  6
CONTINUOUS
 10
69.6800546512
 20
254.0696492894
 11
69.1349348522
 21
253.7459414887
  0
LINE
  8
0
 62
7
  6
CONTINUOUS
 10
84.8365428998
 20
260.6498673755
 11
84.3787238769
 21
260.3797042869
  0
LINE
  8
0
 62
7
  6
CONTINUOUS
 10
69.4000480906
 20
253.2731849755
 11
69.86579492
 21
253.5294295385
  0
LINE
  8
0
 62
7
  6
CONTINUOUS
 10
75.9808957102
 20
258.4318552855
 11
75.4798207185
 21
258.2543441451
  0
LINE
  8
0
 62
7
  6
CONTINUOUS
 10
83.4359936576
 20
261.5177527486
 11
86.2922258777
 21
262.5012934579
  0
LINE
  8
0
 62
7
  6
CONTINUOUS
 10
85.427488119
 20
260.8533587709
 11
84.8365428998
 21
260.6498673755
  0
LINE
  8
0
 62
7
  6
CONTINUOUS
 10
85.0097270455
 20
260.1469353341
 11
85.6006722646
 21
260.3504267295
  0
LINE
  8
0
 62
7
  6
CONTINUOUS
 10
83.6709113142
 20
259.2358612125
 11
84.3603459003
 21
259.4732673229
  0
LINE
  8
0
 62
7
  6
CONTINUOUS
 10
84.573588044
 20
258.5340747924
 11
83.9826428249
 21
258.330583397
  0
LINE
  8
0
 62
7
  6
CONTINUOUS
 10
86.2934089199
 20
258.3386983524
 11
85.7024637008
 21
258.135206957
  0
LINE
  8
0
 62
7
  6
CONTINUOUS
 10
85.8756478707
 20
257.6322748452
 11
86.4665930898
 21
257.8357662405
  0
LINE
  8
0
 62
7
  6
CONTINUOUS
 10
75.7541857844
 20
257.7986499524
 11
76.1660220144
 21
257.9224320809
  0
LINE
  8
0
 62
7
  6
CONTINUOUS
 10
76.2751950172
 20
256.1255097733
 11
75.8633628723
 21
256.0017301044
  0
LINE
  8
0
 62
7
  6
CONTINUOUS
 10
76.8516462017
 20
255.9758729266
 11
77.2634824317
 21
256.099655055
  0
LINE
  8
0
 62
7
  6
CONTINUOUS
 10
53.4135696964
 20
218.487053986
 11
53.5024516279
 21
218.066306301
  0
LINE
  8
0
 62
7
  6
CONTINUOUS
 10
53.9276119407
 20
218.0485277789
 11
53.8387300092
 21
218.4692754638
  0
LINE
  8
0
 62
7
  6
CONTINUOUS
 10
57.9285982157
 20
238.4018629257
 11
57.8892524172
 21
238.7778649204
  0
LINE
  8
0
 62
7
  6
CONTINUOUS
 10
57.3714594747
 20
238.9380982357
 11
57.4058063096
 21
238.3282270629
  0
LINE
  8
0
 62
7
  6
CONTINUOUS
 10
61.9848950116
 20
244.7494265192
 11
61.9861416586
 21
245.2742734032
  0
LINE
  8
0
 62
7
  6
CONTINUOUS
 10
58.0744433617
 20
229.4803484529
 11
58.0601688023
 21
229.0505515872
  0
LINE
  8
0
 62
7
  6
CONTINUOUS
 10
58.600004034
 20
229.0019486185
 11
58.6433832176
 21
229.5317619037
  0
LINE
  8
0
 62
7
  6
CONTINUOUS
 10
61.5010993695
 20
245.5161777803
 11
61.4363130505
 21
244.9087835353
  0
LINE
  8
0
 62
7
  6
CONTINUOUS
 10
65.2262585443
 20
248.8459484721
 11
65.28776311
 21
249.2189669439
  0
LINE
  8
0
 62
7
  6
CONTINUOUS
 10
63.1651107197
 20
243.8409720508
 11
63.1223353893
 21
243.6109915155
  0
LINE
  8
0
 62
7
  6
CONTINUOUS
 10
63.5866162453
 20
243.5165240913
 11
63.6721639975
 21
243.9764813834
  0
LINE
  8
0
 62
7
  6
CONTINUOUS
 10
64.4358648945
 20
245.4918682601
 11
64.4786387705
 21
245.7218469061
  0
LINE
  8
0
 62
7
  6
CONTINUOUS
 10
65.7846827537
 20
244.4536346533
 11
65.6991335473
 21
243.9936754719
  0
LINE
  8
0
 62
7
  6
CONTINUOUS
 10
56.7637517484
 20
213.5503330303
 11
56.8495871605
 21
213.9717125622
  0
LINE
  8
0
 62
7
  6
CONTINUOUS
 10
64.830791679
 20
249.5104474083
 11
64.7026082082
 21
248.9132087343
  0
LINE
  8
0
 62
7
  6
CONTINUOUS
 10
60.0221304685
 20
233.0273060564
 11
60.1603247271
 21
233.6460504982
  0
LINE
  8
0
 62
7
  6
CONTINUOUS
 10
68.6542910672
 20
252.2204730105
 11
68.7546096794
 21
252.5849750927
  0
LINE
  8
0
 62
7
  6
CONTINUOUS
 10
61.9772492749
 20
237.1703841774
 11
62.1796265219
 21
237.7712051052
  0
LINE
  8
0
 62
7
  6
CONTINUOUS
 10
74.9027963567
 20
256.7893366166
 11
75.095140534
 21
257.2776740991
  0
LINE
  8
0
 62
7
  6
CONTINUOUS
 10
65.6991335473
 20
243.9936754719
 11
65.5292846901
 21
243.5986077718
  0
LINE
  8
0
 62
7
  6
CONTINUOUS
 10
56.4245665709
 20
213.9508583638
 11
56.2324759929
 21
213.5242652814
  0
LINE
  8
0
 62
7
  6
CONTINUOUS
 10
66.0143270382
 20
243.3567033492
 11
66.2477155601
 21
243.8343184161
  0
LINE
  8
0
 62
7
  6
CONTINUOUS
 10
74.7315326214
 20
257.6796368203
 11
74.4499537675
 21
257.1375727853
  0
LINE
  8
0
 62
7
  6
CONTINUOUS
 10
58.1777020909
 20
227.9314751977
 11
58.4253735698
 21
228.4018409607
  0
LINE
  8
0
 62
7
  6
CONTINUOUS
 10
53.962428234
 20
218.8811338877
 11
54.0774223731
 21
219.0848404866
  0
LINE
  8
0
 62
7
  6
CONTINUOUS
 10
57.9437486039
 20
228.6504801968
 11
57.7251824334
 21
228.2801331373
  0
LINE
  8
0
 62
7
  6
CONTINUOUS
 10
79.4136634391
 20
259.4237346181
 11
79.6068170612
 21
259.7487227258
  0
LINE
  8
0
 62
7
  6
CONTINUOUS
 10
75.6710186949
 20
255.5133926219
 11
75.5474141848
 21
255.3147957594
  0
LINE
  8
0
 62
7
  6
CONTINUOUS
 10
75.9453837608
 20
255.0576984292
 11
76.1926009513
 21
255.4548970732
  0
LINE
  8
0
 62
7
  6
CONTINUOUS
 10
77.4558225239
 20
256.5879900779
 11
77.5794311192
 21
256.7865893999
  0
LINE
  8
0
 62
7
  6
CONTINUOUS
 10
78.3337908501
 20
255.12976847
 11
78.0865777447
 21
254.7325722855
  0
LINE
  8
0
 62
7
  6
CONTINUOUS
 10
59.687012786
 20
232.4891253466
 11
60.0221304685
 21
233.0273060564
  0
LINE
  8
0
 62
7
  6
CONTINUOUS
 10
79.2874096447
 20
260.1866309875
 11
78.9504886455
 21
259.6771171905
  0
LINE
  8
0
 62
7
  6
CONTINUOUS
 10
68.805015996
 20
246.5874944916
 11
69.1590980058
 21
247.1133920746
  0
LINE
  8
0
 62
7
  6
CONTINUOUS
 10
53.7759602852
 20
219.5144774326
 11
53.550324025
 21
219.2111395518
  0
LINE
  8
0
 62
7
  6
CONTINUOUS
 10
61.5874927765
 20
236.670351969
 11
61.9772492749
 21
237.1703841774
  0
LINE
  8
0
 62
7
  6
CONTINUOUS
 10
84.3787238769
 20
260.3797042869
 11
83.9901830207
 21
259.9083699342
  0
LINE
  8
0
 62
7
  6
CONTINUOUS
 10
56.5125920849
 20
230.5857697965
 11
56.352235847
 21
230.4154578598
  0
LINE
  8
0
 62
7
  6
CONTINUOUS
 10
56.542253565
 20
229.9262134771
 11
56.8629657077
 21
230.2668362059
  0
LINE
  8
0
 62
7
  6
CONTINUOUS
 10
55.6097782841
 20
228.2447878267
 11
55.7701341889
 21
228.4150986188
  0
LINE
  8
0
 62
7
  6
CONTINUOUS
 10
57.7251824334
 20
228.2801331373
 11
57.4044699577
 21
227.9395092639
  0
LINE
  8
0
 62
7
  6
CONTINUOUS
 10
78.0865777447
 20
254.7325722855
 11
77.784487541
 21
254.4265124801
  0
LINE
  8
0
 62
7
  6
CONTINUOUS
 10
78.1480954921
 20
254.0245496951
 11
78.5394203676
 21
254.384336061
  0
LINE
  8
0
 62
7
  6
CONTINUOUS
 10
54.4696723561
 20
231.1802564953
 11
54.0177089418
 21
230.7693393912
  0
LINE
  8
0
 62
7
  6
CONTINUOUS
 10
65.2311113477
 20
242.5136003151
 11
65.6331006404
 21
242.8614342975
  0
LINE
  8
0
 62
7
  6
CONTINUOUS
 10
65.2751332734
 20
243.2684277742
 11
64.9366807516
 21
243.0031373685
  0
LINE
  8
0
 62
7
  6
CONTINUOUS
 10
68.2968853825
 20
246.2083564995
 11
68.805015996
 21
246.5874944916
  0
LINE
  8
0
 62
7
  6
CONTINUOUS
 10
54.4993338362
 20
230.5207001759
 11
54.922191951
 21
230.8315985739
  0
LINE
  8
0
 62
7
  6
CONTINUOUS
 10
56.2221456537
 20
235.8199403575
 11
55.7295475359
 21
235.4587345341
  0
LINE
  8
0
 62
7
  6
CONTINUOUS
 10
81.9238935705
 20
256.0168509952
 11
82.4452113964
 21
256.377641879
  0
LINE
  8
0
 62
7
  6
CONTINUOUS
 10
56.1824130897
 20
235.1609140566
 11
56.4976644816
 21
235.3695816194
  0
LINE
  8
0
 62
7
  6
CONTINUOUS
 10
86.6527340674
 20
258.5749451735
 11
86.2934089199
 21
258.3386983524
  0
LINE
  8
0
 62
7
  6
CONTINUOUS
 10
86.4665930898
 20
257.8357662405
 11
86.9244121098
 21
258.105929338
  0
LINE
  8
0
 62
7
  6
CONTINUOUS
 10
58.4913840899
 20
240.3464564128
 11
57.9635932201
 21
240.0389513719
  0
LINE
  8
0
 62
7
  6
CONTINUOUS
 10
58.3826964521
 20
239.6952411341
 11
58.7181091234
 21
239.8696657075
  0
LINE
  8
0
 62
7
  6
CONTINUOUS
 10
64.6472409808
 20
245.5920677223
 11
64.4358648945
 21
245.4918682601
  0
LINE
  8
0
 62
7
  6
CONTINUOUS
 10
64.4346167932
 20
244.9670194868
 11
64.8573704201
 21
245.1674203006
  0
LINE
  8
0
 62
7
  6
CONTINUOUS
 10
62.9537331791
 20
243.7407706993
 11
63.1651107197
 21
243.8409720508
  0
LINE
  8
0
 62
7
  6
CONTINUOUS
 10
64.9366807516
 20
243.0031373685
 11
64.5139285789
 21
242.8027384441
  0
LINE
  8
0
 62
7
  6
CONTINUOUS
 10
61.108868127
 20
242.9427003372
 11
60.7603381001
 21
242.7962334841
  0
LINE
  8
0
 62
7
  6
CONTINUOUS
 10
62.961218642
 20
246.8898597421
 11
62.3906271464
 21
246.6718049378
  0
LINE
  8
0
 62
7
  6
CONTINUOUS
 10
77.1115797554
 20
253.5246595719
 11
77.6126547519
 21
253.7021707043
  0
LINE
  8
0
 62
7
  6
CONTINUOUS
 10
77.4275284093
 20
254.2115939727
 11
77.0156962643
 21
254.0878143038
  0
LINE
  8
0
 62
7
  6
CONTINUOUS
 10
53.5024516279
 20
218.066306301
 11
53.701975693
 21
217.7451901958
  0
LINE
  8
0
 62
7
  6
CONTINUOUS
 10
54.1271360058
 20
217.7274116736
 11
53.9276119407
 21
218.0485277789
  0
LINE
  8
0
 62
7
  6
CONTINUOUS
 10
56.7024925424
 20
214.7988309772
 11
56.5860275219
 21
215.0017005304
  0
LINE
  8
0
 62
7
  6
CONTINUOUS
 10
54.3400902928
 20
228.8312393329
 11
54.1500729079
 21
229.3204848602
  0
LINE
  8
0
 62
7
  6
CONTINUOUS
 10
56.277471925
 20
214.7779767774
 11
56.4041468319
 21
214.3670244205
  0
LINE
  8
0
 62
7
  6
CONTINUOUS
 10
56.8291674215
 20
214.3878786189
 11
56.7024925424
 21
214.7988309772
  0
LINE
  8
0
 62
7
  6
CONTINUOUS
 10
53.6102377478
 20
229.3690878081
 11
53.7711504995
 21
228.779825864
  0
LINE
  8
0
 62
7
  6
CONTINUOUS
 10
55.8665820439
 20
233.8270151184
 11
55.7879861712
 21
234.196809028
  0
LINE
  8
0
 62
7
  6
CONTINUOUS
 10
55.7701341889
 20
228.4150986188
 11
55.8140702283
 21
228.1853391651
  0
LINE
  8
0
 62
7
  6
CONTINUOUS
 10
56.2808640495
 20
228.2664769649
 11
56.1929926368
 21
228.7259981614
  0
LINE
  8
0
 62
7
  6
CONTINUOUS
 10
56.352235847
 20
230.4154578598
 11
56.3083001406
 21
230.645218458
  0
LINE
  8
0
 62
7
  6
CONTINUOUS
 10
57.9865716158
 20
229.9398685048
 11
58.0744433617
 21
229.4803484529
  0
LINE
  8
0
 62
7
  6
CONTINUOUS
 10
55.2562355948
 20
234.3018093825
 11
55.3544072454
 21
233.6989112806
  0
LINE
  8
0
 62
7
  6
CONTINUOUS
 10
61.6224877235
 20
238.307440446
 11
61.661833522
 21
237.9314384514
  0
LINE
  8
0
 62
7
  6
CONTINUOUS
 10
62.1796265219
 20
237.7712051052
 11
62.1452796624
 21
238.3810762912
  0
LINE
  8
0
 62
7
  6
CONTINUOUS
 10
64.7026082082
 20
248.9132087343
 11
64.7181279376
 21
248.4668104736
  0
LINE
  8
0
 62
7
  6
CONTINUOUS
 10
63.1223353893
 20
243.6109915155
 11
63.1210887423
 21
243.0861446315
  0
LINE
  8
0
 62
7
  6
CONTINUOUS
 10
63.9300582637
 20
245.8812058115
 11
63.9288101624
 21
245.3563570382
  0
LINE
  8
0
 62
7
  6
CONTINUOUS
 10
68.1510661868
 20
252.490845987
 11
68.1091694516
 21
251.8967636658
  0
LINE
  8
0
 62
7
  6
CONTINUOUS
 10
66.2477155601
 20
243.8343184161
 11
66.3125004027
 21
244.4417107888
  0
LINE
  8
0
 62
7
  6
CONTINUOUS
 10
70.8617684192
 20
252.8401608481
 11
70.3618073224
 21
248.9247668797
  0
LINE
  8
0
 62
7
  6
CONTINUOUS
 10
70.9967729123
 20
249.4644573403
 11
71.4653119118
 21
252.9342899538
  0
LINE
  8
0
 62
7
  6
CONTINUOUS
 10
68.7636294487
 20
247.7778893295
 11
68.7021248831
 21
247.4048708578
  0
LINE
  8
0
 62
7
  6
CONTINUOUS
 10
69.1590980058
 20
247.1133920746
 11
69.2872798119
 21
247.7106290417
  0
LINE
  8
0
 62
7
  6
CONTINUOUS
 10
74.4499537675
 20
257.1375727853
 11
74.3468524369
 21
256.7029667743
  0
LINE
  8
0
 62
7
  6
CONTINUOUS
 10
78.9504886455
 20
259.6771171905
 11
78.8023385521
 21
259.2557339695
  0
LINE
  8
0
 62
7
  6
CONTINUOUS
 10
75.5474141848
 20
255.3147957594
 11
75.3550700075
 21
254.8264582769
  0
LINE
  8
0
 62
7
  6
CONTINUOUS
 10
77.1265844449
 20
257.1348231091
 11
76.9342443526
 21
256.6464880861
  0
LINE
  8
0
 62
7
  6
CONTINUOUS
 10
78.5394203676
 20
254.384336061
 11
78.8210032921
 21
254.9264025794
  0
LINE
  8
0
 62
7
  6
CONTINUOUS
 10
82.3189618951
 20
257.1405403246
 11
82.125808273
 21
256.8155522169
  0
LINE
  8
0
 62
7
  6
CONTINUOUS
 10
56.5665562486
 20
213.2277813881
 11
56.7637517484
 21
213.5503330303
  0
LINE
  8
0
 62
7
  6
CONTINUOUS
 10
82.4452113964
 20
256.377641879
 11
82.7821367044
 21
256.8871577184
  0
LINE
  8
0
 62
7
  6
CONTINUOUS
 10
84.3603459003
 20
259.4732673229
 11
84.6504018981
 21
259.910688513
  0
LINE
  8
0
 62
7
  6
CONTINUOUS
 10
86.8789330187
 20
258.8778636877
 11
86.6527340674
 21
258.5749451735
  0
LINE
  8
0
 62
7
  6
CONTINUOUS
 10
86.9244121098
 20
258.105929338
 11
87.3129529569
 21
258.577263717
  0
LINE
  8
0
 62
7
  6
CONTINUOUS
 10
57.7257386499
 20
227.5205581014
 11
58.1777020909
 21
227.9314751977
  0
LINE
  8
0
 62
7
  6
CONTINUOUS
 10
53.9972445025
 20
219.713739401
 11
53.7759602852
 21
219.5144774326
  0
LINE
  8
0
 62
7
  6
CONTINUOUS
 10
54.0774223731
 20
219.0848404866
 11
54.2987065904
 21
219.2841024549
  0
LINE
  8
0
 62
7
  6
CONTINUOUS
 10
56.9354501997
 20
230.8966681945
 11
56.5125920849
 21
230.5857697965
  0
LINE
  8
0
 62
7
  6
CONTINUOUS
 10
55.5801168039
 20
228.9043441461
 11
55.1572583561
 21
228.5934446034
  0
LINE
  8
0
 62
7
  6
CONTINUOUS
 10
59.194414191
 20
232.1279184305
 11
59.687012786
 21
232.4891253466
  0
LINE
  8
0
 62
7
  6
CONTINUOUS
 10
59.2341462691
 20
232.7869436421
 11
58.9188953286
 21
232.5782771826
  0
LINE
  8
0
 62
7
  6
CONTINUOUS
 10
61.0597018821
 20
236.3628469413
 11
61.5874927765
 21
236.670351969
  0
LINE
  8
0
 62
7
  6
CONTINUOUS
 10
54.8634255045
 20
231.3911373319
 11
54.4696723561
 21
231.1802564953
  0
LINE
  8
0
 62
7
  6
CONTINUOUS
 10
61.1683894871
 20
237.0140622377
 11
60.8329768159
 21
236.8396376642
  0
LINE
  8
0
 62
7
  6
CONTINUOUS
 10
62.2552625859
 20
240.2131525063
 11
62.6037923627
 21
240.3596195215
  0
LINE
  8
0
 62
7
  6
CONTINUOUS
 10
56.6358587488
 20
235.9883260578
 11
56.2221456537
 21
235.8199403575
  0
LINE
  8
0
 62
7
  6
CONTINUOUS
 10
64.6605198301
 20
242.2955455279
 11
65.2311113477
 21
242.5136003151
  0
LINE
  8
0
 62
7
  6
CONTINUOUS
 10
58.9204863786
 20
240.470486631
 11
58.4913840899
 21
240.3464564128
  0
LINE
  8
0
 62
7
  6
CONTINUOUS
 10
53.701975693
 20
217.7451901958
 11
53.9058517761
 21
217.5281494075
  0
LINE
  8
0
 62
7
  6
CONTINUOUS
 10
54.3310120889
 20
217.5103708853
 11
54.1271360058
 21
217.7274116736
  0
LINE
  8
0
 62
7
  6
CONTINUOUS
 10
56.0496468464
 20
215.0796741845
 11
56.277471925
 21
214.7779767774
  0
LINE
  8
0
 62
7
  6
CONTINUOUS
 10
53.7711504995
 20
228.779825864
 11
53.9902731838
 21
228.3905990427
  0
LINE
  8
0
 62
7
  6
CONTINUOUS
 10
55.3544072454
 20
233.6989112806
 11
55.53146437
 21
233.2888344052
  0
LINE
  8
0
 62
7
  6
CONTINUOUS
 10
55.8140702283
 20
228.1853391651
 11
56.0040876133
 21
227.6960936378
  0
LINE
  8
0
 62
7
  6
CONTINUOUS
 10
55.7393600142
 20
230.5938038444
 11
55.9293777322
 21
230.1045594617
  0
LINE
  8
0
 62
7
  6
CONTINUOUS
 10
57.4058063096
 20
238.3282270629
 11
57.5388417256
 21
237.9018307129
  0
LINE
  8
0
 62
7
  6
CONTINUOUS
 10
58.6433832176
 20
229.5317619037
 11
58.4824707722
 21
230.1210250002
  0
LINE
  8
0
 62
7
  6
CONTINUOUS
 10
59.5499777663
 20
234.1208436836
 11
59.6285731876
 21
233.7510486707
  0
LINE
  8
0
 62
7
  6
CONTINUOUS
 10
60.1603247271
 20
233.6460504982
 11
60.0621525992
 21
234.2489475073
  0
LINE
  8
0
 62
7
  6
CONTINUOUS
 10
61.4363130505
 20
244.9087835353
 11
61.498603167
 21
244.4664802337
  0
LINE
  8
0
 62
7
  6
CONTINUOUS
 10
69.2872798119
 20
247.7106290417
 11
69.2717600555
 21
248.1570273281
  0
LINE
  8
0
 62
7
  6
CONTINUOUS
 10
74.8889380266
 20
256.4084618218
 11
74.9027963567
 21
256.7893366166
  0
LINE
  8
0
 62
7
  6
CONTINUOUS
 10
75.8971555203
 20
254.531953452
 11
75.9453837608
 21
255.0576984292
  0
LINE
  8
0
 62
7
  6
CONTINUOUS
 10
79.306134284
 20
258.6690984819
 11
79.4136634391
 21
259.4237346181
  0
LINE
  8
0
 62
7
  6
CONTINUOUS
 10
77.5794311192
 20
256.7865893999
 11
77.6825324497
 21
257.221195411
  0
LINE
  8
0
 62
7
  6
CONTINUOUS
 10
78.8210032921
 20
254.9264025794
 11
78.9241046035
 21
255.3610086223
  0
LINE
  8
0
 62
7
  6
CONTINUOUS
 10
82.7821367044
 20
256.8871577184
 11
82.9302867821
 21
257.3085409732
  0
LINE
  8
0
 62
7
  6
CONTINUOUS
 10
56.2631055987
 20
212.9000162521
 11
56.5665562486
 21
213.2277813881
  0
LINE
  8
0
 62
4
  6
CONTINUOUS
 10
72.4149306738
 20
226.1950797462
 11
90.6905814246
 21
244.470730497
  0
LINE
  8
0
 62
7
  6
CONTINUOUS
 10
55.2160251356
 20
228.0339069901
 11
55.6097782841
 21
228.2447878267
  0
LINE
  8
0
 62
7
  6
CONTINUOUS
 10
57.3319854656
 20
227.3096772752
 11
57.7257386499
 21
227.5205581014
  0
LINE
  8
0
 62
7
  6
CONTINUOUS
 10
58.7807010614
 20
231.9595327443
 11
59.194414191
 21
232.1279184305
  0
LINE
  8
0
 62
7
  6
CONTINUOUS
 10
56.8629657077
 20
230.2668362059
 11
57.3588649714
 21
230.44799267
  0
LINE
  8
0
 62
7
  6
CONTINUOUS
 10
54.922191951
 20
230.8315985739
 11
55.2868404193
 21
230.9424617658
  0
LINE
  8
0
 62
7
  6
CONTINUOUS
 10
60.6305995606
 20
236.2388167408
 11
61.0597018821
 21
236.3628469413
  0
LINE
  8
0
 62
7
  6
CONTINUOUS
 10
56.5860275219
 20
215.0017005304
 11
56.2519472567
 21
215.2981842367
  0
LINE
  8
0
 62
7
  6
CONTINUOUS
 10
56.6021328491
 20
227.8475257712
 11
56.2808640495
 21
228.2664769649
  0
LINE
  8
0
 62
7
  6
CONTINUOUS
 10
56.3083001406
 20
230.645218458
 11
56.0891774563
 21
231.0344452793
  0
LINE
  8
0
 62
7
  6
CONTINUOUS
 10
58.4824707722
 20
230.1210250002
 11
58.2633480521
 21
230.5102518319
  0
LINE
  8
0
 62
7
  6
CONTINUOUS
 10
60.0621525992
 20
234.2489475073
 11
59.8850954402
 21
234.6590243969
  0
LINE
  8
0
 62
7
  6
CONTINUOUS
 10
62.1107221277
 20
244.3896666183
 11
61.9848950116
 21
244.7494265192
  0
LINE
  8
0
 62
7
  6
CONTINUOUS
 10
62.1452796624
 20
238.3810762912
 11
62.0122442137
 21
238.8074726588
  0
LINE
  8
0
 62
7
  6
CONTINUOUS
 10
63.733207585
 20
243.009331107
 11
63.5866162453
 21
243.5165240913
  0
LINE
  8
0
 62
7
  6
CONTINUOUS
 10
64.4786387705
 20
245.7218469061
 11
64.4163486541
 21
246.1641502076
  0
LINE
  8
0
 62
7
  6
CONTINUOUS
 10
66.3125004027
 20
244.4417107888
 11
66.2502102567
 21
244.8840141131
  0
LINE
  8
0
 62
7
  6
CONTINUOUS
 10
68.7022383062
 20
251.8423718051
 11
68.6542910672
 21
252.2204730105
  0
LINE
  8
0
 62
7
  6
CONTINUOUS
 10
78.8023385521
 20
259.2557339695
 11
78.7935774401
 21
258.782020923
  0
LINE
  8
0
 62
7
  6
CONTINUOUS
 10
77.1404470137
 20
257.5157001082
 11
77.1265844449
 21
257.1348231091
  0
LINE
  8
0
 62
7
  6
CONTINUOUS
 10
78.382019129
 20
255.6555133834
 11
78.3337908501
 21
255.12976847
  0
LINE
  8
0
 62
7
  6
CONTINUOUS
 10
82.4264868241
 20
257.8951742411
 11
82.3189618951
 21
257.1405403246
  0
LINE
  8
0
 62
7
  6
CONTINUOUS
 10
86.9720057496
 20
259.2474539657
 11
86.8789330187
 21
258.8778636877
  0
LINE
  8
0
 62
7
  6
CONTINUOUS
 10
87.3129529569
 20
258.577263717
 11
87.4698782378
 21
259.0813550831
  0
LINE
  8
0
 62
4
  6
CONTINUOUS
 10
96.2294917463
 20
247.7468991189
 11
94.8152781839
 21
246.3326855565
  0
LINE
  8
0
 62
4
  6
CONTINUOUS
 10
69.1387620519
 20
220.6561694245
 11
70.5529756142
 21
222.0703829869
  0
LINE
  8
0
 62
7
  6
CONTINUOUS
 10
56.2324759929
 20
213.5242652814
 11
55.9239203737
 21
213.300541602
  0
LINE
  8
0
 62
7
  6
CONTINUOUS
 10
57.4044699577
 20
227.9395092639
 11
56.9085707655
 21
227.7583527789
  0
LINE
  8
0
 62
7
  6
CONTINUOUS
 10
55.1572583561
 20
228.5934446034
 11
54.792610507
 21
228.4825824729
  0
LINE
  8
0
 62
7
  6
CONTINUOUS
 10
55.7206714919
 20
215.2721164874
 11
56.0496468464
 21
215.0796741845
  0
LINE
  8
0
 62
4
  6
CONTINUOUS
 10
72.4149306738
 20
206.8526497379
 11
90.6905814246
 21
188.5769989871
  0
LINE
  8
0
 62
4
  6
CONTINUOUS
 10
94.8152781839
 20
186.7150439276
 11
96.2294917463
 21
185.3008303652
  0
LINE
  8
0
 62
4
  6
CONTINUOUS
 10
70.5529756142
 20
210.9773464972
 11
69.1387620519
 21
212.3915600596
  0
LINE
  8
0
 62
7
  6
CONTINUOUS
 10
55.53146437
 20
233.2888344052
 11
55.8464257092
 21
232.9348857287
  0
LINE
  8
0
 62
7
  6
CONTINUOUS
 10
54.5883185627
 20
228.5420311345
 11
54.3400902928
 21
228.8312393329
  0
LINE
  8
0
 62
7
  6
CONTINUOUS
 10
55.4911323636
 20
230.8830131043
 11
55.7393600142
 21
230.5938038444
  0
LINE
  8
0
 62
7
  6
CONTINUOUS
 10
57.6653028878
 20
230.3588196777
 11
57.9865716158
 21
229.9398685048
  0
LINE
  8
0
 62
7
  6
CONTINUOUS
 10
57.5388417256
 20
237.9018307129
 11
57.8149104849
 21
237.5167763692
  0
LINE
  8
0
 62
7
  6
CONTINUOUS
 10
56.2995815915
 20
233.1996813777
 11
55.8665820439
 21
233.8270151184
  0
LINE
  8
0
 62
7
  6
CONTINUOUS
 10
59.1169784256
 20
234.7481773398
 11
59.5499777663
 21
234.1208436836
  0
LINE
  8
0
 62
7
  6
CONTINUOUS
 10
58.2933578913
 20
237.7325449074
 11
57.9285982157
 21
238.4018629257
  0
LINE
  8
0
 62
7
  6
CONTINUOUS
 10
61.2577282448
 20
238.9767583585
 11
61.6224877235
 21
238.307440446
  0
LINE
  8
0
 62
7
  6
CONTINUOUS
 10
64.7181279376
 20
248.4668104736
 11
64.8825235622
 21
248.0224526305
  0
LINE
  8
0
 62
7
  6
CONTINUOUS
 10
63.8042299295
 20
246.2409636413
 11
63.9300582637
 21
245.8812058115
  0
LINE
  8
0
 62
7
  6
CONTINUOUS
 10
65.6380914731
 20
244.9608275922
 11
65.7846827537
 21
244.4536346533
  0
LINE
  8
0
 62
7
  6
CONTINUOUS
 10
65.4010014192
 20
248.1039921585
 11
65.2262585443
 21
248.8459484721
  0
LINE
  8
0
 62
7
  6
CONTINUOUS
 10
68.5888883802
 20
248.5198472152
 11
68.7636294487
 21
247.7778893295
  0
LINE
  8
0
 62
7
  6
CONTINUOUS
 10
71.4653119118
 20
252.9342899538
 11
71.4173646728
 21
253.3123911592
  0
LINE
  8
0
 62
7
  6
CONTINUOUS
 10
77.6825324497
 20
257.221195411
 11
77.6415179203
 21
257.693208789
  0
LINE
  8
2_FEATURE
 62
7
  6
CONTINUOUS
 10
79.8431839582
 20
162.0232635668
 11
79.8836974717
 21
165.3267543871
  0
LINE
  8
0
 62
7
  6
CONTINUOUS
 10
82.9302867821
 20
257.3085409732
 11
82.9390478626
 21
257.7822540872
  0
LINE
  8
2_FEATURE
 62
7
  6
CONTINUOUS
 10
88.5724406067
 20
270.3895099613
 11
89.0751665798
 21
273.654775577
  0
LINE
  8
2_FEATURE
 62
7
  6
CONTINUOUS
 10
63.2565611788
 20
171.640343231
 11
64.3676641763
 21
174.751636061
  0
LINE
  8
0
 62
7
  6
CONTINUOUS
 10
106.6560802245
 20
271.3041407279
 11
108.1893783151
 21
274.2305190203
  0
LINE
  8
2_FEATURE
 62
7
  6
CONTINUOUS
 10
50.6919731869
 20
186.1225877079
 11
52.7532272752
 21
188.7044328869
  0
LINE
  8
0
 62
7
  6
CONTINUOUS
 10
124.104450925
 20
266.2911532261
 11
126.5049684299
 21
268.561000942
  0
LINE
  8
2_FEATURE
 62
7
  6
CONTINUOUS
 10
43.5113628364
 20
203.9001891066
 11
46.299337667
 21
205.6727266349
  0
LINE
  8
0
 62
7
  6
CONTINUOUS
 10
131.0847099255
 20
252.244104069
 11
131.3766810613
 21
252.4098159334
  0
LINE
  8
0
 62
7
  6
CONTINUOUS
 10
56.7474884728
 20
216.0525426969
 11
56.5400831219
 21
215.9380738975
  0
LINE
  8
0
 62
7
  6
CONTINUOUS
 10
56.0557002568
 20
212.785547649
 11
56.2631055987
 21
212.9000162521
  0
LINE
  8
0
 62
7
  6
CONTINUOUS
 10
131.283702919
 20
252.9263668452
 11
130.7714278
 21
252.6735638402
  0
LINE
  8
0
 62
7
  6
CONTINUOUS
 10
138.9792283929
 20
255.8836233043
 11
141.9867603884
 21
257.2508995167
  0
LINE
  8
0
 62
7
  6
CONTINUOUS
 10
56.2519472567
 20
215.2981842367
 11
56.7730131484
 21
215.5323350888
  0
LINE
  8
2_FEATURE
 62
7
  6
CONTINUOUS
 10
55.7777453962
 20
184.0776162823
 11
52.5857942275
 21
183.2254773961
  0
LINE
  8
0
 62
7
  6
CONTINUOUS
 10
156.3743249447
 20
200.5888204865
 11
153.0788251039
 21
200.355638703
  0
LINE
  8
2_FEATURE
 62
7
  6
CONTINUOUS
 10
47.6574080567
 20
200.3144819061
 11
44.361727151
 21
200.5450904754
  0
LINE
  8
2_FEATURE
 62
7
  6
CONTINUOUS
 10
148.1637836176
 20
183.2627912931
 11
144.9711680675
 21
184.1124376278
  0
LINE
  8
2_FEATURE
 62
7
  6
CONTINUOUS
 10
45.2499810939
 20
218.3083691796
 11
42.2078069209
 21
219.5967283088
  0
LINE
  8
2_FEATURE
 62
7
  6
CONTINUOUS
 10
134.7717293829
 20
169.5421076414
 11
132.0280627885
 21
171.3824843863
  0
LINE
  8
0
 62
7
  6
CONTINUOUS
 10
53.9902731838
 20
228.3905990427
 11
54.4427930649
 21
228.0419410381
  0
LINE
  8
0
 62
7
  6
CONTINUOUS
 10
56.0040876133
 20
227.6960936378
 11
56.4566076844
 21
227.3474368194
  0
LINE
  8
0
 62
7
  6
CONTINUOUS
 10
55.8464257092
 20
232.9348857287
 11
56.1023685836
 21
232.7176299667
  0
LINE
  8
2_FEATURE
 62
7
  6
CONTINUOUS
 10
48.8164183846
 20
236.1088244784
 11
46.3575084642
 21
238.3152820349
  0
LINE
  8
0
 62
7
  6
CONTINUOUS
 10
56.0891774563
 20
231.0344452793
 11
55.7388035004
 21
231.3533777253
  0
LINE
  8
0
 62
7
  6
CONTINUOUS
 10
57.8149104849
 20
237.5167763692
 11
58.0466358738
 21
237.2738568005
  0
LINE
  8
0
 62
7
  6
CONTINUOUS
 10
59.8850954402
 20
234.6590243969
 11
59.5701335806
 21
235.0129719983
  0
LINE
  8
2_FEATURE
 62
7
  6
CONTINUOUS
 10
117.6497985838
 20
160.9140277735
 11
115.6524816329
 21
163.545646656
  0
LINE
  8
0
 62
7
  6
CONTINUOUS
 10
62.0122442137
 20
238.8074726588
 11
61.7361753888
 21
239.1925270379
  0
LINE
  8
0
 62
7
  6
CONTINUOUS
 10
61.498603167
 20
244.4664802337
 11
61.7930339476
 21
243.9769430383
  0
LINE
  8
0
 62
7
  6
CONTINUOUS
 10
63.1210887423
 20
243.0861446315
 11
63.4155179506
 21
242.5966056377
  0
LINE
  8
0
 62
7
  6
CONTINUOUS
 10
60.7603381001
 20
242.7962334841
 11
62.2552625859
 21
240.2131525063
  0
LINE
  8
0
 62
7
  6
CONTINUOUS
 10
62.6037923627
 20
240.3596195215
 11
61.108868127
 21
242.9427003372
  0
LINE
  8
2_FEATURE
 62
7
  6
CONTINUOUS
 10
57.9701347271
 20
251.7863613038
 11
56.3610234494
 21
254.6717475588
  0
LINE
  8
0
 62
7
  6
CONTINUOUS
 10
64.8825235622
 20
248.0224526305
 11
65.0417450631
 21
247.7268928514
  0
LINE
  8
0
 62
7
  6
CONTINUOUS
 10
64.4163486541
 20
246.1641502076
 11
64.206220669
 21
246.5887995187
  0
LINE
  8
0
 62
7
  6
CONTINUOUS
 10
69.2717600555
 20
248.1570273281
 11
69.1073643769
 21
248.6013852225
  0
LINE
  8
2_FEATURE
 62
7
  6
CONTINUOUS
 10
98.6539288215
 20
158.3137953862
 11
97.6194613748
 21
161.4514011687
  0
LINE
  8
0
 62
7
  6
CONTINUOUS
 10
70.7449246653
 20
253.2993213262
 11
70.8617684192
 21
252.8401608481
  0
LINE
  8
2_FEATURE
 62
7
  6
CONTINUOUS
 10
71.7189098779
 20
263.6416076381
 11
71.1340174153
 21
266.8931601523
  0
LINE
  8
0
 62
7
  6
CONTINUOUS
 10
74.3468524369
 20
256.7029667743
 11
74.4427360481
 21
256.1398118429
  0
LINE
  8
0
 62
7
  6
CONTINUOUS
 10
75.3550700075
 20
254.8264582769
 11
75.4509576269
 21
254.2633059327
  0
LINE
  8
0
 62
7
  6
CONTINUOUS
 10
73.0503407567
 20
255.4160796022
 11
73.5021365972
 21
252.4659981427
  0
LINE
  8
0
 62
7
  6
CONTINUOUS
 10
73.880071943
 20
252.4755095192
 11
73.4282762764
 21
255.4255907366
  0
LINE
  8
0
 62
7
  6
CONTINUOUS
 10
78.7935774401
 20
258.782020923
 11
78.8342026991
 21
258.448770025
  0
LINE
  8
0
 62
7
  6
CONTINUOUS
 10
86.9665846292
 20
259.5831279056
 11
86.9720057496
 21
259.2474539657
  0
LINE
  8
0
 62
7
  6
CONTINUOUS
 10
87.4698782378
 20
259.0813550831
 11
87.4936773105
 21
259.6521181776
  0
LINE
  8
0
 62
7
  6
CONTINUOUS
 10
132.8661143599
 20
250.3326731476
 11
132.5741434248
 21
250.1669615035
  0
LINE
  8
0
 62
7
  6
CONTINUOUS
 10
131.6478959035
 20
248.9960152704
 11
131.3559249684
 21
248.8303036264
  0
LINE
  8
0
 62
7
  6
CONTINUOUS
 10
131.4489030605
 20
248.3137526595
 11
131.961178029
 21
248.5665554992
  0
LINE
  8
0
 62
7
  6
CONTINUOUS
 10
55.9239203737
 20
213.300541602
 11
55.6102598942
 21
213.1808594404
  0
LINE
  8
0
 62
7
  6
CONTINUOUS
 10
56.5400831219
 20
215.9380738975
 11
56.120167443
 21
215.8131782957
  0
LINE
  8
0
 62
7
  6
CONTINUOUS
 10
56.1023685836
 20
232.7176299667
 11
56.5552341374
 21
232.4198094892
  0
LINE
  8
0
 62
7
  6
CONTINUOUS
 10
58.2633480521
 20
230.5102518319
 11
57.8108283856
 21
230.8589097741
  0
LINE
  8
0
 62
7
  6
CONTINUOUS
 10
58.0466358738
 20
237.2738568005
 11
58.4657391058
 21
236.9301465628
  0
LINE
  8
0
 62
7
  6
CONTINUOUS
 10
59.5701335806
 20
235.0129719983
 11
59.3141914334
 21
235.2302287507
  0
LINE
  8
0
 62
7
  6
CONTINUOUS
 10
61.7361753888
 20
239.1925270379
 11
61.5044502623
 21
239.4354464653
  0
LINE
  8
0
 62
7
  6
CONTINUOUS
 10
65.0417450631
 20
247.7268928514
 11
65.3550165829
 21
247.284575426
  0
LINE
  8
0
 62
7
  6
CONTINUOUS
 10
66.2502102567
 20
244.8840141131
 11
65.9557796532
 21
245.3735511722
  0
LINE
  8
0
 62
7
  6
CONTINUOUS
 10
69.1073643769
 20
248.6013852225
 11
68.9481430918
 21
248.8969447961
  0
LINE
  8
0
 62
7
  6
CONTINUOUS
 10
68.1091694516
 20
251.8967636658
 11
68.305386175
 21
251.5050664253
  0
LINE
  8
0
 62
7
  6
CONTINUOUS
 10
78.8342026991
 20
258.448770025
 11
78.9648305685
 21
257.9227271531
  0
LINE
  8
0
 62
7
  6
CONTINUOUS
 10
78.9241046035
 20
255.3610086223
 11
78.8282211076
 21
255.9241633623
  0
LINE
  8
0
 62
7
  6
CONTINUOUS
 10
82.9390478626
 20
257.7822540872
 11
82.8984227297
 21
258.1155047152
  0
LINE
  8
0
 62
7
  6
CONTINUOUS
 10
132.1548396003
 20
249.397614231
 11
131.6478959035
 21
248.9960152704
  0
LINE
  8
0
 62
7
  6
CONTINUOUS
 10
55.6357845643
 20
212.6606519439
 11
56.0557002568
 21
212.785547649
  0
LINE
  8
0
 62
7
  6
CONTINUOUS
 10
56.8509093
 20
232.861580141
 11
56.2995815915
 21
233.1996813777
  0
LINE
  8
0
 62
7
  6
CONTINUOUS
 10
58.5656501278
 20
235.0862775295
 11
59.1169784256
 21
234.7481773398
  0
LINE
  8
0
 62
7
  6
CONTINUOUS
 10
59.3141914334
 20
235.2302287507
 11
58.8613257418
 21
235.5280492846
  0
LINE
  8
0
 62
7
  6
CONTINUOUS
 10
58.8061507407
 20
237.3384403143
 11
58.2933578913
 21
237.7325449074
  0
LINE
  8
0
 62
7
  6
CONTINUOUS
 10
60.7449352642
 20
239.3708630221
 11
61.2577282448
 21
238.9767583585
  0
LINE
  8
0
 62
7
  6
CONTINUOUS
 10
61.5044502623
 20
239.4354464653
 11
61.0853468991
 21
239.7791567737
  0
LINE
  8
0
 62
7
  6
CONTINUOUS
 10
65.7912955895
 20
247.5882932179
 11
65.4010014192
 21
248.1039921585
  0
LINE
  8
0
 62
7
  6
CONTINUOUS
 10
68.1985924574
 20
249.0355445324
 11
68.5888883802
 21
248.5198472152
  0
LINE
  8
0
 62
7
  6
CONTINUOUS
 10
68.9481430918
 20
248.8969447961
 11
68.6348731086
 21
249.3392640505
  0
LINE
  8
0
 62
7
  6
CONTINUOUS
 10
71.4173646728
 20
253.3123911592
 11
71.2211479494
 21
253.7040883996
  0
LINE
  8
0
 62
7
  6
CONTINUOUS
 10
79.4817700027
 20
258.0466625138
 11
79.306134284
 21
258.6690984819
  0
LINE
  8
0
 62
7
  6
CONTINUOUS
 10
82.250855363
 20
258.5176123614
 11
82.4264868241
 21
257.8951742411
  0
LINE
  8
0
 62
7
  6
CONTINUOUS
 10
82.8984227297
 20
258.1155047152
 11
82.7677904765
 21
258.6415457049
  0
LINE
  8
0
 62
2
  6
CONTINUOUS
 10
100.3617964287
 20
217.4038647421
 11
100.3617964287
 21
215.6438647421
  0
LINE
  8
DEFAULT_1
 62
2
  6
CENTER
 10
100.3617964287
 20
212.1238647421
 11
100.3617964287
 21
156.0238647421
  0
LINE
  8
DEFAULT_1
 62
2
  6
CENTER
 10
100.3617964287
 20
220.9238647421
 11
100.3617964287
 21
277.0238647421
  0
LINE
  8
0
 62
7
  6
CONTINUOUS
 10
125.3006752358
 20
258.2718567087
 11
125.0085793323
 21
257.8273194552
  0
LINE
  8
0
 62
7
  6
CONTINUOUS
 10
123.0223269022
 20
254.8044656954
 11
122.5549734157
 21
254.0932060275
  0
LINE
  8
0
 62
7
  6
CONTINUOUS
 10
129.2986938696
 20
254.6256066479
 11
128.7751498347
 21
253.9546285406
  0
LINE
  8
0
 62
7
  6
CONTINUOUS
 10
129.7260003219
 20
254.1572568521
 11
127.173723679
 21
250.8862392544
  0
LINE
  8
0
 62
7
  6
CONTINUOUS
 10
127.6664731127
 20
250.5017616926
 11
130.7422936072
 21
254.4437571626
  0
LINE
  8
0
 62
7
  6
CONTINUOUS
 10
130.7714278
 20
252.6735638402
 11
130.4847881868
 21
252.3590561303
  0
LINE
  8
0
 62
7
  6
CONTINUOUS
 10
130.9413901189
 20
252.0868502141
 11
131.0847099255
 21
252.244104069
  0
LINE
  8
0
 62
7
  6
CONTINUOUS
 10
131.961178029
 20
248.5665554992
 11
132.5397886776
 21
249.0467749633
  0
LINE
  8
0
 62
7
  6
CONTINUOUS
 10
142.1765164917
 20
241.338075738
 11
137.7788908718
 21
238.958813477
  0
LINE
  8
0
 62
7
  6
CONTINUOUS
 10
138.0762986544
 20
238.4091102745
 11
140.0411952359
 21
239.4721849168
  0
LINE
  8
0
 62
7
  6
CONTINUOUS
 10
140.6025941843
 20
239.7759204884
 11
142.0060918174
 21
240.5352595592
  0
LINE
  8
0
 62
7
  6
CONTINUOUS
 10
144.1507069087
 20
226.9241557484
 11
144.6626553338
 21
227.068524565
  0
LINE
  8
0
 62
7
  6
CONTINUOUS
 10
144.4189052867
 20
227.5409304619
 11
144.1117363177
 21
227.4543091962
  0
LINE
  8
0
 62
7
  6
CONTINUOUS
 10
53.5106816538
 20
212.5563809538
 11
55.6357845643
 21
212.6606519439
  0
LINE
  8
0
 62
7
  6
CONTINUOUS
 10
55.6102598942
 20
213.1808594404
 11
53.4851569837
 21
213.0765884503
  0
LINE
  8
0
 62
2
  6
CONTINUOUS
 10
101.2417964287
 20
216.5238647421
 11
99.4817964287
 21
216.5238647421
  0
LINE
  8
DEFAULT_1
 62
2
  6
CENTER
 10
95.9617964287
 20
216.5238647421
 11
39.8617964287
 21
216.5238647421
  0
LINE
  8
DEFAULT_1
 62
2
  6
CENTER
 10
104.7617964287
 20
216.5238647421
 11
160.8617964287
 21
216.5238647421
  0
LINE
  8
0
 62
7
  6
CONTINUOUS
 10
53.352641208
 20
217.0299938911
 11
56.753924008
 21
216.8877657013
  0
LINE
  8
0
 62
7
  6
CONTINUOUS
 10
56.7756841851
 20
217.4081443704
 11
54.3310120889
 21
217.5103708853
  0
LINE
  8
0
 62
7
  6
CONTINUOUS
 10
53.9058517761
 20
217.5281494075
 11
53.3744013851
 21
217.5503725602
  0
LINE
  8
0
 62
7
  6
CONTINUOUS
 10
51.995111657
 20
221.1318844883
 11
52.5243507304
 21
221.0785985634
  0
LINE
  8
0
 62
7
  6
CONTINUOUS
 10
53.5828291737
 20
220.9720266836
 11
56.9699595399
 21
220.6309967341
  0
LINE
  8
0
 62
7
  6
CONTINUOUS
 10
57.0221353277
 20
221.1492098575
 11
53.6350049615
 21
221.4902398071
  0
LINE
  8
0
 62
7
  6
CONTINUOUS
 10
52.5765265182
 20
221.5968116868
 11
52.0472874448
 21
221.6500976118
  0
LINE
  8
0
 62
7
  6
CONTINUOUS
 10
56.4566076844
 20
227.3474368194
 11
56.7630456008
 21
227.2582638271
  0
LINE
  8
0
 62
7
  6
CONTINUOUS
 10
54.4427930649
 20
228.0419410381
 11
54.7492309813
 21
227.9527680457
  0
LINE
  8
0
 62
7
  6
CONTINUOUS
 10
56.9085707655
 20
227.7583527789
 11
56.6021328491
 21
227.8475257712
  0
LINE
  8
0
 62
7
  6
CONTINUOUS
 10
54.792610507
 20
228.4825824729
 11
54.5883185627
 21
228.5420311345
  0
LINE
  8
0
 62
7
  6
CONTINUOUS
 10
56.5552341374
 20
232.4198094892
 11
57.441389467
 21
232.0572727265
  0
LINE
  8
0
 62
7
  6
CONTINUOUS
 10
57.540141223
 20
232.5796071033
 11
56.8509093
 21
232.861580141
  0
LINE
  8
0
 62
7
  6
CONTINUOUS
 10
58.4657391058
 20
236.9301465628
 11
59.3089456628
 21
236.476597365
  0
LINE
  8
0
 62
7
  6
CONTINUOUS
 10
59.4619780628
 20
236.9856798272
 11
58.8061507407
 21
237.3384403143
  0
LINE
  8
0
 62
7
  6
CONTINUOUS
 10
63.4155179506
 20
242.5966056377
 11
63.668421266
 21
242.401936862
  0
LINE
  8
0
 62
7
  6
CONTINUOUS
 10
61.7930339476
 20
243.9769430383
 11
62.045937263
 21
243.7822742626
  0
LINE
  8
0
 62
7
  6
CONTINUOUS
 10
63.9861109004
 20
242.8146623313
 11
63.733207585
 21
243.009331107
  0
LINE
  8
0
 62
7
  6
CONTINUOUS
 10
62.279324338
 20
244.2598874345
 11
62.1107221277
 21
244.3896666183
  0
LINE
  8
0
 62
7
  6
CONTINUOUS
 10
65.3550165829
 20
247.284575426
 11
66.0482352387
 21
246.6241573252
  0
LINE
  8
0
 62
7
  6
CONTINUOUS
 10
66.3304656551
 20
247.074634695
 11
65.7912955895
 21
247.5882932179
  0
LINE
  8
0
 62
7
  6
CONTINUOUS
 10
70.3618073224
 20
248.9247668797
 11
70.7062899453
 21
248.5194704593
  0
LINE
  8
0
 62
7
  6
CONTINUOUS
 10
75.4509576269
 20
254.2633059327
 11
75.6155766664
 21
253.9898894171
  0
LINE
  8
0
 62
7
  6
CONTINUOUS
 10
74.4427360481
 20
256.1398118429
 11
74.6073550877
 21
255.8663953273
  0
LINE
  8
0
 62
7
  6
CONTINUOUS
 10
76.0617745599
 20
254.2585369365
 11
75.8971555203
 21
254.531953452
  0
LINE
  8
0
 62
7
  6
CONTINUOUS
 10
74.998684053
 20
256.2261841447
 11
74.8889380266
 21
256.4084618218
  0
LINE
  8
0
 62
7
  6
CONTINUOUS
 10
78.9648305685
 20
257.9227271531
 11
79.3698623258
 21
257.0551711329
  0
LINE
  8
0
 62
7
  6
CONTINUOUS
 10
79.7967947028
 20
257.3718967203
 11
79.4817700027
 21
258.0466625138
  0
LINE
  8
0
 62
7
  6
CONTINUOUS
 10
82.7703536598
 20
261.8511081097
 11
83.6709113142
 21
259.2358612125
  0
LINE
  8
0
 62
7
  6
CONTINUOUS
 10
83.9901830207
 20
259.9083699342
 11
83.4359936576
 21
261.5177527486
  0
LINE
  8
0
 62
7
  6
CONTINUOUS
 10
126.0371849734
 20
251.8051194318
 11
126.3877000985
 21
252.3385641983
  0
LINE
  8
0
 62
7
  6
CONTINUOUS
 10
128.3739525286
 20
255.361417958
 11
128.7828867935
 21
255.9837701129
  0
LINE
  8
0
 62
7
  6
CONTINUOUS
 10
133.0094341665
 20
250.4899270025
 11
132.8661143599
 21
250.3326731476
  0
LINE
  8
0
 62
7
  6
CONTINUOUS
 10
132.2981594068
 20
249.554868086
 11
132.1548396003
 21
249.397614231
  0
LINE
  8
0
 62
7
  6
CONTINUOUS
 10
132.5397886776
 20
249.0467749633
 11
133.0414080006
 21
249.5971634556
  0
LINE
  8
0
 62
7
  6
CONTINUOUS
 10
142.683893476
 20
237.9410911813
 11
142.4031937396
 21
237.7892232537
  0
LINE
  8
0
 62
7
  6
CONTINUOUS
 10
142.6070350309
 20
237.1888974559
 11
142.9813012586
 21
237.3913879788
  0
LINE
  8
0
 62
7
  6
CONTINUOUS
 10
143.8496346531
 20
230.7355078912
 11
143.1611800003
 21
230.4331319541
  0
LINE
  8
0
 62
7
  6
CONTINUOUS
 10
143.404929904
 20
229.9607260167
 11
143.7120988729
 21
230.0473472824
  0
LINE
  8
0
 62
7
  6
CONTINUOUS
 10
144.5029431821
 20
230.3785969748
 11
144.7077224948
 21
230.4363444852
  0
LINE
  8
0
 62
7
  6
CONTINUOUS
 10
144.5663622474
 20
230.9376241778
 11
143.8496346531
 21
230.7355078912
  0
LINE
  8
0
 62
7
  6
CONTINUOUS
 10
53.3830583052
 20
215.157418399
 11
55.7206714919
 21
215.2721164874
  0
LINE
  8
0
 62
7
  6
CONTINUOUS
 10
56.120167443
 20
215.8131782957
 11
53.3575336296
 21
215.6776260071
  0
LINE
  8
0
 62
7
  6
CONTINUOUS
 10
54.8345090243
 20
219.3659552147
 11
56.8540208078
 21
219.281507222
  0
LINE
  8
0
 62
7
  6
CONTINUOUS
 10
56.8757809724
 20
219.8018855933
 11
54.8562691889
 21
219.8863335861
  0
LINE
  8
0
 62
7
  6
CONTINUOUS
 10
55.2868404193
 20
230.9424617658
 11
55.4911323636
 21
230.8830131043
  0
LINE
  8
0
 62
7
  6
CONTINUOUS
 10
57.3588649714
 20
230.44799267
 11
57.6653028878
 21
230.3588196777
  0
LINE
  8
0
 62
7
  6
CONTINUOUS
 10
55.7388035004
 20
231.3533777253
 11
55.432365584
 21
231.4425507176
  0
LINE
  8
0
 62
7
  6
CONTINUOUS
 10
57.8108283856
 20
230.8589097741
 11
57.5043904692
 21
230.9480827664
  0
LINE
  8
0
 62
7
  6
CONTINUOUS
 10
57.8764182048
 20
235.3682505672
 11
58.5656501278
 21
235.0862775295
  0
LINE
  8
0
 62
7
  6
CONTINUOUS
 10
58.8613257418
 20
235.5280492846
 11
57.9751704121
 21
235.8905860474
  0
LINE
  8
0
 62
7
  6
CONTINUOUS
 10
60.089107942
 20
239.7236235093
 11
60.7449352642
 21
239.3708630221
  0
LINE
  8
0
 62
7
  6
CONTINUOUS
 10
61.0853468991
 20
239.7791567737
 11
60.242140342
 21
240.2327059714
  0
LINE
  8
0
 62
7
  6
CONTINUOUS
 10
63.6356277192
 20
246.3707428251
 11
63.8042299295
 21
246.2409636413
  0
LINE
  8
0
 62
7
  6
CONTINUOUS
 10
65.3851881577
 20
245.1554963679
 11
65.6380914731
 21
244.9608275922
  0
LINE
  8
0
 62
7
  6
CONTINUOUS
 10
64.206220669
 20
246.5887995187
 11
63.9533173536
 21
246.7834682944
  0
LINE
  8
0
 62
7
  6
CONTINUOUS
 10
65.9557796532
 20
245.3735511722
 11
65.7028763378
 21
245.5682199479
  0
LINE
  8
0
 62
7
  6
CONTINUOUS
 10
67.6594223919
 20
249.5492030552
 11
68.1985924574
 21
249.0355445324
  0
LINE
  8
0
 62
7
  6
CONTINUOUS
 10
68.6348731086
 20
249.3392640505
 11
67.9416544529
 21
249.9996821513
  0
LINE
  8
0
 62
7
  6
CONTINUOUS
 10
70.6071314425
 20
253.4614400988
 11
70.7449246653
 21
253.2993213262
  0
LINE
  8
0
 62
7
  6
CONTINUOUS
 10
73.5636296497
 20
250.9480728997
 11
73.2191470268
 21
251.3533693201
  0
LINE
  8
0
 62
7
  6
CONTINUOUS
 10
71.2211479494
 20
253.7040883996
 11
71.0833547265
 21
253.8662071722
  0
LINE
  8
0
 62
7
  6
CONTINUOUS
 10
80.1612013902
 20
256.8375911931
 11
79.7967947028
 21
257.3718967203
  0
LINE
  8
0
 62
7
  6
CONTINUOUS
 10
77.0307009874
 20
257.6979777852
 11
77.1404470137
 21
257.5157001082
  0
LINE
  8
0
 62
7
  6
CONTINUOUS
 10
78.2174000895
 20
255.928929899
 11
78.382019129
 21
255.6555133834
  0
LINE
  8
0
 62
7
  6
CONTINUOUS
 10
77.6415179203
 20
257.693208789
 11
77.4768988808
 21
257.9666253046
  0
LINE
  8
0
 62
7
  6
CONTINUOUS
 10
78.8282211076
 20
255.9241633623
 11
78.663602068
 21
256.1975798779
  0
LINE
  8
0
 62
7
  6
CONTINUOUS
 10
81.9358306629
 20
259.1923781548
 11
82.250855363
 21
258.5176123614
  0
LINE
  8
0
 62
7
  6
CONTINUOUS
 10
82.7677904765
 20
258.6415457049
 11
82.3627587192
 21
259.5091017251
  0
LINE
  8
0
 62
7
  6
CONTINUOUS
 10
86.897310971
 20
259.7843007221
 11
86.9665846292
 21
259.5831279056
  0
LINE
  8
0
 62
7
  6
CONTINUOUS
 10
86.2922258777
 20
262.5012934579
 11
86.119041732
 21
263.0042254994
  0
LINE
  8
0
 62
7
  6
CONTINUOUS
 10
87.4936773105
 20
259.6521181776
 11
87.355129994
 21
260.0544638107
  0
LINE
  8
0
 62
7
  6
CONTINUOUS
 10
133.0414080006
 20
249.5971634556
 11
133.4660360985
 21
250.2177210863
  0
LINE
  8
0
 62
7
  6
CONTINUOUS
 10
54.2987065904
 20
219.2841024549
 11
54.8345090243
 21
219.3659552147
  0
LINE
  8
0
 62
7
  6
CONTINUOUS
 10
54.8562691889
 20
219.8863335861
 11
54.3204667799
 21
219.8044814218
  0
LINE
  8
0
 62
7
  6
CONTINUOUS
 10
145.3113629265
 20
231.0394808544
 11
144.5663622474
 21
230.9376241778
  0
LINE
  8
0
 62
7
  6
CONTINUOUS
 10
144.7077224948
 20
230.4363444852
 11
145.3503335176
 21
230.5093274066
  0
LINE
  8
0
 62
7
  6
CONTINUOUS
 10
57.441389467
 20
232.0572727265
 11
57.9731410841
 21
231.9522745223
  0
LINE
  8
0
 62
7
  6
CONTINUOUS
 10
57.9751704121
 20
235.8905860474
 11
57.443418933
 21
235.9955841951
  0
LINE
  8
0
 62
7
  6
CONTINUOUS
 10
58.170354092
 20
232.4343259332
 11
57.540141223
 21
232.5796071033
  0
LINE
  8
0
 62
7
  6
CONTINUOUS
 10
57.2462059251
 20
235.5135327842
 11
57.8764182048
 21
235.3682505672
  0
LINE
  8
0
 62
7
  6
CONTINUOUS
 10
59.3089456628
 20
236.476597365
 11
59.8267387365
 21
236.3163639792
  0
LINE
  8
0
 62
7
  6
CONTINUOUS
 10
60.242140342
 20
240.2327059714
 11
59.7243473996
 21
240.3929392867
  0
LINE
  8
0
 62
7
  6
CONTINUOUS
 10
60.073460754
 20
236.775052086
 11
59.4619780628
 21
236.9856798272
  0
LINE
  8
0
 62
7
  6
CONTINUOUS
 10
59.4776253821
 20
239.9342511799
 11
60.089107942
 21
239.7236235093
  0
LINE
  8
0
 62
7
  6
CONTINUOUS
 10
66.0482352387
 20
246.6241573252
 11
66.5052067776
 21
246.3326767579
  0
LINE
  8
0
 62
7
  6
CONTINUOUS
 10
67.9416544529
 20
249.9996821513
 11
67.4846813773
 21
250.2911608896
  0
LINE
  8
0
 62
7
  6
CONTINUOUS
 10
66.8644631336
 20
246.709776065
 11
66.3304656551
 21
247.074634695
  0
LINE
  8
0
 62
7
  6
CONTINUOUS
 10
67.1254266658
 20
249.9140633087
 11
67.6594223919
 21
249.5492030552
  0
LINE
  8
0
 62
7
  6
CONTINUOUS
 10
79.3698623258
 20
257.0551711329
 11
79.6892698053
 21
256.6172627363
  0
LINE
  8
0
 62
7
  6
CONTINUOUS
 10
82.3627587192
 20
259.5091017251
 11
82.0433556234
 21
259.9470120039
  0
LINE
  8
0
 62
7
  6
CONTINUOUS
 10
81.5714197178
 20
259.7266815298
 11
81.9358306629
 21
259.1923781548
  0
LINE
  8
0
 62
7
  6
CONTINUOUS
 10
130.4847881868
 20
252.3590561303
 11
130.2804640721
 21
251.8255896403
  0
LINE
  8
0
 62
7
  6
CONTINUOUS
 10
129.2772253256
 20
250.7248125456
 11
129.1392367907
 21
250.4187625698
  0
LINE
  8
0
 62
7
  6
CONTINUOUS
 10
130.8034016342
 20
251.7808002934
 11
130.9413901189
 21
252.0868502141
  0
LINE
  8
0
 62
7
  6
CONTINUOUS
 10
133.1474228519
 20
250.7959771435
 11
133.0094341665
 21
250.4899270025
  0
LINE
  8
0
 62
7
  6
CONTINUOUS
 10
142.9150234737
 20
238.1845789634
 11
142.683893476
 21
237.9410911813
  0
LINE
  8
0
 62
7
  6
CONTINUOUS
 10
142.9813012586
 20
237.3913879788
 11
143.2124312563
 21
237.6348757609
  0
LINE
  8
0
 62
7
  6
CONTINUOUS
 10
141.5416144141
 20
230.9535251709
 11
145.5503593415
 21
234.3751844879
  0
LINE
  8
0
 62
7
  6
CONTINUOUS
 10
142.3338422817
 20
232.3982215958
 11
141.3070060519
 21
231.5328212234
  0
LINE
  8
0
 62
7
  6
CONTINUOUS
 10
144.9995382868
 20
234.6016514687
 11
142.6891539813
 21
232.6545072183
  0
LINE
  8
0
 62
7
  6
CONTINUOUS
 10
143.1611800003
 20
230.4331319541
 11
142.7057752282
 21
230.0882531164
  0
LINE
  8
0
 62
7
  6
CONTINUOUS
 10
143.1260340198
 20
229.773845141
 11
143.404929904
 21
229.9607260167
  0
LINE
  8
0
 62
7
  6
CONTINUOUS
 10
144.6978013142
 20
227.7278113781
 11
144.4189052867
 21
227.5409304619
  0
LINE
  8
0
 62
7
  6
CONTINUOUS
 10
146.4491258532
 20
227.7887622814
 11
146.7280217374
 21
227.9756431571
  0
LINE
  8
0
 62
7
  6
CONTINUOUS
 10
54.3204667799
 20
219.8044814218
 11
53.9972445025
 21
219.713739401
  0
LINE
  8
0
 62
7
  6
CONTINUOUS
 10
142.2767660802
 20
237.1286496665
 11
142.6070350309
 21
237.1888974559
  0
LINE
  8
0
 62
7
  6
CONTINUOUS
 10
142.4031937396
 20
237.7892232537
 11
142.072924789
 21
237.7289754642
  0
LINE
  8
0
 62
7
  6
CONTINUOUS
 10
56.7630456008
 20
227.2582638271
 11
57.3319854656
 21
227.3096772752
  0
LINE
  8
0
 62
7
  6
CONTINUOUS
 10
140.2121658352
 20
234.236205748
 11
141.5518156011
 21
234.3292054909
  0
LINE
  8
0
 62
7
  6
CONTINUOUS
 10
141.9853288949
 20
234.3923953757
 11
144.9995382868
 21
234.6016514687
  0
LINE
  8
0
 62
7
  6
CONTINUOUS
 10
145.2375493852
 20
235.147576278
 11
139.9775574731
 21
234.8155018005
  0
LINE
  8
0
 62
7
  6
CONTINUOUS
 10
144.1117363177
 20
227.4543091962
 11
143.7762942639
 21
227.4679475405
  0
LINE
  8
0
 62
7
  6
CONTINUOUS
 10
143.7120988729
 20
230.0473472824
 11
144.0475410702
 21
230.0337089785
  0
LINE
  8
0
 62
7
  6
CONTINUOUS
 10
145.3503335176
 20
230.5093274066
 11
145.6857758582
 21
230.4956891432
  0
LINE
  8
0
 62
7
  6
CONTINUOUS
 10
57.9731410841
 20
231.9522745223
 11
58.3079687053
 21
231.9278389962
  0
LINE
  8
0
 62
7
  6
CONTINUOUS
 10
57.443418933
 20
235.9955841951
 11
57.1085905846
 21
236.0200187307
  0
LINE
  8
0
 62
7
  6
CONTINUOUS
 10
143.5822149741
 20
226.9802969933
 11
144.1507069087
 21
226.9241557484
  0
LINE
  8
0
 62
7
  6
CONTINUOUS
 10
59.8267387365
 20
236.3163639792
 11
60.1571513147
 21
236.2569172748
  0
LINE
  8
0
 62
7
  6
CONTINUOUS
 10
59.7243473996
 20
240.3929392867
 11
59.3939345589
 21
240.4523861323
  0
LINE
  8
0
 62
7
  6
CONTINUOUS
 10
63.668421266
 20
242.401936862
 11
64.2170032862
 21
242.2425798005
  0
LINE
  8
0
 62
7
  6
CONTINUOUS
 10
66.5052067776
 20
246.3326767579
 11
66.8081312629
 21
246.1879575977
  0
LINE
  8
0
 62
7
  6
CONTINUOUS
 10
67.4846813773
 20
250.2911608896
 11
67.1817566762
 21
250.4358802554
  0
LINE
  8
0
 62
7
  6
CONTINUOUS
 10
71.0833547265
 20
253.8662071722
 11
70.7283993306
 21
254.1229841136
  0
LINE
  8
0
 62
7
  6
CONTINUOUS
 10
75.6155766664
 20
253.9898894171
 11
76.0684192941
 21
253.6416531845
  0
LINE
  8
0
 62
7
  6
CONTINUOUS
 10
79.6892698053
 20
256.6172627363
 11
79.918665844
 21
256.3721426842
  0
LINE
  8
0
 62
7
  6
CONTINUOUS
 10
82.0433556234
 20
259.9470120039
 11
81.8139594587
 21
260.192132326
  0
LINE
  8
0
 62
7
  6
CONTINUOUS
 10
86.6949110681
 20
260.0521453728
 11
86.897310971
 21
259.7843007221
  0
LINE
  8
2_FEATURE
 62
7
  6
CONTINUOUS
 10
120.8798641089
 20
165.3427593978
 11
120.9229569926
 21
162.0393012176
  0
LINE
  8
0
 62
7
  6
CONTINUOUS
 10
129.5502379293
 20
266.9159659976
 11
128.9678844739
 21
263.6639577876
  0
LINE
  8
2_FEATURE
 62
7
  6
CONTINUOUS
 10
103.1471315079
 20
161.4535591856
 11
102.115114235
 21
158.315146642
  0
LINE
  8
0
 62
7
  6
CONTINUOUS
 10
133.4660360985
 20
250.2177210863
 11
133.670360414
 21
250.7511877966
  0
LINE
  8
0
 62
7
  6
CONTINUOUS
 10
144.3327699334
 20
254.7060919588
 11
142.7259120705
 21
251.819450181
  0
LINE
  8
2_FEATURE
 62
7
  6
CONTINUOUS
 10
85.1124815491
 20
163.5337237601
 11
83.1172199885
 21
160.9005461645
  0
LINE
  8
0
 62
7
  6
CONTINUOUS
 10
154.3490530811
 20
238.3574422164
 11
151.8918667237
 21
236.149065403
  0
LINE
  8
0
 62
7
  6
CONTINUOUS
 10
144.6626553338
 20
227.068524565
 11
145.1180600341
 21
227.4134033824
  0
LINE
  8
2_FEATURE
 62
7
  6
CONTINUOUS
 10
68.7307863423
 20
171.357772964
 11
65.9885575598
 21
169.5152545112
  0
LINE
  8
0
 62
7
  6
CONTINUOUS
 10
158.513368902
 20
219.6421343044
 11
155.4722016137
 21
218.3514002228
  0
LINE
  8
2_FEATURE
 62
7
  6
CONTINUOUS
 10
42.4930748659
 20
223.0461381847
 11
45.7055669442
 21
223.8172332449
  0
LINE
  8
0
 62
7
  6
CONTINUOUS
 10
54.7492309813
 20
227.9527680457
 11
55.2160251356
 21
228.0339069901
  0
LINE
  8
0
 62
7
  6
CONTINUOUS
 10
149.6680559883
 20
241.2096787621
 11
152.9566000052
 21
241.5261770938
  0
LINE
  8
0
 62
7
  6
CONTINUOUS
 10
57.5043904692
 20
230.9480827664
 11
56.9354501997
 21
230.8966681945
  0
LINE
  8
0
 62
7
  6
CONTINUOUS
 10
55.432365584
 20
231.4425507176
 11
54.8634255045
 21
231.3911373319
  0
LINE
  8
0
 62
7
  6
CONTINUOUS
 10
58.3079687053
 20
231.9278389962
 11
58.7807010614
 21
231.9595327443
  0
LINE
  8
0
 62
7
  6
CONTINUOUS
 10
57.1085905846
 20
236.0200187307
 11
56.6358587488
 21
235.9883260578
  0
LINE
  8
0
 62
7
  6
CONTINUOUS
 10
60.1571513147
 20
236.2569172748
 11
60.6305995606
 21
236.2388167408
  0
LINE
  8
0
 62
7
  6
CONTINUOUS
 10
59.3939345589
 20
240.4523861323
 11
58.9204863786
 21
240.470486631
  0
LINE
  8
2_FEATURE
 62
7
  6
CONTINUOUS
 10
47.7474869514
 20
241.4851031809
 11
51.0362770893
 21
241.1711726576
  0
LINE
  8
0
 62
7
  6
CONTINUOUS
 10
145.8798550763
 20
230.9833396702
 11
145.3113629265
 21
231.0394808544
  0
LINE
  8
0
 62
7
  6
CONTINUOUS
 10
62.045937263
 20
243.7822742626
 11
62.5102166647
 21
243.6878049491
  0
LINE
  8
0
 62
7
  6
CONTINUOUS
 10
155.0123145531
 20
223.8599068851
 11
158.2254077271
 21
223.0913203902
  0
LINE
  8
0
 62
7
  6
CONTINUOUS
 10
65.7028763378
 20
245.5682199479
 11
65.1542957129
 21
245.7275789442
  0
LINE
  8
0
 62
7
  6
CONTINUOUS
 10
63.9533173536
 20
246.7834682944
 11
63.4047351563
 21
246.9428254922
  0
LINE
  8
0
 62
7
  6
CONTINUOUS
 10
66.8081312629
 20
246.1879575977
 11
67.2599300529
 21
246.0452770774
  0
LINE
  8
0
 62
7
  6
CONTINUOUS
 10
67.1817566762
 20
250.4358802554
 11
66.7299579401
 21
250.5785607242
  0
LINE
  8
2_FEATURE
 62
7
  6
CONTINUOUS
 10
58.7050452806
 20
257.2183861173
 11
61.7136439356
 21
255.8534586181
  0
LINE
  8
0
 62
7
  6
CONTINUOUS
 10
154.4327113348
 20
205.7149421868
 11
157.2220693218
 21
203.9445820638
  0
LINE
  8
0
 62
7
  6
CONTINUOUS
 10
74.6073550877
 20
255.8663953273
 11
75.0053287488
 21
255.6093004567
  0
LINE
  8
0
 62
7
  6
CONTINUOUS
 10
78.663602068
 20
256.1975798779
 11
78.2107553168
 21
256.5458137147
  0
LINE
  8
0
 62
7
  6
CONTINUOUS
 10
77.4768988808
 20
257.9666253046
 11
77.0240561379
 21
258.3148617286
  0
LINE
  8
0
 62
7
  6
CONTINUOUS
 10
79.918665844
 20
256.3721426842
 11
80.2874552162
 21
256.0746947563
  0
LINE
  8
0
 62
7
  6
CONTINUOUS
 10
81.8139594587
 20
260.192132326
 11
81.445170118
 21
260.4895801864
  0
LINE
  8
2_FEATURE
 62
7
  6
CONTINUOUS
 10
74.1780015347
 20
268.5405723573
 11
76.5802906166
 21
266.2725996697
  0
LINE
  8
0
 62
7
  6
CONTINUOUS
 10
83.9826428249
 20
258.330583397
 11
84.3181734082
 21
257.9960686761
  0
LINE
  8
0
 62
7
  6
CONTINUOUS
 10
84.9091186273
 20
258.1995600714
 11
84.573588044
 21
258.5340747924
  0
LINE
  8
0
 62
7
  6
CONTINUOUS
 10
87.355129994
 20
260.0544638107
 11
86.9849625572
 21
260.4895650104
  0
LINE
  8
0
 62
7
  6
CONTINUOUS
 10
147.9920726244
 20
188.7416143813
 11
150.0553420023
 21
186.161379427
  0
LINE
  8
0
 62
7
  6
CONTINUOUS
 10
92.4388090748
 20
274.2174974719
 11
93.9769437454
 21
271.2936584408
  0
LINE
  8
2_FEATURE
 62
7
  6
CONTINUOUS
 10
136.3885336789
 20
174.7797531969
 11
137.5020656509
 21
171.6693288702
  0
LINE
  8
0
 62
7
  6
CONTINUOUS
 10
111.6038147299
 20
273.6635708202
 11
112.1090900858
 21
270.3986987309
  0
LINE
  8
0
 62
7
  6
CONTINUOUS
 10
129.1392367907
 20
250.4187625698
 11
129.0835637794
 21
249.8937538413
  0
LINE
  8
0
 62
7
  6
CONTINUOUS
 10
130.2804640721
 20
251.8255896403
 11
130.2247910859
 21
251.3005809394
  0
LINE
  8
0
 62
7
  6
CONTINUOUS
 10
129.6011700447
 20
249.9977605877
 11
129.6621673544
 21
250.3739797019
  0
LINE
  8
0
 62
7
  6
CONTINUOUS
 10
130.7423973261
 20
251.4045876583
 11
130.8034016342
 21
251.7808002934
  0
LINE
  8
0
 62
7
  6
CONTINUOUS
 10
133.20842716
 20
251.1721897786
 11
133.1474228519
 21
250.7959771435
  0
LINE
  8
0
 62
7
  6
CONTINUOUS
 10
142.7057752282
 20
230.0882531164
 11
142.3810332331
 21
229.671988434
  0
LINE
  8
0
 62
7
  6
CONTINUOUS
 10
142.8754085604
 20
229.4867138138
 11
143.1260340198
 21
229.773845141
  0
LINE
  8
0
 62
7
  6
CONTINUOUS
 10
146.5583884051
 20
228.5771824597
 11
146.3077630174
 21
228.2900511527
  0
LINE
  8
0
 62
4
  6
CONTINUOUS
 10
131.5848308056
 20
212.3915600596
 11
130.1706172432
 21
210.9773464972
  0
LINE
  8
0
 62
4
  6
CONTINUOUS
 10
104.4941011112
 20
185.3008303652
 11
105.9083146736
 21
186.7150439276
  0
LINE
  8
0
 62
4
  6
CONTINUOUS
 10
110.0330114329
 20
188.5769989871
 11
128.3086621837
 21
206.8526497379
  0
LINE
  8
0
 62
7
  6
CONTINUOUS
 10
131.3559249684
 20
248.8303036264
 11
130.9869698065
 21
248.7347546416
  0
LINE
  8
0
 62
7
  6
CONTINUOUS
 10
132.5741434248
 20
250.1669615035
 11
132.2051883131
 21
250.0714125738
  0
LINE
  8
0
 62
7
  6
CONTINUOUS
 10
131.3766810613
 20
252.4098159334
 11
131.745636173
 21
252.5053648631
  0
LINE
  8
0
 62
7
  6
CONTINUOUS
 10
130.9312967952
 20
248.2097459131
 11
131.4489030605
 21
248.3137526595
  0
LINE
  8
0
 62
7
  6
CONTINUOUS
 10
58.9188953286
 20
232.5782771826
 11
58.170354092
 21
232.4343259332
  0
LINE
  8
0
 62
7
  6
CONTINUOUS
 10
56.4976644816
 20
235.3695816194
 11
57.2462059251
 21
235.5135327842
  0
LINE
  8
0
 62
7
  6
CONTINUOUS
 10
60.8329768159
 20
236.8396376642
 11
60.073460754
 21
236.775052086
  0
LINE
  8
0
 62
7
  6
CONTINUOUS
 10
58.7181091234
 20
239.8696657075
 11
59.4776253821
 21
239.9342511799
  0
LINE
  8
0
 62
7
  6
CONTINUOUS
 10
64.5139285789
 20
242.8027384441
 11
63.9861109004
 21
242.8146623313
  0
LINE
  8
0
 62
7
  6
CONTINUOUS
 10
64.8573704201
 20
245.1674203006
 11
65.3851881577
 21
245.1554963679
  0
LINE
  8
0
 62
7
  6
CONTINUOUS
 10
62.6593040889
 20
244.2303096022
 11
62.279324338
 21
244.2598874345
  0
LINE
  8
0
 62
7
  6
CONTINUOUS
 10
63.2556491864
 20
246.4003227285
 11
63.6356277192
 21
246.3707428251
  0
LINE
  8
0
 62
7
  6
CONTINUOUS
 10
141.7537962233
 20
237.2010108867
 11
142.2767660802
 21
237.1286496665
  0
LINE
  8
0
 62
7
  6
CONTINUOUS
 10
67.6140120695
 20
246.571174654
 11
66.8644631336
 21
246.709776065
  0
LINE
  8
0
 62
7
  6
CONTINUOUS
 10
66.3758759236
 20
250.0526631477
 11
67.1254266658
 21
249.9140633087
  0
LINE
  8
0
 62
7
  6
CONTINUOUS
 10
70.2416995919
 20
253.5696945298
 11
70.6071314425
 21
253.4614400988
  0
LINE
  8
0
 62
7
  6
CONTINUOUS
 10
143.7762942639
 20
227.4679475405
 11
143.4125816419
 21
227.5818362959
  0
LINE
  8
0
 62
7
  6
CONTINUOUS
 10
145.6857758582
 20
230.4956891432
 11
146.0494884085
 21
230.3818003676
  0
LINE
  8
0
 62
7
  6
CONTINUOUS
 10
143.0878396469
 20
227.1655716135
 11
143.5822149741
 21
226.9802969933
  0
LINE
  8
0
 62
7
  6
CONTINUOUS
 10
76.5489870211
 20
254.0551710139
 11
76.0617745599
 21
254.2585369365
  0
LINE
  8
0
 62
7
  6
CONTINUOUS
 10
77.7301875898
 20
256.1322958853
 11
78.2174000895
 21
255.928929899
  0
LINE
  8
0
 62
7
  6
CONTINUOUS
 10
75.3417806159
 20
256.0602256531
 11
74.998684053
 21
256.2261841447
  0
LINE
  8
0
 62
7
  6
CONTINUOUS
 10
76.6876001857
 20
257.8639340727
 11
77.0307009874
 21
257.6979777852
  0
LINE
  8
0
 62
7
  6
CONTINUOUS
 10
80.8087730461
 20
256.4354856316
 11
80.1612013902
 21
256.8375911931
  0
LINE
  8
0
 62
7
  6
CONTINUOUS
 10
80.9238522881
 20
260.128789311
 11
81.5714197178
 21
259.7266815298
  0
LINE
  8
0
 62
7
  6
CONTINUOUS
 10
84.3181734082
 20
257.9960686761
 11
84.7521933464
 21
257.6954687054
  0
LINE
  8
0
 62
7
  6
CONTINUOUS
 10
86.3940173381
 20
260.286073615
 11
86.6949110681
 21
260.0521453728
  0
LINE
  8
0
 62
4
  6
CONTINUOUS
 10
130.1706172432
 20
222.0703829869
 11
131.5848308056
 21
220.6561694245
  0
LINE
  8
0
 62
4
  6
CONTINUOUS
 10
105.9083146736
 20
246.3326855565
 11
104.4941011112
 21
247.7468991189
  0
LINE
  8
0
 62
4
  6
CONTINUOUS
 10
110.0330114329
 20
244.470730497
 11
128.3086621837
 21
226.1950797462
  0
LINE
  8
0
 62
7
  6
CONTINUOUS
 10
133.670360414
 20
250.7511877966
 11
133.7260334002
 21
251.2761964975
  0
LINE
  8
0
 62
7
  6
CONTINUOUS
 10
143.2124312563
 20
237.6348757609
 11
143.4379933306
 21
238.1122177432
  0
LINE
  8
0
 62
7
  6
CONTINUOUS
 10
144.8460370456
 20
227.9860689298
 11
144.6978013142
 21
227.7278113781
  0
LINE
  8
0
 62
7
  6
CONTINUOUS
 10
145.1180600341
 20
227.4134033824
 11
145.340412337
 21
227.8007942994
  0
LINE
  8
0
 62
7
  6
CONTINUOUS
 10
146.7280217374
 20
227.9756431571
 11
147.0527636965
 21
228.3919078293
  0
LINE
  8
0
 62
7
  6
CONTINUOUS
 10
123.427819876
 20
254.2834380665
 11
128.3739525286
 21
255.361417958
  0
LINE
  8
0
 62
7
  6
CONTINUOUS
 10
128.7751498347
 20
253.9546285406
 11
129.7260003219
 21
254.1572568521
  0
LINE
  8
0
 62
7
  6
CONTINUOUS
 10
130.2495441735
 20
254.8282347244
 11
129.2986938696
 21
254.6256066479
  0
LINE
  8
0
 62
7
  6
CONTINUOUS
 10
128.0555174341
 20
255.82524172
 11
123.0223269022
 21
254.8044656954
  0
LINE
  8
0
 62
7
  6
CONTINUOUS
 10
131.8013091592
 20
253.030373564
 11
131.283702919
 21
252.9263668452
  0
LINE
  8
0
 62
7
  6
CONTINUOUS
 10
64.2170032862
 20
242.2425798005
 11
64.6605198301
 21
242.2955455279
  0
LINE
  8
0
 62
7
  6
CONTINUOUS
 10
62.5102166647
 20
243.6878049491
 11
62.9537331791
 21
243.7407706993
  0
LINE
  8
0
 62
7
  6
CONTINUOUS
 10
67.2599300529
 20
246.0452770774
 11
67.7065561209
 21
246.0513965786
  0
LINE
  8
0
 62
7
  6
CONTINUOUS
 10
76.0684192941
 20
253.6416531845
 11
76.500758723
 21
253.5294261325
  0
LINE
  8
0
 62
7
  6
CONTINUOUS
 10
75.0053287488
 20
255.6093004567
 11
75.4376681584
 21
255.4970734365
  0
LINE
  8
0
 62
7
  6
CONTINUOUS
 10
142.072924789
 20
237.7289754642
 11
141.7866573913
 21
237.8109618786
  0
LINE
  8
0
 62
7
  6
CONTINUOUS
 10
146.3742303677
 20
230.7980650398
 11
145.8798550763
 21
230.9833396702
  0
LINE
  8
0
 62
7
  6
CONTINUOUS
 10
80.2874552162
 20
256.0746947563
 11
80.705626497
 21
255.9177072635
  0
LINE
  8
0
 62
7
  6
CONTINUOUS
 10
144.0475410702
 20
230.0337089785
 11
144.3088639641
 21
229.8909464477
  0
LINE
  8
0
 62
7
  6
CONTINUOUS
 10
86.9849625572
 20
260.4895650104
 11
86.5509426312
 21
260.7901649459
  0
LINE
  8
0
 62
7
  6
CONTINUOUS
 10
143.4379933306
 20
238.1122177432
 11
143.520419437
 21
238.6305571266
  0
LINE
  8
0
 62
7
  6
CONTINUOUS
 10
142.3810332331
 20
229.671988434
 11
142.2152244847
 21
229.0840874682
  0
LINE
  8
0
 62
7
  6
CONTINUOUS
 10
143.0030220416
 20
238.4690557588
 11
142.9150234737
 21
238.1845789634
  0
LINE
  8
0
 62
7
  6
CONTINUOUS
 10
142.7554459139
 20
229.128196652
 11
142.8754085604
 21
229.4867138138
  0
LINE
  8
0
 62
7
  6
CONTINUOUS
 10
144.9659996921
 20
228.3445860916
 11
144.8460370456
 21
227.9860689298
  0
LINE
  8
0
 62
7
  6
CONTINUOUS
 10
63.1663573667
 20
244.3658189348
 11
62.6593040889
 21
244.2303096022
  0
LINE
  8
0
 62
7
  6
CONTINUOUS
 10
65.1542957129
 20
245.7275789442
 11
64.6472409808
 21
245.5920677223
  0
LINE
  8
0
 62
7
  6
CONTINUOUS
 10
62.7485944544
 20
246.2648115066
 11
63.2556491864
 21
246.4003227285
  0
LINE
  8
0
 62
7
  6
CONTINUOUS
 10
67.7065561209
 20
246.0513965786
 11
68.2968853825
 21
246.2083564995
  0
LINE
  8
0
 62
7
  6
CONTINUOUS
 10
67.9836138155
 20
246.6506739698
 11
67.6140120695
 21
246.571174654
  0
LINE
  8
0
 62
7
  6
CONTINUOUS
 10
63.4047351563
 20
246.9428254922
 11
62.961218642
 21
246.8898597421
  0
LINE
  8
0
 62
7
  6
CONTINUOUS
 10
73.5021365972
 20
252.4659981427
 11
73.880071943
 21
252.4755095192
  0
LINE
  8
0
 62
7
  6
CONTINUOUS
 10
66.7299579401
 20
250.5785607242
 11
66.2833318991
 21
250.5724411974
  0
LINE
  8
0
 62
7
  6
CONTINUOUS
 10
76.500758723
 20
253.5294261325
 11
77.1115797554
 21
253.5246595719
  0
LINE
  8
0
 62
7
  6
CONTINUOUS
 10
70.7283993306
 20
254.1229841136
 11
70.1353286593
 21
254.1773744301
  0
LINE
  8
0
 62
7
  6
CONTINUOUS
 10
75.8633628723
 20
256.0017301044
 11
75.3417806159
 21
256.0602256531
  0
LINE
  8
0
 62
7
  6
CONTINUOUS
 10
78.2107553168
 20
256.5458137147
 11
77.6891771455
 21
256.6043117229
  0
LINE
  8
0
 62
7
  6
CONTINUOUS
 10
76.1660220144
 20
257.9224320809
 11
76.6876001857
 21
257.8639340727
  0
LINE
  8
0
 62
7
  6
CONTINUOUS
 10
80.705626497
 20
255.9177072635
 11
81.3125686795
 21
255.848850355
  0
LINE
  8
0
 62
7
  6
CONTINUOUS
 10
130.9869698065
 20
248.7347546416
 11
130.612683373
 21
248.7880017777
  0
LINE
  8
0
 62
7
  6
CONTINUOUS
 10
131.5495865397
 20
249.6613623581
 11
132.2981594068
 21
249.554868086
  0
LINE
  8
0
 62
7
  6
CONTINUOUS
 10
132.2051883131
 20
250.0714125738
 11
131.8309018796
 21
250.1246597099
  0
LINE
  8
0
 62
7
  6
CONTINUOUS
 10
81.1819407825
 20
256.3748932859
 11
80.8087730461
 21
256.4354856316
  0
LINE
  8
0
 62
7
  6
CONTINUOUS
 10
130.3313679892
 20
248.3247043778
 11
130.9312967952
 21
248.2097459131
  0
LINE
  8
0
 62
7
  6
CONTINUOUS
 10
84.7521933464
 20
257.6954687054
 11
85.3485551864
 21
257.5632845819
  0
LINE
  8
0
 62
7
  6
CONTINUOUS
 10
77.0240561379
 20
258.3148617286
 11
76.5917167282
 21
258.4270887488
  0
LINE
  8
0
 62
7
  6
CONTINUOUS
 10
85.2738648951
 20
258.1001329526
 11
84.9091186273
 21
258.1995600714
  0
LINE
  8
0
 62
7
  6
CONTINUOUS
 10
86.0292710703
 20
260.3855007339
 11
86.3940173381
 21
260.286073615
  0
LINE
  8
0
 62
7
  6
CONTINUOUS
 10
81.445170118
 20
260.4895801864
 11
81.026998853
 21
260.6465676454
  0
LINE
  8
0
 62
7
  6
CONTINUOUS
 10
141.2748233813
 20
237.4156146985
 11
141.7537962233
 21
237.2010108867
  0
LINE
  8
0
 62
7
  6
CONTINUOUS
 10
143.4125816419
 20
227.5818362959
 11
143.1229856631
 21
227.8248584367
  0
LINE
  8
0
 62
7
  6
CONTINUOUS
 10
144.3088639641
 20
229.8909464477
 11
144.5984599429
 21
229.6479243069
  0
LINE
  8
0
 62
7
  6
CONTINUOUS
 10
145.0821351397
 20
229.8925526931
 11
144.5029431821
 21
230.3785969748
  0
LINE
  8
0
 62
7
  6
CONTINUOUS
 10
142.6393078152
 20
227.5802392116
 11
143.0878396469
 21
227.1655716135
  0
LINE
  8
0
 62
7
  6
CONTINUOUS
 10
129.0835637794
 20
249.8937538413
 11
129.2535260795
 21
249.3070401946
  0
LINE
  8
0
 62
7
  6
CONTINUOUS
 10
130.2247910859
 20
251.3005809394
 11
130.3947534048
 21
250.7138673133
  0
LINE
  8
0
 62
7
  6
CONTINUOUS
 10
129.6888168651
 20
249.6300057418
 11
129.6011700447
 21
249.9977605877
  0
LINE
  8
0
 62
7
  6
CONTINUOUS
 10
130.8300441465
 20
251.0368328123
 11
130.7423973261
 21
251.4045876583
  0
LINE
  8
0
 62
7
  6
CONTINUOUS
 10
142.2152244847
 20
229.0840874682
 11
142.2541976552
 21
228.553924839
  0
LINE
  8
0
 62
7
  6
CONTINUOUS
 10
142.7378729237
 20
228.7985532455
 11
142.7554459139
 21
229.128196652
  0
LINE
  8
0
 62
7
  6
CONTINUOUS
 10
144.9835726824
 20
228.6742294981
 11
144.9659996921
 21
228.3445860916
  0
LINE
  8
0
 62
7
  6
CONTINUOUS
 10
145.340412337
 20
227.8007942994
 11
145.5062184702
 21
228.3887044365
  0
LINE
  8
0
 62
7
  6
CONTINUOUS
 10
147.0527636965
 20
228.3919078293
 11
147.2185724181
 21
228.9798087876
  0
LINE
  8
0
 62
7
  6
CONTINUOUS
 10
146.6783510517
 20
228.9356996215
 11
146.5583884051
 21
228.5771824597
  0
LINE
  8
0
 62
7
  6
CONTINUOUS
 10
81.3125686795
 20
255.848850355
 11
81.9238935705
 21
256.0168509952
  0
LINE
  8
0
 62
7
  6
CONTINUOUS
 10
66.2833318991
 20
250.5724411974
 11
65.6930043023
 21
250.4154829834
  0
LINE
  8
0
 62
7
  6
CONTINUOUS
 10
81.698875896
 20
256.4988266294
 11
81.1819407825
 21
256.3748932859
  0
LINE
  8
0
 62
7
  6
CONTINUOUS
 10
70.1353286593
 20
254.1773744301
 11
69.6800546512
 21
254.0696492894
  0
LINE
  8
0
 62
7
  6
CONTINUOUS
 10
66.0062741776
 20
249.9731638319
 11
66.3758759236
 21
250.0526631477
  0
LINE
  8
0
 62
7
  6
CONTINUOUS
 10
85.3485551864
 20
257.5632845819
 11
85.8756478707
 21
257.6322748452
  0
LINE
  8
0
 62
7
  6
CONTINUOUS
 10
69.86579492
 20
253.5294295385
 11
70.2416995919
 21
253.5696945298
  0
LINE
  8
0
 62
7
  6
CONTINUOUS
 10
85.7024637008
 20
258.135206957
 11
85.2738648951
 21
258.1001329526
  0
LINE
  8
0
 62
7
  6
CONTINUOUS
 10
77.0156962643
 20
254.0878143038
 11
76.5489870211
 21
254.0551710139
  0
LINE
  8
0
 62
7
  6
CONTINUOUS
 10
75.4376681584
 20
255.4970734365
 11
75.6710186949
 21
255.5133926219
  0
LINE
  8
0
 62
7
  6
CONTINUOUS
 10
77.2634824317
 20
256.099655055
 11
77.7301875898
 21
256.1322958853
  0
LINE
  8
0
 62
7
  6
CONTINUOUS
 10
77.6891771455
 20
256.6043117229
 11
77.4558225239
 21
256.5879900779
  0
LINE
  8
0
 62
7
  6
CONTINUOUS
 10
73.4282762764
 20
255.4255907366
 11
73.0503407567
 21
255.4160796022
  0
LINE
  8
0
 62
7
  6
CONTINUOUS
 10
76.5917167282
 20
258.4270887488
 11
75.9808957102
 21
258.4318552855
  0
LINE
  8
0
 62
7
  6
CONTINUOUS
 10
81.026998853
 20
260.6465676454
 11
80.4200523616
 21
260.7154225114
  0
LINE
  8
0
 62
7
  6
CONTINUOUS
 10
131.745636173
 20
252.5053648631
 11
132.1199226066
 21
252.452117727
  0
LINE
  8
0
 62
7
  6
CONTINUOUS
 10
80.5506845517
 20
260.1893816567
 11
80.9238522881
 21
260.128789311
  0
LINE
  8
0
 62
7
  6
CONTINUOUS
 10
132.4012308979
 20
252.9154215027
 11
131.8013091592
 21
253.030373564
  0
LINE
  8
0
 62
7
  6
CONTINUOUS
 10
86.5509426312
 20
260.7901649459
 11
85.9545808002
 21
260.9223490429
  0
LINE
  8
0
 62
7
  6
CONTINUOUS
 10
130.612683373
 20
248.7880017777
 11
130.3100568427
 21
248.9198758412
  0
LINE
  8
0
 62
7
  6
CONTINUOUS
 10
131.8309018796
 20
250.1246597099
 11
131.5282753493
 21
250.2565337734
  0
LINE
  8
0
 62
7
  6
CONTINUOUS
 10
129.8747660508
 20
248.5969102871
 11
130.3313679892
 21
248.3247043778
  0
LINE
  8
0
 62
7
  6
CONTINUOUS
 10
131.0929845073
 20
249.9335681643
 11
131.5495865397
 21
249.6613623581
  0
LINE
  8
0
 62
7
  6
CONTINUOUS
 10
122.5549734157
 20
254.0932060275
 11
126.0371849734
 21
251.8051194318
  0
LINE
  8
0
 62
7
  6
CONTINUOUS
 10
126.3877000985
 20
252.3385641983
 11
123.427819876
 21
254.2834380665
  0
LINE
  8
0
 62
7
  6
CONTINUOUS
 10
127.173723679
 20
250.8862392544
 11
127.6664731127
 21
250.5017616926
  0
LINE
  8
0
 62
7
  6
CONTINUOUS
 10
146.0494884085
 20
230.3818003676
 11
146.3390843872
 21
230.1387782267
  0
LINE
  8
0
 62
7
  6
CONTINUOUS
 10
129.5668081987
 20
248.8775804165
 11
129.8747660508
 21
248.5969102871
  0
LINE
  8
0
 62
7
  6
CONTINUOUS
 10
130.3100568427
 20
248.9198758412
 11
129.8481235887
 21
249.3408778233
  0
LINE
  8
0
 62
7
  6
CONTINUOUS
 10
146.822759584
 20
230.3834066129
 11
146.3742303677
 21
230.7980650398
  0
LINE
  8
0
 62
7
  6
CONTINUOUS
 10
141.7866573913
 20
237.8109618786
 11
141.5443870086
 21
238.0351908846
  0
LINE
  8
0
 62
7
  6
CONTINUOUS
 10
129.2535260795
 20
249.3070401946
 11
129.5668081987
 21
248.8775804165
  0
LINE
  8
0
 62
7
  6
CONTINUOUS
 10
130.3947534048
 20
250.7138673133
 11
130.7080424785
 21
250.284401008
  0
LINE
  8
0
 62
7
  6
CONTINUOUS
 10
143.1229856631
 20
227.8248584367
 11
142.9357793407
 21
228.0967543328
  0
LINE
  8
0
 62
7
  6
CONTINUOUS
 10
144.5984599429
 20
229.6479243069
 11
144.7856662653
 21
229.3760284108
  0
LINE
  8
0
 62
7
  6
CONTINUOUS
 10
129.8481235887
 20
249.3408778233
 11
129.6888168651
 21
249.6300057418
  0
LINE
  8
0
 62
7
  6
CONTINUOUS
 10
130.9893508702
 20
250.7477048938
 11
130.8300441465
 21
251.0368328123
  0
LINE
  8
0
 62
7
  6
CONTINUOUS
 10
137.7788908718
 20
238.958813477
 11
138.0762986544
 21
238.4091102745
  0
LINE
  8
0
 62
7
  6
CONTINUOUS
 10
142.3955579025
 20
228.0526451464
 11
142.6393078152
 21
227.5802392116
  0
LINE
  8
0
 62
7
  6
CONTINUOUS
 10
139.9775574731
 20
234.8155018005
 11
140.2121658352
 21
234.236205748
  0
LINE
  8
0
 62
7
  6
CONTINUOUS
 10
141.3070060519
 20
231.5328212234
 11
141.5416144141
 21
230.9535251709
  0
LINE
  8
0
 62
7
  6
CONTINUOUS
 10
133.7260334002
 20
251.2761964975
 11
133.5560640327
 21
251.8629165476
  0
LINE
  8
0
 62
7
  6
CONTINUOUS
 10
142.2541976552
 20
228.553924839
 11
142.3955579025
 21
228.0526451464
  0
LINE
  8
0
 62
7
  6
CONTINUOUS
 10
142.9357793407
 20
228.0967543328
 11
142.7378729237
 21
228.7985532455
  0
LINE
  8
0
 62
7
  6
CONTINUOUS
 10
133.1207803396
 20
251.5399446246
 11
133.20842716
 21
251.1721897786
  0
LINE
  8
0
 62
7
  6
CONTINUOUS
 10
145.5062184702
 20
228.3887044365
 11
145.4672478791
 21
228.9188578843
  0
LINE
  8
0
 62
7
  6
CONTINUOUS
 10
147.2185724181
 20
228.9798087876
 11
147.1795992387
 21
229.5099714142
  0
LINE
  8
0
 62
7
  6
CONTINUOUS
 10
146.6959240419
 20
229.265343028
 11
146.6783510517
 21
228.9356996215
  0
LINE
  8
0
 62
7
  6
CONTINUOUS
 10
80.4200523616
 20
260.7154225114
 11
79.8087274745
 21
260.5474218628
  0
LINE
  8
0
 62
7
  6
CONTINUOUS
 10
80.0337451175
 20
260.065446296
 11
80.5506845517
 21
260.1893816567
  0
LINE
  8
0
 62
7
  6
CONTINUOUS
 10
85.9545808002
 20
260.9223490429
 11
85.427488119
 21
260.8533587709
  0
LINE
  8
0
 62
7
  6
CONTINUOUS
 10
85.6006722646
 20
260.3504267295
 11
86.0292710703
 21
260.3855007339
  0
LINE
  8
0
 62
7
  6
CONTINUOUS
 10
132.1199226066
 20
252.452117727
 11
132.4225491368
 21
252.3202436635
  0
LINE
  8
0
 62
7
  6
CONTINUOUS
 10
132.8578398785
 20
252.6432091625
 11
132.4012308979
 21
252.9154215027
  0
LINE
  8
0
 62
7
  6
CONTINUOUS
 10
125.0085793323
 20
257.8273194552
 11
128.0555174341
 21
255.82524172
  0
LINE
  8
0
 62
7
  6
CONTINUOUS
 10
128.7828867935
 20
255.9837701129
 11
125.3006752358
 21
258.2718567087
  0
LINE
  8
0
 62
7
  6
CONTINUOUS
 10
130.7422936072
 20
254.4437571626
 11
130.2495441735
 21
254.8282347244
  0
LINE
  8
0
 62
7
  6
CONTINUOUS
 10
129.6621673544
 20
250.3739797019
 11
129.2772253256
 21
250.7248125456
  0
LINE
  8
0
 62
7
  6
CONTINUOUS
 10
130.7080424785
 20
250.284401008
 11
131.0929845073
 21
249.9335681643
  0
LINE
  8
0
 62
7
  6
CONTINUOUS
 10
131.5282753493
 20
250.2565337734
 11
130.9893508702
 21
250.7477048938
  0
LINE
  8
0
 62
7
  6
CONTINUOUS
 10
132.4225491368
 20
252.3202436635
 11
132.961473616
 21
251.8290725431
  0
LINE
  8
0
 62
7
  6
CONTINUOUS
 10
133.2427819073
 20
252.2923763188
 11
132.8578398785
 21
252.6432091625
  0
LINE
  8
0
 62
7
  6
CONTINUOUS
 10
140.9334185838
 20
237.8230753094
 11
141.2748233813
 21
237.4156146985
  0
LINE
  8
0
 62
7
  6
CONTINUOUS
 10
133.5560640327
 20
251.8629165476
 11
133.2427819073
 21
252.2923763188
  0
LINE
  8
0
 62
7
  6
CONTINUOUS
 10
146.3390843872
 20
230.1387782267
 11
146.5262907097
 21
229.8668823307
  0
LINE
  8
0
 62
7
  6
CONTINUOUS
 10
132.961473616
 20
251.8290725431
 11
133.1207803396
 21
251.5399446246
  0
LINE
  8
0
 62
7
  6
CONTINUOUS
 10
140.0411952359
 20
239.4721849168
 11
140.9334185838
 21
237.8230753094
  0
LINE
  8
0
 62
7
  6
CONTINUOUS
 10
141.5443870086
 20
238.0351908846
 11
140.6025941843
 21
239.7759204884
  0
LINE
  8
0
 62
7
  6
CONTINUOUS
 10
142.0060918174
 20
240.5352595592
 11
142.9478846417
 21
238.7945299554
  0
LINE
  8
0
 62
7
  6
CONTINUOUS
 10
143.3661476222
 20
239.139262928
 11
142.1765164917
 21
241.338075738
  0
LINE
  8
0
 62
7
  6
CONTINUOUS
 10
145.3258876318
 20
229.4201375769
 11
145.0821351397
 21
229.8925526931
  0
LINE
  8
0
 62
7
  6
CONTINUOUS
 10
147.0665120761
 20
229.9109914968
 11
146.822759584
 21
230.3834066129
  0
LINE
  8
0
 62
7
  6
CONTINUOUS
 10
141.5518156011
 20
234.3292054909
 11
142.3338422817
 21
232.3982215958
  0
LINE
  8
0
 62
7
  6
CONTINUOUS
 10
142.6891539813
 20
232.6545072183
 11
141.9853288949
 21
234.3923953757
  0
LINE
  8
0
 62
7
  6
CONTINUOUS
 10
145.5503593415
 20
234.3751844879
 11
145.2375493852
 21
235.147576278
  0
LINE
  8
0
 62
7
  6
CONTINUOUS
 10
143.520419437
 20
238.6305571266
 11
143.3661476222
 21
239.139262928
  0
LINE
  8
0
 62
7
  6
CONTINUOUS
 10
144.7856662653
 20
229.3760284108
 11
144.9835726824
 21
228.6742294981
  0
LINE
  8
0
 62
7
  6
CONTINUOUS
 10
145.4672478791
 20
228.9188578843
 11
145.3258876318
 21
229.4201375769
  0
LINE
  8
0
 62
7
  6
CONTINUOUS
 10
146.3077630174
 20
228.2900511527
 11
146.4491258532
 21
227.7887622814
  0
LINE
  8
0
 62
7
  6
CONTINUOUS
 10
146.5262907097
 20
229.8668823307
 11
146.6959240419
 21
229.265343028
  0
LINE
  8
0
 62
7
  6
CONTINUOUS
 10
147.1795992387
 20
229.5099714142
 11
147.0665120761
 21
229.9109914968
  0
LINE
  8
0
 62
7
  6
CONTINUOUS
 10
142.9478846417
 20
238.7945299554
 11
143.0030220416
 21
238.4690557588
  0
LINE
  8
0
 62
7
  6
CONTINUOUS
 10
158.7563725149
 20
220.0343467195
 11
158.5300830446
 21
222.7448318835
  0
LINE
  8
0
 62
7
  6
CONTINUOUS
 10
156.7315265283
 20
200.8808622011
 11
157.3977122603
 21
203.5179312785
  0
LINE
  8
0
 62
7
  6
CONTINUOUS
 10
148.5964641829
 20
183.4230063447
 11
150.0829136847
 21
185.7008133224
  0
LINE
  8
2_FEATURE
 62
7
  6
CONTINUOUS
 10
135.2329883707
 20
169.5531294642
 11
137.3785774352
 21
171.2247706682
  0
LINE
  8
2_FEATURE
 62
7
  6
CONTINUOUS
 10
118.0896376668
 20
160.7746616532
 11
120.6617944266
 21
161.658938958
  0
LINE
  8
0
 62
7
  6
CONTINUOUS
 10
92.0278210188
 20
274.4271880825
 11
89.3955253386
 21
273.9868171408
  0
LINE
  8
0
 62
7
  6
CONTINUOUS
 10
111.283196809
 20
273.995362145
 11
108.6000190924
 21
274.4408889003
  0
LINE
  8
0
 62
7
  6
CONTINUOUS
 10
129.3547436339
 20
267.3338934013
 11
126.9616695598
 21
268.6266165831
  0
LINE
  8
0
 62
7
  6
CONTINUOUS
 10
144.2835899351
 20
255.1648540563
 11
142.4400175941
 21
257.1646484889
  0
LINE
  8
0
 62
7
  6
CONTINUOUS
 10
154.4515182628
 20
238.8073113317
 11
153.3572823155
 21
241.297408607
  0
LINE
  8
2_FEATURE
 62
7
  6
CONTINUOUS
 10
41.9637949135
 20
132.6118180984
 11
41.9637949135
 21
53.2118180984
  0
LINE
  8
2_FEATURE
 62
7
  6
CONTINUOUS
 10
46.2246551606
 20
132.6118180984
 11
46.2246551606
 21
53.2118180984
  0
LINE
  8
2_FEATURE
 62
7
  6
CONTINUOUS
 10
56.310371391
 20
132.6118180984
 11
56.310371391
 21
53.2118180984
  0
LINE
  8
2_FEATURE
 62
7
  6
CONTINUOUS
 10
41.963795718
 20
53.2118180984
 11
89.3955253386
 21
53.2118180984
  0
LINE
  8
0
 62
7
  6
CONTINUOUS
 10
89.3955253386
 20
53.2118180984
 11
158.7570925805
 21
53.2118180984
  0
LINE
  8
2_FEATURE
 62
7
  6
CONTINUOUS
 10
71.1276989114
 20
132.6118180984
 11
71.1276989114
 21
53.2118180984
  0
LINE
  8
DEFAULT_1
 62
2
  6
CENTER
 10
100.3617964287
 20
40.2591179803
 11
100.3617964287
 21
79.7292819148
  0
LINE
  8
DEFAULT_1
 62
2
  6
CENTER
 10
100.3617964287
 20
80.5602327344
 11
100.3617964287
 21
134.6118180984
  0
LINE
  8
DEFAULT_1
 62
2
  6
CENTER
 10
178.4035467416
 20
92.9118180984
 11
102.3618964287
 21
92.9118180984
  0
LINE
  8
0
 62
2
  6
CONTINUOUS
 10
101.2417964287
 20
92.9118180984
 11
99.4817964287
 21
92.9118180984
  0
LINE
  8
DEFAULT_1
 62
2
  6
CENTER
 10
33.9609237908
 20
92.9118180984
 11
98.3616964287
 21
92.9118180984
  0
LINE
  8
0
 62
7
  6
CONTINUOUS
 10
129.5565012598
 20
132.6118180984
 11
129.5565012598
 21
53.2118180984
  0
LINE
  8
2_FEATURE
 62
7
  6
CONTINUOUS
 10
41.963795718
 20
132.6118180984
 11
89.3955253386
 21
132.6118180984
  0
LINE
  8
0
 62
7
  6
CONTINUOUS
 10
89.3955253386
 20
132.6118180984
 11
158.7570925805
 21
132.6118180984
  0
LINE
  8
0
 62
7
  6
CONTINUOUS
 10
144.3832699795
 20
132.6118180984
 11
144.3832699795
 21
53.2118180984
  0
LINE
  8
0
 62
7
  6
CONTINUOUS
 10
154.4816740109
 20
132.6118180984
 11
154.4816740109
 21
53.2118180984
  0
LINE
  8
0
 62
7
  6
CONTINUOUS
 10
158.7570933622
 20
132.6118180984
 11
158.7570933622
 21
53.2118180984
  0
ARC
  8
2_FEATURE
 62
7
  6
CONTINUOUS
 10
92.7930173234
 20
159.8601243797
 40
5.082
 50
18.2473684211
 51
82.3918319301
  0
ARC
  8
2_FEATURE
 62
7
  6
CONTINUOUS
 10
89.1629854119
 20
160.464498702
 40
5.082
 50
78.702904912
 51
142.8473684211
  0
ARC
  8
2_FEATURE
 62
7
  6
CONTINUOUS
 10
74.8020796001
 20
165.3890745827
 40
5.082
 50
359.2973684211
 51
63.4418319301
  0
ARC
  8
2_FEATURE
 62
7
  6
CONTINUOUS
 10
71.565053246
 20
167.1395203496
 40
5.082
 50
59.752904912
 51
123.8973684211
  0
ARC
  8
2_FEATURE
 62
7
  6
CONTINUOUS
 10
59.5816962082
 20
176.4607980221
 40
5.082
 50
340.3473684211
 51
44.4918319301
  0
ARC
  8
2_FEATURE
 62
7
  6
CONTINUOUS
 10
57.088554001
 20
179.1675750603
 40
5.082
 50
40.802904912
 51
104.9473684211
  0
ARC
  8
2_FEATURE
 62
7
  6
CONTINUOUS
 10
48.7816858613
 20
191.8751714125
 40
5.082
 50
321.3973684211
 51
25.5418319301
  0
ARC
  8
2_FEATURE
 62
7
  6
CONTINUOUS
 10
47.3026728113
 20
195.2448776902
 40
5.082
 50
21.852904912
 51
85.9973684211
  0
ARC
  8
2_FEATURE
 62
7
  6
CONTINUOUS
 10
43.5727194101
 20
209.9613484277
 40
5.082
 50
302.4473684211
 51
6.5918319301
  0
ARC
  8
2_FEATURE
 62
7
  6
CONTINUOUS
 10
43.2681536477
 20
213.6287234693
 40
5.082
 50
2.902904912
 51
67.0473684211
  0
ARC
  8
0
 62
4
  6
CONTINUOUS
 10
93.9667500465
 20
183.0380886654
 40
3.2
 50
2.2544307753
 51
45.0
  0
ARC
  8
0
 62
4
  6
CONTINUOUS
 10
92.5525364841
 20
184.4523022278
 40
3.2
 50
45.0
 51
86.4096221093
  0
ARC
  8
0
 62
4
  6
CONTINUOUS
 10
92.9533231244
 20
190.8397406869
 40
3.2
 50
225.0
 51
266.4096221093
  0
ARC
  8
0
 62
4
  6
CONTINUOUS
 10
74.6776723735
 20
209.1153914377
 40
3.2
 50
183.5903778907
 51
225.0
  0
ARC
  8
0
 62
4
  6
CONTINUOUS
 10
68.2902339144
 20
208.7146047974
 40
3.2
 50
3.5903778907
 51
45.0
  0
ARC
  8
0
 62
4
  6
CONTINUOUS
 10
66.8760203521
 20
210.1288183598
 40
3.2
 50
45.0
 51
87.7455692247
  0
ARC
  8
2_FEATURE
 62
7
  6
CONTINUOUS
 10
99.033814225
 20
158.4390434609
 40
0.4
 50
198.247368421
 51
268.6902856755
  0
ARC
  8
2_FEATURE
 62
7
  6
CONTINUOUS
 10
82.7984081929
 20
161.1421223202
 40
0.4
 50
252.4044511666
 51
322.847368421
  0
ARC
  8
2_FEATURE
 62
7
  6
CONTINUOUS
 10
80.2431538812
 20
162.0183583959
 40
0.4
 50
179.2973684211
 51
249.7402856755
  0
ARC
  8
2_FEATURE
 62
7
  6
CONTINUOUS
 10
65.7654747653
 20
169.8472696717
 40
0.4
 50
233.4544511666
 51
303.897368421
  0
ARC
  8
2_FEATURE
 62
7
  6
CONTINUOUS
 10
63.6332607434
 20
171.5058165123
 40
0.4
 50
160.3473684211
 51
230.7902856755
  0
ARC
  8
2_FEATURE
 62
7
  6
CONTINUOUS
 10
52.4826215706
 20
183.6119426634
 40
0.4
 50
214.5044511666
 51
284.9473684211
  0
ARC
  8
2_FEATURE
 62
7
  6
CONTINUOUS
 10
51.0045699137
 20
185.8730215115
 40
0.4
 50
141.3973684211
 51
211.8402856755
  0
ARC
  8
2_FEATURE
 62
7
  6
CONTINUOUS
 10
44.3896480676
 20
200.9441148135
 40
0.4
 50
195.5544511666
 51
265.997368421
  0
ARC
  8
2_FEATURE
 62
7
  6
CONTINUOUS
 10
43.7259726953
 20
203.5626352464
 40
0.4
 50
122.4473684211
 51
192.8902856755
  0
ARC
  8
0
 62
7
  6
CONTINUOUS
 10
98.4745595956
 20
273.6597048613
 40
5.082
 50
207.7473684211
 51
271.8918319301
  0
ARC
  8
2_FEATURE
 62
7
  6
CONTINUOUS
 10
44.5194245719
 20
228.7588716648
 40
5.082
 50
283.4973684211
 51
347.6418319301
  0
ARC
  8
2_FEATURE
 62
7
  6
CONTINUOUS
 10
45.4223196079
 20
232.3263890864
 40
5.082
 50
343.952904912
 51
48.0973684211
  0
ARC
  8
2_FEATURE
 62
7
  6
CONTINUOUS
 10
51.5191829136
 20
246.2301771017
 40
5.082
 50
264.5473684211
 51
328.6918319301
  0
ARC
  8
2_FEATURE
 62
7
  6
CONTINUOUS
 10
53.5316691289
 20
249.3111346205
 40
5.082
 50
325.002904912
 51
29.1473684211
  0
ARC
  8
2_FEATURE
 62
7
  6
CONTINUOUS
 10
63.8132532128
 20
260.4814565527
 40
5.082
 50
245.5973684211
 51
309.7418319301
  0
ARC
  8
2_FEATURE
 62
7
  6
CONTINUOUS
 10
66.7171864692
 20
262.7418927146
 40
5.082
 50
306.052904912
 51
10.1973684211
  0
ARC
  8
2_FEATURE
 62
7
  6
CONTINUOUS
 10
80.0690154742
 20
269.9679376607
 40
5.082
 50
226.6473684211
 51
290.7918319301
  0
ARC
  8
2_FEATURE
 62
7
  6
CONTINUOUS
 10
83.5496229237
 20
271.1628317074
 40
5.082
 50
287.102904912
 51
351.2473684211
  0
ARC
  8
0
 62
4
  6
CONTINUOUS
 10
67.127777713
 20
216.5238647421
 40
3.2
 50
92.2544307753
 51
267.7455692247
  0
ARC
  8
0
 62
4
  6
CONTINUOUS
 10
66.8760203521
 20
222.9189111243
 40
3.2
 50
272.2544307753
 51
315.0
  0
ARC
  8
0
 62
4
  6
CONTINUOUS
 10
68.2902339144
 20
224.3331246867
 40
3.2
 50
315.0
 51
356.4096221093
  0
ARC
  8
0
 62
4
  6
CONTINUOUS
 10
74.6776723735
 20
223.9323380464
 40
3.2
 50
135.0
 51
176.4096221093
  0
ARC
  8
0
 62
4
  6
CONTINUOUS
 10
92.9533231244
 20
242.2079887972
 40
3.2
 50
93.5903778907
 51
135.0
  0
ARC
  8
0
 62
4
  6
CONTINUOUS
 10
92.5525364841
 20
248.5954272563
 40
3.2
 50
273.5903778907
 51
315.0
  0
ARC
  8
0
 62
4
  6
CONTINUOUS
 10
93.9667500465
 20
250.0096408187
 40
3.2
 50
315.0
 51
357.7455692247
  0
ARC
  8
0
 62
7
  6
CONTINUOUS
 10
92.084805466
 20
274.0312679229
 40
0.4
 50
27.7473684211
 51
98.1902856755
  0
ARC
  8
2_FEATURE
 62
7
  6
CONTINUOUS
 10
42.3637949135
 20
219.9650593368
 40
0.4
 50
176.6044511666
 51
247.0473684211
  0
ARC
  8
2_FEATURE
 62
7
  6
CONTINUOUS
 10
42.586435147
 20
222.6571859281
 40
0.4
 50
103.4973684211
 51
173.9402856756
  0
ARC
  8
2_FEATURE
 62
7
  6
CONTINUOUS
 10
46.6246551606
 20
238.6129943837
 40
0.4
 50
157.6544511666
 51
228.097368421
  0
ARC
  8
2_FEATURE
 62
7
  6
CONTINUOUS
 10
47.7094778349
 20
241.086913142
 40
0.4
 50
84.5473684211
 51
154.9902856755
  0
ARC
  8
2_FEATURE
 62
7
  6
CONTINUOUS
 10
56.710371391
 20
254.8665705957
 40
0.4
 50
138.7044511666
 51
209.1473684211
  0
ARC
  8
2_FEATURE
 62
7
  6
CONTINUOUS
 10
58.5397867778
 20
256.8541202429
 40
0.4
 50
65.597368421
 51
136.0402856755
  0
ARC
  8
2_FEATURE
 62
7
  6
CONTINUOUS
 10
71.5276989114
 20
266.9639759668
 40
0.4
 50
119.7544511666
 51
190.1973684211
  0
ARC
  8
2_FEATURE
 62
7
  6
CONTINUOUS
 10
73.9034068981
 20
268.2497153725
 40
0.4
 50
46.6473684211
 51
117.0902856755
  0
ARC
  8
2_FEATURE
 62
7
  6
CONTINUOUS
 10
89.4705083888
 20
273.5939080645
 40
0.4
 50
100.8044511666
 51
171.247368421
  0
ARC
  8
0
 62
7
  6
CONTINUOUS
 10
157.4576823471
 20
213.67330336
 40
5.082
 50
112.9973684211
 51
177.1418319301
  0
ARC
  8
0
 62
7
  6
CONTINUOUS
 10
157.1559801827
 20
210.0056916298
 40
5.082
 50
173.452904912
 51
237.5973684211
  0
ARC
  8
0
 62
7
  6
CONTINUOUS
 10
153.4375186141
 20
195.2863130116
 40
5.082
 50
94.0473684211
 51
158.1918319301
  0
ARC
  8
0
 62
7
  6
CONTINUOUS
 10
151.9611370988
 20
191.9154529402
 40
5.082
 50
154.502904912
 51
218.6473684211
  0
ARC
  8
2_FEATURE
 62
7
  6
CONTINUOUS
 10
143.6641936475
 20
179.2013744164
 40
5.082
 50
75.097368421
 51
139.2418319301
  0
ARC
  8
2_FEATURE
 62
7
  6
CONTINUOUS
 10
141.1731656656
 20
176.4926515452
 40
5.082
 50
135.552904912
 51
199.697368421
  0
ARC
  8
2_FEATURE
 62
7
  6
CONTINUOUS
 10
129.197090382
 20
167.1620200477
 40
5.082
 50
56.1473684211
 51
120.2918319301
  0
ARC
  8
2_FEATURE
 62
7
  6
CONTINUOUS
 10
125.9614317716
 20
165.4090473276
 40
5.082
 50
116.602904912
 51
180.7473684211
  0
ARC
  8
2_FEATURE
 62
7
  6
CONTINUOUS
 10
111.6043754714
 20
160.4732598794
 40
5.082
 50
37.1973684211
 51
101.3418319301
  0
ARC
  8
2_FEATURE
 62
7
  6
CONTINUOUS
 10
107.974816565
 20
159.8660513938
 40
5.082
 50
97.652904912
 51
161.7973684211
  0
ARC
  8
0
 62
4
  6
CONTINUOUS
 10
133.8475725054
 20
210.1288183598
 40
3.2
 50
92.2544307753
 51
135.0
  0
ARC
  8
0
 62
4
  6
CONTINUOUS
 10
132.433358943
 20
208.7146047974
 40
3.2
 50
135.0
 51
176.4096221093
  0
ARC
  8
0
 62
4
  6
CONTINUOUS
 10
126.0459204839
 20
209.1153914377
 40
3.2
 50
315.0
 51
356.4096221093
  0
ARC
  8
0
 62
4
  6
CONTINUOUS
 10
107.7702697331
 20
190.8397406869
 40
3.2
 50
273.5903778907
 51
315.0
  0
ARC
  8
0
 62
4
  6
CONTINUOUS
 10
108.1710563734
 20
184.4523022278
 40
3.2
 50
93.5903778907
 51
135.0
  0
ARC
  8
0
 62
4
  6
CONTINUOUS
 10
106.756842811
 20
183.0380886654
 40
3.2
 50
135.0
 51
177.7455692247
  0
ARC
  8
0
 62
4
  6
CONTINUOUS
 10
100.3617964287
 20
183.2898460263
 40
3.2
 50
182.2544307753
 51
357.7455692247
  0
ARC
  8
0
 62
7
  6
CONTINUOUS
 10
157.0077230922
 20
203.6068607381
 40
0.4
 50
347.1544511666
 51
57.597368421
  0
ARC
  8
0
 62
7
  6
CONTINUOUS
 10
156.3460924764
 20
200.9878229022
 40
0.4
 50
274.0473684211
 51
344.4902856755
  0
ARC
  8
0
 62
7
  6
CONTINUOUS
 10
149.7429402333
 20
185.9115692295
 40
0.4
 50
328.2044511666
 51
38.647368421
  0
ARC
  8
2_FEATURE
 62
7
  6
CONTINUOUS
 10
148.2666544889
 20
183.6493370004
 40
0.4
 50
255.0973684211
 51
325.5402856755
  0
ARC
  8
2_FEATURE
 62
7
  6
CONTINUOUS
 10
137.1254712403
 20
171.5345080635
 40
0.4
 50
309.2544511666
 51
19.6973684211
  0
ARC
  8
2_FEATURE
 62
7
  6
CONTINUOUS
 10
134.9945528703
 20
169.8742968849
 40
0.4
 50
236.1473684211
 51
306.5902856755
  0
ARC
  8
2_FEATURE
 62
7
  6
CONTINUOUS
 10
120.5229910215
 20
162.0340837497
 40
0.4
 50
290.3044511665
 51
0.747368421
  0
ARC
  8
2_FEATURE
 62
7
  6
CONTINUOUS
 10
117.9684216583
 20
161.1558527855
 40
0.4
 50
217.1973684211
 51
287.6402856756
  0
ARC
  8
2_FEATURE
 62
7
  6
CONTINUOUS
 10
101.735131153
 20
158.4400980621
 40
0.4
 50
271.3544511666
 51
341.7973684211
  0
ARC
  8
0
 62
7
  6
CONTINUOUS
 10
100.3617964287
 20
216.5238647421
 40
52.085
 50
88.202904912
 51
91.8918319301
  0
ARC
  8
0
 62
7
  6
CONTINUOUS
 10
100.3617964287
 20
216.5238647421
 40
52.085
 50
69.252904912
 51
72.9418319301
  0
ARC
  8
0
 62
7
  6
CONTINUOUS
 10
100.3617964287
 20
216.5238647421
 40
52.085
 50
50.302904912
 51
53.9918319301
  0
ARC
  8
0
 62
7
  6
CONTINUOUS
 10
100.3617964287
 20
216.5238647421
 40
52.085
 50
31.352904912
 51
35.0418319301
  0
ARC
  8
0
 62
7
  6
CONTINUOUS
 10
100.3617964287
 20
216.5238647421
 40
52.085
 50
12.402904912
 51
16.0918319301
  0
ARC
  8
0
 62
7
  6
CONTINUOUS
 10
100.3617964287
 20
216.5238647421
 40
52.085
 50
353.452904912
 51
357.1418319301
  0
ARC
  8
0
 62
7
  6
CONTINUOUS
 10
100.3617964287
 20
216.5238647421
 40
52.085
 50
334.502904912
 51
338.1918319301
  0
ARC
  8
2_FEATURE
 62
7
  6
CONTINUOUS
 10
100.3617964287
 20
216.5238647421
 40
52.085
 50
315.552904912
 51
319.2418319301
  0
ARC
  8
2_FEATURE
 62
7
  6
CONTINUOUS
 10
100.3617964287
 20
216.5238647421
 40
52.085
 50
296.602904912
 51
300.2918319301
  0
ARC
  8
2_FEATURE
 62
7
  6
CONTINUOUS
 10
100.3617964287
 20
216.5238647421
 40
52.085
 50
277.652904912
 51
281.3418319301
  0
ARC
  8
2_FEATURE
 62
7
  6
CONTINUOUS
 10
100.3617964287
 20
216.5238647421
 40
52.085
 50
258.702904912
 51
262.3918319301
  0
ARC
  8
2_FEATURE
 62
7
  6
CONTINUOUS
 10
100.3617964287
 20
216.5238647421
 40
52.085
 50
239.752904912
 51
243.4418319301
  0
ARC
  8
2_FEATURE
 62
7
  6
CONTINUOUS
 10
100.3617964287
 20
216.5238647421
 40
52.085
 50
220.802904912
 51
224.4918319301
  0
ARC
  8
2_FEATURE
 62
7
  6
CONTINUOUS
 10
100.3617964287
 20
216.5238647421
 40
52.085
 50
201.852904912
 51
205.5418319301
  0
ARC
  8
2_FEATURE
 62
7
  6
CONTINUOUS
 10
100.3617964287
 20
216.5238647421
 40
52.085
 50
182.902904912
 51
186.5918319301
  0
ARC
  8
2_FEATURE
 62
7
  6
CONTINUOUS
 10
100.3617964287
 20
216.5238647421
 40
52.085
 50
163.952904912
 51
167.6418319301
  0
ARC
  8
2_FEATURE
 62
7
  6
CONTINUOUS
 10
100.3617964287
 20
216.5238647421
 40
52.085
 50
145.002904912
 51
148.6918319301
  0
ARC
  8
2_FEATURE
 62
7
  6
CONTINUOUS
 10
100.3617964287
 20
216.5238647421
 40
52.085
 50
126.052904912
 51
129.7418319301
  0
ARC
  8
2_FEATURE
 62
7
  6
CONTINUOUS
 10
100.3617964287
 20
216.5238647421
 40
52.085
 50
107.102904912
 51
110.7918319301
  0
CIRCLE
  8
0
 62
4
  6
CONTINUOUS
 10
100.3617964287
 20
216.5238647421
 40
9.525
  0
ARC
  8
0
 62
4
  6
CONTINUOUS
 10
107.7702697331
 20
242.2079887972
 40
3.2
 50
45.0
 51
86.4096221093
  0
ARC
  8
0
 62
4
  6
CONTINUOUS
 10
126.0459204839
 20
223.9323380464
 40
3.2
 50
3.5903778907
 51
45.0
  0
ARC
  8
0
 62
7
  6
CONTINUOUS
 10
102.154558338
 20
273.6627472454
 40
5.082
 50
268.202904912
 51
332.3473684211
  0
ARC
  8
0
 62
7
  6
CONTINUOUS
 10
117.1313024242
 20
271.1759420829
 40
5.082
 50
188.7973684211
 51
252.9418319301
  0
ARC
  8
0
 62
7
  6
CONTINUOUS
 10
120.612841792
 20
269.9837660765
 40
5.082
 50
249.252904912
 51
313.3973684211
  0
ARC
  8
0
 62
4
  6
CONTINUOUS
 10
100.3617964287
 20
249.7578834578
 40
3.2
 50
2.2544307753
 51
177.7455692247
  0
ARC
  8
0
 62
4
  6
CONTINUOUS
 10
106.756842811
 20
250.0096408187
 40
3.2
 50
182.2544307753
 51
225.0
  0
ARC
  8
0
 62
4
  6
CONTINUOUS
 10
108.1710563734
 20
248.5954272563
 40
3.2
 50
225.0
 51
266.4096221093
  0
CIRCLE
  8
0
 62
7
  6
CONTINUOUS
 10
100.3617964287
 20
263.6088647421
 40
1.7320508076
  0
ARC
  8
0
 62
7
  6
CONTINUOUS
 10
108.5436893648
 20
274.0448750599
 40
0.4
 50
81.9044511666
 51
152.3473684211
  0
ARC
  8
0
 62
7
  6
CONTINUOUS
 10
111.2085205671
 20
273.6023946414
 40
0.4
 50
8.7973684211
 51
79.2402856756
  0
ARC
  8
0
 62
7
  6
CONTINUOUS
 10
126.7797900854
 20
268.2703584508
 40
0.4
 50
62.9544511666
 51
133.3973684211
  0
ARC
  8
0
 62
7
  6
CONTINUOUS
 10
129.1565012598
 20
266.986474402
 40
0.4
 50
349.8473684211
 51
60.2902856755
  0
ARC
  8
0
 62
7
  6
CONTINUOUS
 10
155.2889178106
 20
232.3692812937
 40
5.082
 50
131.9473684211
 51
196.0918319301
  0
ARC
  8
0
 62
7
  6
CONTINUOUS
 10
156.1945981073
 20
228.8024699446
 40
5.082
 50
192.402904912
 51
256.5473684211
  0
ARC
  8
0
 62
4
  6
CONTINUOUS
 10
133.5958151445
 20
216.5238647421
 40
3.2
 50
272.2544307753
 51
87.7455692247
  0
ARC
  8
0
 62
4
  6
CONTINUOUS
 10
132.433358943
 20
224.3331246867
 40
3.2
 50
183.5903778907
 51
225.0
  0
ARC
  8
0
 62
4
  6
CONTINUOUS
 10
133.8475725054
 20
222.9189111243
 40
3.2
 50
225.0
 51
267.7455692247
  0
ARC
  8
0
 62
7
  6
CONTINUOUS
 10
152.9949200188
 20
241.128016854
 40
0.4
 50
25.0544511666
 51
95.4973684211
  0
ARC
  8
0
 62
7
  6
CONTINUOUS
 10
154.0816740109
 20
238.6549458849
 40
0.4
 50
311.9473684211
 51
22.3902856756
  0
ARC
  8
0
 62
7
  6
CONTINUOUS
 10
158.1323511703
 20
222.702295356
 40
0.4
 50
6.1044511666
 51
76.547368421
  0
ARC
  8
0
 62
7
  6
CONTINUOUS
 10
158.3570933622
 20
220.0103434239
 40
0.4
 50
292.9973684211
 51
3.4402856756
  0
ARC
  8
0
 62
7
  6
CONTINUOUS
 10
133.9703088599
 20
262.7681485095
 40
5.082
 50
169.8473684211
 51
233.9918319301
  0
ARC
  8
0
 62
7
  6
CONTINUOUS
 10
136.8760061912
 20
260.5099804426
 40
5.082
 50
230.302904912
 51
294.4473684211
  0
ARC
  8
0
 62
7
  6
CONTINUOUS
 10
147.1663089854
 20
249.3476898289
 40
5.082
 50
150.8973684211
 51
215.0418319301
  0
ARC
  8
0
 62
7
  6
CONTINUOUS
 10
149.1812002147
 20
246.2683046087
 40
5.082
 50
211.352904912
 51
275.4973684211
  0
ARC
  8
0
 62
7
  6
CONTINUOUS
 10
142.1523032614
 20
256.886762788
 40
0.4
 50
44.0044511666
 51
114.4473684211
  0
ARC
  8
0
 62
7
  6
CONTINUOUS
 10
143.9832699795
 20
254.9006421636
 40
0.4
 50
330.8973684211
 51
41.3402856756
  0
ENDSEC
  0
EOF
