  0
SECTION
  2
HEADER
  9
$EXTMAX
 10
210.0
 20
297.0
 30
0.0
  9
$EXTMIN
 10
0.0
 20
0.0
 30
0.0
  9
$LIMMIN
 10
0.0
 20
0.0
  9
$LIMMAX
 10
210.0
 20
297.0
  9
$VIEWCTR
 10
105.0
 20
148.5
  9
$VIEWSIZE
 40
297.0
  9
$CLAYER
  8
0
  9
$LTSCALE
 40
19.36
  9
$CELTYPE
  6
BYLAYER
  9
$DIMSCALE
 40
1.0
  9
$DIMASZ
 40
3.5
  9
$DIMEXO
 40
1.0
  9
$DIMDLI
 40
13.376
  9
$DIMEXE
 40
2.0
  9
$DIMCEN
 40
3.168
  9
$DIMLFAC
 40
1.0
  9
$DIMBLK
  1
_FILLED
  9
$DIMTXT
 40
3.5
  9
$PDMODE
 70
3
  9
$PDSIZE
 40
0.3125
  9
$TILEMODE
 70
1
  0
ENDSEC
  0
SECTION
  2
TABLES
  0
TABLE
  2
LTYPE
 70
6
  0
LTYPE
  2
BYBLOCK
 70
0
  3

 72
65
 73
0
 40
0.0
  0
LTYPE
  2
BYLAYER
 70
0
  3

 72
65
 73
0
 40
0.0
  0
LTYPE
  2
CONTINUOUS
 70
64
  3
Solid line
 72
65
 73
0
 40
0.0
  0
LTYPE
  2
CENTER
 70
64
  3
____ _ ____ _ ____ _ ____ _ ____ _ ____ _ ____
 72
65
 73
4
 40
0.6
 49
0.375
 49
-0.075
 49
0.075
 49
-0.075
  0
LTYPE
  2
HIDDEN
 70
64
  3
- - - - - - - - - - - - - - - - - - - -
 72
65
 73
2
 40
0.2
 49
0.1
 49
-0.1
  0
LTYPE
  2
PHANTOM
 70
64
  3
_____ _ _ _____ _ _ _____ _ _ _____
 72
65
 73
6
 40
0.8
 49
0.45
 49
-0.05
 49
0.1
 49
-0.05
 49
0.1
 49
-0.05
  0
LTYPE
  2
DOT
 70
64
  3
. . . . . . . . . . . . . . . . . . . .
 72
65
 73
2
 40
0.2
 49
0.1
 49
-0.1
  0
LTYPE
  2
DASHED
 70
64
  3
- - - - - - - - - - - - - - - - - - - -
 72
65
 73
2
 40
0.2
 49
0.1
 49
-0.1
  0
ENDTAB
  0
TABLE
  2
LAYER
 70
36
  0
LAYER
  2
0
 70
0
 62
7
  6
CONTINUOUS
  0
LAYER
  2
DEFAULT_1
 70
0
 62
7
  6
CENTER
  0
LAYER
  2
DEFAULT_2
 70
0
 62
8
  6
HIDDEN
  0
LAYER
  2
DEFAULT_3
 70
0
 62
7
  6
PHANTOM
  0
LAYER
  2
1_AXIS
 70
0
 62
7
  6
CONTINUOUS
  0
LAYER
  2
1_DATUM_PLANE
 70
0
 62
7
  6
CONTINUOUS
  0
LAYER
  2
1_DATUM_PLANES
 70
0
 62
7
  6
CONTINUOUS
  0
LAYER
  2
2_FEATURE
 70
0
 62
7
  6
CONTINUOUS
  0
LAYER
  2
6_DIM
 70
0
 62
7
  6
CONTINUOUS
  0
LAYER
  2
6_NOTE
 70
0
 62
7
  6
CONTINUOUS
  0
LAYER
  2
CSYS
 70
0
 62
7
  6
CONTINUOUS
  0
ENDTAB
  0
TABLE
  2
STYLE
 70
1
  0
STYLE
  2
STANDARD
 70
0
 40
0.0
 41
0.8
 50
0.0
 71
0
 42
0.2
  3
txt
  4

  0
STYLE
  2
TEXTSTYLE_1
 70
0
 40
0.0
 41
0.8
 50
0.0
 71
0
 42
0.2
  3
gdt
  4

  0
STYLE
  2
TEXTSTYLE_2
 70
0
 40
0.0
 41
0.6
 50
0.0
 71
0
 42
0.2
  3
txt
  4

  0
STYLE
  2
TEXTSTYLE_3
 70
0
 40
0.0
 41
1.0
 50
0.0
 71
0
 42
0.2
  3
ftb_____.ttf
  4

  0
STYLE
  2
TEXTSTYLE_4
 70
0
 40
0.0
 41
1.0
 50
0.0
 71
0
 42
0.2
  3
fti_____.ttf
  4

  0
STYLE
  2
TEXTSTYLE_5
 70
0
 40
0.0
 41
1.0
 50
0.0
 71
0
 42
0.2
  3
frutiger light.ttf
  4

  0
STYLE
  2
TEXTSTYLE_6
 70
0
 40
0.0
 41
0.7
 50
0.0
 71
0
 42
0.2
  3
txt
  4

  0
STYLE
  2
TEXTSTYLE_7
 70
0
 40
0.0
 41
0.8
 50
0.0
 71
0
 42
0.2
  3
txt
  4

  0
ENDTAB
  0
ENDSEC
  0
SECTION
  2
BLOCKS
  0
BLOCK
  8
0
 62
2
  6
CONTINUOUS
  2
SYMBOL_11_BL1
 70
64
 10
173.3924355793
 20
35.4326167403
  0
TEXT
  8
0
 62
7
  6
CONTINUOUS
 10
164.4507205878
 20
30.5765230696
  7
TEXTSTYLE_4
 40
1.0655737705
  1
The brand for plastic modular belts and chains
 41
1.0
 72
0
  0
LINE
  8
0
 62
7
  6
CONTINUOUS
 10
149.3705039683
 20
36.0575371843
 11
149.3705039683
 21
33.9263896433
  0
LINE
  8
0
 62
7
  6
CONTINUOUS
 10
149.6595664615
 20
30.9354583476
 11
149.6595664615
 21
31.0322494069
  0
LINE
  8
0
 62
7
  6
CONTINUOUS
 10
149.3705039683
 20
30.9999857205
 11
149.4283164701
 21
30.8064036019
  0
LINE
  8
0
 62
7
  6
CONTINUOUS
 10
150.7639465913
 20
33.8444224302
 11
150.7639465913
 21
36.0575371843
  0
LINE
  8
0
 62
7
  6
CONTINUOUS
 10
151.6830039132
 20
32.0001601351
 11
151.6830039132
 21
30.4837666925
  0
LINE
  8
0
 62
7
  6
CONTINUOUS
 10
151.9720664683
 20
30.4837666925
 11
151.9720664683
 21
31.2258315706
  0
LINE
  8
0
 62
7
  6
CONTINUOUS
 10
151.9720664683
 20
31.3548863163
 11
151.9720664683
 21
32.0001601351
  0
LINE
  8
0
 62
7
  6
CONTINUOUS
 10
149.4283164701
 20
31.1935678842
 11
149.3705039683
 21
30.9999857205
  0
LINE
  8
0
 62
7
  6
CONTINUOUS
 10
149.7751914546
 20
30.7741399155
 11
149.6595664615
 21
30.9354583476
  0
LINE
  8
0
 62
7
  6
CONTINUOUS
 10
150.8736290235
 20
31.2903589434
 11
150.9314414683
 21
31.1935678842
  0
LINE
  8
0
 62
7
  6
CONTINUOUS
 10
151.2205040235
 20
31.1935678842
 11
151.1626914132
 21
31.3226226299
  0
LINE
  8
0
 62
7
  6
CONTINUOUS
 10
152.6491924929
 20
36.0575371843
 11
152.6491924929
 21
34.2542584958
  0
LINE
  8
0
 62
7
  6
CONTINUOUS
 10
152.6491924929
 20
32.9427830859
 11
152.6491924929
 21
32.287045381
  0
LINE
  8
0
 62
7
  6
CONTINUOUS
 10
153.0126914683
 20
31.1290405113
 11
153.0126914683
 21
30.4837666925
  0
LINE
  8
0
 62
7
  6
CONTINUOUS
 10
153.3017538581
 20
30.4837666925
 11
153.3017538581
 21
31.1290405113
  0
LINE
  8
0
 62
7
  6
CONTINUOUS
 10
149.6595664615
 20
31.0322494069
 11
149.7173789683
 21
31.1613041978
  0
LINE
  8
0
 62
7
  6
CONTINUOUS
 10
149.4283164701
 20
30.8064036019
 11
149.5439414683
 21
30.6773488336
  0
LINE
  8
0
 62
7
  6
CONTINUOUS
 10
152.9548788581
 20
31.258095257
 11
153.0126914683
 21
31.1290405113
  0
LINE
  8
0
 62
7
  6
CONTINUOUS
 10
153.7642540786
 20
30.7741399155
 11
153.8220663581
 21
30.6450851472
  0
LINE
  8
0
 62
7
  6
CONTINUOUS
 10
153.3017538581
 20
31.1290405113
 11
153.2439415786
 21
31.2903589434
  0
LINE
  8
0
 62
7
  6
CONTINUOUS
 10
153.7642540786
 20
31.3226226299
 11
153.7642540786
 21
31.258095257
  0
LINE
  8
0
 62
7
  6
CONTINUOUS
 10
153.7642540786
 20
30.8709309748
 11
153.7642540786
 21
30.7741399155
  0
LINE
  8
0
 62
7
  6
CONTINUOUS
 10
154.0426351159
 20
32.287045381
 11
154.0426351159
 21
36.0575371843
  0
LINE
  8
0
 62
7
  6
CONTINUOUS
 10
154.0533164683
 20
30.7418762065
 11
154.0533164683
 21
30.8064036019
  0
LINE
  8
0
 62
7
  6
CONTINUOUS
 10
154.3705039683
 20
36.0575371843
 11
154.3705039683
 21
32.287045381
  0
LINE
  8
0
 62
7
  6
CONTINUOUS
 10
151.1626914132
 20
30.6773488336
 11
151.2205040235
 21
30.8064036019
  0
LINE
  8
0
 62
7
  6
CONTINUOUS
 10
155.5564416889
 20
30.5805577631
 11
155.4986287478
 21
30.7418762065
  0
LINE
  8
0
 62
7
  6
CONTINUOUS
 10
155.2095666889
 20
31.258095257
 11
155.2095666889
 21
31.1613041978
  0
LINE
  8
0
 62
7
  6
CONTINUOUS
 10
155.2095666889
 20
31.0322494069
 11
155.2095666889
 21
30.8386672883
  0
LINE
  8
0
 62
7
  6
CONTINUOUS
 10
155.4986287478
 20
30.7418762065
 11
155.4986287478
 21
31.258095257
  0
LINE
  8
0
 62
7
  6
CONTINUOUS
 10
155.7639465913
 20
32.287045381
 11
155.7639465913
 21
34.0903240696
  0
LINE
  8
0
 62
7
  6
CONTINUOUS
 10
155.7639465913
 20
35.4017994794
 11
155.7639465913
 21
36.0575371843
  0
LINE
  8
0
 62
7
  6
CONTINUOUS
 10
156.0767541889
 20
32.0001601351
 11
156.0767541889
 21
31.838841703
  0
LINE
  8
0
 62
7
  6
CONTINUOUS
 10
156.0767541889
 20
31.5162047484
 11
156.0767541889
 21
30.4837666925
  0
LINE
  8
0
 62
7
  6
CONTINUOUS
 10
156.3658162478
 20
30.4837666925
 11
156.3658162478
 21
31.5162047484
  0
LINE
  8
0
 62
7
  6
CONTINUOUS
 10
156.3658162478
 20
31.838841703
 11
156.3658162478
 21
32.0001601351
  0
LINE
  8
0
 62
7
  6
CONTINUOUS
 10
150.9314414683
 20
30.8064036019
 11
150.8736290235
 21
30.7096125201
  0
LINE
  8
0
 62
7
  6
CONTINUOUS
 10
153.2439415786
 20
31.2903589434
 11
153.1861289683
 21
31.3548863163
  0
LINE
  8
0
 62
7
  6
CONTINUOUS
 10
154.1111290786
 20
30.6773488336
 11
154.0533164683
 21
30.7418762065
  0
LINE
  8
0
 62
7
  6
CONTINUOUS
 10
155.2673789683
 20
30.548294071
 11
155.3251912478
 21
30.4837666925
  0
LINE
  8
0
 62
7
  6
CONTINUOUS
 10
155.2095666889
 20
30.6450851472
 11
155.2673789683
 21
30.548294071
  0
LINE
  8
0
 62
7
  6
CONTINUOUS
 10
155.6142539683
 20
30.4837666925
 11
155.5564416889
 21
30.5805577631
  0
LINE
  8
0
 62
7
  6
CONTINUOUS
 10
155.4986287478
 20
31.258095257
 11
155.4408164683
 21
31.3548863163
  0
LINE
  8
0
 62
7
  6
CONTINUOUS
 10
156.8283164683
 20
31.5162047484
 11
156.8283164683
 21
30.4837666925
  0
LINE
  8
0
 62
7
  6
CONTINUOUS
 10
157.1173791889
 20
30.4837666925
 11
157.1173791889
 21
31.2258315706
  0
LINE
  8
0
 62
7
  6
CONTINUOUS
 10
157.1173791889
 20
31.3548863163
 11
157.1173791889
 21
31.5162047484
  0
LINE
  8
0
 62
7
  6
CONTINUOUS
 10
157.6491924929
 20
34.5001601351
 11
157.6491924929
 21
32.287045381
  0
LINE
  8
0
 62
7
  6
CONTINUOUS
 10
149.5439414683
 20
31.3226226299
 11
149.4283164701
 21
31.1935678842
  0
LINE
  8
0
 62
7
  6
CONTINUOUS
 10
149.7173789683
 20
31.1613041978
 11
149.7751914546
 21
31.2258315706
  0
LINE
  8
0
 62
7
  6
CONTINUOUS
 10
149.5439414683
 20
30.6773488336
 11
149.6595664615
 21
30.6128214495
  0
LINE
  8
0
 62
7
  6
CONTINUOUS
 10
149.9486289546
 20
30.6773488336
 11
149.7751914546
 21
30.7741399155
  0
LINE
  8
0
 62
7
  6
CONTINUOUS
 10
155.1517537478
 20
31.3226226299
 11
155.2095666889
 21
31.258095257
  0
LINE
  8
0
 62
7
  6
CONTINUOUS
 10
158.1001912478
 20
31.258095257
 11
158.1580041889
 21
31.0967768249
  0
LINE
  8
0
 62
7
  6
CONTINUOUS
 10
158.4470662478
 20
31.0967768249
 11
158.3892539683
 21
31.258095257
  0
LINE
  8
0
 62
7
  6
CONTINUOUS
 10
158.1580041889
 20
31.0967768249
 11
158.1580041889
 21
30.4837666925
  0
LINE
  8
0
 62
7
  6
CONTINUOUS
 10
158.4470662478
 20
30.4837666925
 11
158.4470662478
 21
31.0967768249
  0
LINE
  8
0
 62
7
  6
CONTINUOUS
 10
158.9095664683
 20
31.3226226299
 11
158.9095664683
 21
31.258095257
  0
LINE
  8
0
 62
7
  6
CONTINUOUS
 10
159.0426351159
 20
32.287045381
 11
159.0426351159
 21
34.418192922
  0
LINE
  8
0
 62
7
  6
CONTINUOUS
 10
159.3705039683
 20
36.0575371843
 11
159.3705039683
 21
32.287045381
  0
LINE
  8
0
 62
7
  6
CONTINUOUS
 10
154.0533164683
 20
30.8064036019
 11
154.1111290786
 21
30.9031946612
  0
LINE
  8
0
 62
7
  6
CONTINUOUS
 10
149.6595664615
 20
30.6128214495
 11
149.8330039821
 21
30.548294071
  0
LINE
  8
0
 62
7
  6
CONTINUOUS
 10
151.1626914132
 20
31.3226226299
 11
150.9892539132
 21
31.4194136891
  0
LINE
  8
0
 62
7
  6
CONTINUOUS
 10
153.8220663581
 20
30.6450851472
 11
153.9955038581
 21
30.548294071
  0
LINE
  8
0
 62
7
  6
CONTINUOUS
 10
152.8392539683
 20
31.3226226299
 11
152.9548788581
 21
31.258095257
  0
LINE
  8
0
 62
7
  6
CONTINUOUS
 10
153.1861289683
 20
31.3548863163
 11
153.0705040786
 21
31.4194136891
  0
LINE
  8
0
 62
7
  6
CONTINUOUS
 10
158.9095664683
 20
30.7418762065
 11
159.0251916889
 21
30.6128214495
  0
LINE
  8
0
 62
7
  6
CONTINUOUS
 10
159.2564414683
 20
30.6773488336
 11
159.1986291889
 21
30.7418762065
  0
LINE
  8
0
 62
7
  6
CONTINUOUS
 10
158.9095664683
 20
31.258095257
 11
159.0251916889
 21
31.1290405113
  0
LINE
  8
0
 62
7
  6
CONTINUOUS
 10
158.3892539683
 20
31.258095257
 11
158.3314416889
 21
31.3548863163
  0
LINE
  8
0
 62
7
  6
CONTINUOUS
 10
160.7595660273
 20
30.6773488336
 11
160.7595660273
 21
30.7418762065
  0
LINE
  8
0
 62
7
  6
CONTINUOUS
 10
160.7639465913
 20
32.287045381
 11
160.7639465913
 21
36.0575371843
  0
LINE
  8
0
 62
7
  6
CONTINUOUS
 10
153.8220663581
 20
31.3871500027
 11
153.7642540786
 21
31.3226226299
  0
LINE
  8
0
 62
7
  6
CONTINUOUS
 10
150.7001914408
 20
31.3548863163
 11
150.8736290235
 21
31.2903589434
  0
LINE
  8
0
 62
7
  6
CONTINUOUS
 10
155.4408164683
 20
31.3548863163
 11
155.3251912478
 21
31.4194136891
  0
LINE
  8
0
 62
7
  6
CONTINUOUS
 10
159.2564414683
 20
31.1935678842
 11
159.1986291889
 21
31.258095257
  0
LINE
  8
0
 62
7
  6
CONTINUOUS
 10
160.4126916889
 20
30.8064036019
 11
160.4705039683
 21
30.7418762065
  0
LINE
  8
0
 62
7
  6
CONTINUOUS
 10
160.7595660273
 20
30.7418762065
 11
160.6439414683
 21
30.8709309748
  0
LINE
  8
0
 62
7
  6
CONTINUOUS
 10
160.4126916889
 20
31.3226226299
 11
160.4705039683
 21
31.258095257
  0
LINE
  8
0
 62
7
  6
CONTINUOUS
 10
160.7595660273
 20
31.258095257
 11
160.6439414683
 21
31.3871500027
  0
LINE
  8
0
 62
7
  6
CONTINUOUS
 10
154.0533164683
 20
31.258095257
 11
154.1111290786
 21
31.3226226299
  0
LINE
  8
0
 62
7
  6
CONTINUOUS
 10
153.8798789683
 20
30.9999857205
 11
153.7642540786
 21
30.8709309748
  0
LINE
  8
0
 62
7
  6
CONTINUOUS
 10
155.2095666889
 20
30.8386672883
 11
155.1517537478
 21
30.7741399155
  0
LINE
  8
0
 62
7
  6
CONTINUOUS
 10
155.1517537478
 20
30.5805577631
 11
155.2095666889
 21
30.6450851472
  0
LINE
  8
0
 62
7
  6
CONTINUOUS
 10
153.9955038581
 20
30.548294071
 11
154.1111290786
 21
30.5160303817
  0
LINE
  8
0
 62
7
  6
CONTINUOUS
 10
150.9892539132
 20
31.4194136891
 11
150.7580039683
 21
31.483941062
  0
LINE
  8
0
 62
7
  6
CONTINUOUS
 10
154.3423788581
 20
30.6128214495
 11
154.1111290786
 21
30.6773488336
  0
LINE
  8
0
 62
7
  6
CONTINUOUS
 10
153.0705040786
 20
31.4194136891
 11
152.8970665786
 21
31.483941062
  0
LINE
  8
0
 62
7
  6
CONTINUOUS
 10
155.3251912478
 20
31.4194136891
 11
155.1517537478
 21
31.483941062
  0
LINE
  8
0
 62
7
  6
CONTINUOUS
 10
157.9845666889
 20
31.3226226299
 11
158.1001912478
 21
31.258095257
  0
LINE
  8
0
 62
7
  6
CONTINUOUS
 10
158.3314416889
 20
31.3548863163
 11
158.2158164683
 21
31.4194136891
  0
LINE
  8
0
 62
7
  6
CONTINUOUS
 10
149.8330039821
 20
30.548294071
 11
150.0064414821
 21
30.5160303817
  0
LINE
  8
0
 62
7
  6
CONTINUOUS
 10
150.2955039959
 20
30.6128214495
 11
149.9486289546
 21
30.6773488336
  0
LINE
  8
0
 62
7
  6
CONTINUOUS
 10
152.7236290786
 20
31.3548863163
 11
152.8392539683
 21
31.3226226299
  0
LINE
  8
0
 62
7
  6
CONTINUOUS
 10
155.0361291889
 20
31.3548863163
 11
155.1517537478
 21
31.3226226299
  0
LINE
  8
0
 62
7
  6
CONTINUOUS
 10
159.3720666889
 20
30.6450851472
 11
159.2564414683
 21
30.6773488336
  0
LINE
  8
0
 62
7
  6
CONTINUOUS
 10
157.8689414683
 20
31.3548863163
 11
157.9845666889
 21
31.3226226299
  0
LINE
  8
0
 62
7
  6
CONTINUOUS
 10
159.0251916889
 20
30.6128214495
 11
159.1986291889
 21
30.548294071
  0
LINE
  8
0
 62
7
  6
CONTINUOUS
 10
158.2158164683
 20
31.4194136891
 11
158.0423789683
 21
31.483941062
  0
LINE
  8
0
 62
7
  6
CONTINUOUS
 10
159.4298789683
 20
31.1290405113
 11
159.2564414683
 21
31.1935678842
  0
LINE
  8
0
 62
7
  6
CONTINUOUS
 10
160.2392541889
 20
30.8709309748
 11
160.4126916889
 21
30.8064036019
  0
LINE
  8
0
 62
7
  6
CONTINUOUS
 10
160.6439414683
 20
31.3871500027
 11
160.4705039683
 21
31.4516773756
  0
LINE
  8
0
 62
7
  6
CONTINUOUS
 10
159.0251916889
 20
31.1290405113
 11
159.2564414683
 21
31.0322494069
  0
LINE
  8
0
 62
7
  6
CONTINUOUS
 10
160.6439414683
 20
30.8709309748
 11
160.4126916889
 21
30.967722034
  0
LINE
  8
0
 62
7
  6
CONTINUOUS
 10
159.1986291889
 20
31.258095257
 11
159.2564414683
 21
31.3226226299
  0
LINE
  8
0
 62
7
  6
CONTINUOUS
 10
149.6595664615
 20
31.3871500027
 11
149.5439414683
 21
31.3226226299
  0
LINE
  8
0
 62
7
  6
CONTINUOUS
 10
149.7751914546
 20
31.2258315706
 11
149.9486289546
 21
31.3226226299
  0
LINE
  8
0
 62
7
  6
CONTINUOUS
 10
152.0876915235
 20
31.4194136891
 11
151.9720664683
 21
31.3548863163
  0
LINE
  8
0
 62
7
  6
CONTINUOUS
 10
151.9720664683
 20
31.2258315706
 11
152.0876915235
 21
31.2903589434
  0
LINE
  8
0
 62
7
  6
CONTINUOUS
 10
150.9892539132
 20
30.5805577631
 11
151.1626914132
 21
30.6773488336
  0
LINE
  8
0
 62
7
  6
CONTINUOUS
 10
150.0064414821
 20
30.5160303817
 11
150.3533164408
 21
30.4837666925
  0
LINE
  8
0
 62
7
  6
CONTINUOUS
 10
154.1111290786
 20
30.5160303817
 11
154.3423788581
 21
30.4837666925
  0
LINE
  8
0
 62
7
  6
CONTINUOUS
 10
152.4923789683
 20
31.3871500027
 11
152.7236290786
 21
31.3548863163
  0
LINE
  8
0
 62
7
  6
CONTINUOUS
 10
154.8048790786
 20
31.3871500027
 11
155.0361291889
 21
31.3548863163
  0
LINE
  8
0
 62
7
  6
CONTINUOUS
 10
159.2564414683
 20
31.0322494069
 11
160.2392541889
 21
30.8709309748
  0
LINE
  8
0
 62
7
  6
CONTINUOUS
 10
160.4126916889
 20
30.967722034
 11
159.4298789683
 21
31.1290405113
  0
LINE
  8
0
 62
7
  6
CONTINUOUS
 10
152.8970665786
 20
31.483941062
 11
152.7236290786
 21
31.5162047484
  0
LINE
  8
0
 62
7
  6
CONTINUOUS
 10
159.1986291889
 20
30.548294071
 11
159.3720666889
 21
30.5160303817
  0
LINE
  8
0
 62
7
  6
CONTINUOUS
 10
158.0423789683
 20
31.483941062
 11
157.8689414683
 21
31.5162047484
  0
LINE
  8
0
 62
7
  6
CONTINUOUS
 10
160.2970664683
 20
31.3548863163
 11
160.4126916889
 21
31.3226226299
  0
LINE
  8
0
 62
7
  6
CONTINUOUS
 10
160.4705039683
 20
30.7418762065
 11
160.4126916889
 21
30.6773488336
  0
LINE
  8
0
 62
7
  6
CONTINUOUS
 10
159.0251916889
 20
31.4194136891
 11
158.9095664683
 21
31.3226226299
  0
LINE
  8
0
 62
7
  6
CONTINUOUS
 10
153.9376915786
 20
31.4516773756
 11
153.8220663581
 21
31.3871500027
  0
LINE
  8
0
 62
7
  6
CONTINUOUS
 10
153.9955038581
 20
31.0645131385
 11
153.8798789683
 21
30.9999857205
  0
LINE
  8
0
 62
7
  6
CONTINUOUS
 10
154.1111290786
 20
30.9031946612
 11
154.2267539683
 21
30.967722034
  0
LINE
  8
0
 62
7
  6
CONTINUOUS
 10
151.6830039132
 20
30.4837666925
 11
151.9720664683
 21
30.4837666925
  0
LINE
  8
0
 62
7
  6
CONTINUOUS
 10
153.0126914683
 20
30.4837666925
 11
153.3017538581
 21
30.4837666925
  0
LINE
  8
0
 62
7
  6
CONTINUOUS
 10
154.3423788581
 20
30.4837666925
 11
154.6892538581
 21
30.4837666925
  0
LINE
  8
0
 62
7
  6
CONTINUOUS
 10
155.3251912478
 20
30.4837666925
 11
155.6142539683
 21
30.4837666925
  0
LINE
  8
0
 62
7
  6
CONTINUOUS
 10
156.0767541889
 20
30.4837666925
 11
156.3658162478
 21
30.4837666925
  0
LINE
  8
0
 62
7
  6
CONTINUOUS
 10
156.8283164683
 20
30.4837666925
 11
157.1173791889
 21
30.4837666925
  0
LINE
  8
0
 62
7
  6
CONTINUOUS
 10
158.1580041889
 20
30.4837666925
 11
158.4470662478
 21
30.4837666925
  0
LINE
  8
0
 62
7
  6
CONTINUOUS
 10
159.7189416889
 20
30.4837666925
 11
160.0658166889
 21
30.4837666925
  0
LINE
  8
0
 62
7
  6
CONTINUOUS
 10
160.0658166889
 20
30.6128214495
 11
159.7189416889
 21
30.6128214495
  0
LINE
  8
0
 62
7
  6
CONTINUOUS
 10
154.6892538581
 20
30.6128214495
 11
154.3423788581
 21
30.6128214495
  0
LINE
  8
0
 62
7
  6
CONTINUOUS
 10
159.1986291889
 20
30.7418762065
 11
158.9095664683
 21
30.7418762065
  0
LINE
  8
0
 62
7
  6
CONTINUOUS
 10
151.2205040235
 20
30.8064036019
 11
150.9314414683
 21
30.8064036019
  0
LINE
  8
0
 62
7
  6
CONTINUOUS
 10
150.2955039959
 20
31.3871500027
 11
150.7001914408
 21
31.3548863163
  0
LINE
  8
0
 62
7
  6
CONTINUOUS
 10
150.7580039683
 20
31.483941062
 11
150.3533164408
 21
31.5162047484
  0
LINE
  8
0
 62
7
  6
CONTINUOUS
 10
159.3720666889
 20
30.5160303817
 11
159.7189416889
 21
30.4837666925
  0
LINE
  8
0
 62
7
  6
CONTINUOUS
 10
159.7189416889
 20
30.6128214495
 11
159.3720666889
 21
30.6450851472
  0
LINE
  8
0
 62
7
  6
CONTINUOUS
 10
155.1517537478
 20
31.483941062
 11
154.8048790786
 21
31.5162047484
  0
LINE
  8
0
 62
7
  6
CONTINUOUS
 10
159.9501914683
 20
31.3871500027
 11
160.2970664683
 21
31.3548863163
  0
LINE
  8
0
 62
7
  6
CONTINUOUS
 10
160.2970664683
 20
31.483941062
 11
159.9501914683
 21
31.5162047484
  0
LINE
  8
0
 62
7
  6
CONTINUOUS
 10
157.6376916889
 20
31.3871500027
 11
157.8689414683
 21
31.3548863163
  0
LINE
  8
0
 62
7
  6
CONTINUOUS
 10
160.4705039683
 20
31.4516773756
 11
160.2970664683
 21
31.483941062
  0
LINE
  8
0
 62
7
  6
CONTINUOUS
 10
160.6439414683
 20
30.5805577631
 11
160.7595660273
 21
30.6773488336
  0
LINE
  8
0
 62
7
  6
CONTINUOUS
 10
155.1517537478
 20
30.7741399155
 11
154.9783162478
 21
30.6773488336
  0
LINE
  8
0
 62
7
  6
CONTINUOUS
 10
157.2330037478
 20
31.4194136891
 11
157.1173791889
 21
31.3548863163
  0
LINE
  8
0
 62
7
  6
CONTINUOUS
 10
157.1173791889
 20
31.2258315706
 11
157.2330037478
 21
31.2903589434
  0
LINE
  8
0
 62
7
  6
CONTINUOUS
 10
149.8330039821
 20
31.4516773756
 11
149.6595664615
 21
31.3871500027
  0
LINE
  8
0
 62
7
  6
CONTINUOUS
 10
152.2611288581
 20
31.483941062
 11
152.0876915235
 21
31.4194136891
  0
LINE
  8
0
 62
7
  6
CONTINUOUS
 10
152.0876915235
 20
31.2903589434
 11
152.2611288581
 21
31.3548863163
  0
LINE
  8
0
 62
7
  6
CONTINUOUS
 10
150.8736290235
 20
30.7096125201
 11
150.7001914408
 21
30.6450851472
  0
LINE
  8
0
 62
7
  6
CONTINUOUS
 10
160.2970664683
 20
30.6450851472
 11
160.0658166889
 21
30.6128214495
  0
LINE
  8
0
 62
7
  6
CONTINUOUS
 10
154.6892538581
 20
30.4837666925
 11
154.9783162478
 21
30.5160303817
  0
LINE
  8
0
 62
7
  6
CONTINUOUS
 10
160.0658166889
 20
30.4837666925
 11
160.4126916889
 21
30.5160303817
  0
LINE
  8
0
 62
7
  6
CONTINUOUS
 10
150.3533164408
 20
30.4837666925
 11
150.7580039683
 21
30.5160303817
  0
LINE
  8
0
 62
7
  6
CONTINUOUS
 10
150.7001914408
 20
30.6450851472
 11
150.2955039959
 21
30.6128214495
  0
LINE
  8
0
 62
7
  6
CONTINUOUS
 10
154.5736289683
 20
31.0322494069
 11
155.2095666889
 21
31.0322494069
  0
LINE
  8
0
 62
7
  6
CONTINUOUS
 10
155.2095666889
 20
31.1613041978
 11
154.5736289683
 21
31.1613041978
  0
LINE
  8
0
 62
7
  6
CONTINUOUS
 10
150.9314414683
 20
31.1935678842
 11
151.2205040235
 21
31.1935678842
  0
LINE
  8
0
 62
7
  6
CONTINUOUS
 10
153.7642540786
 20
31.258095257
 11
154.0533164683
 21
31.258095257
  0
LINE
  8
0
 62
7
  6
CONTINUOUS
 10
160.4705039683
 20
31.258095257
 11
160.7595660273
 21
31.258095257
  0
LINE
  8
0
 62
7
  6
CONTINUOUS
 10
154.4580040786
 20
31.3871500027
 11
154.8048790786
 21
31.3871500027
  0
LINE
  8
0
 62
7
  6
CONTINUOUS
 10
159.6033164683
 20
31.3871500027
 11
159.9501914683
 21
31.3871500027
  0
LINE
  8
0
 62
7
  6
CONTINUOUS
 10
159.9501914683
 20
31.5162047484
 11
159.6033164683
 21
31.5162047484
  0
LINE
  8
0
 62
7
  6
CONTINUOUS
 10
157.8689414683
 20
31.5162047484
 11
157.6376916889
 21
31.5162047484
  0
LINE
  8
0
 62
7
  6
CONTINUOUS
 10
157.1173791889
 20
31.5162047484
 11
156.8283164683
 21
31.5162047484
  0
LINE
  8
0
 62
7
  6
CONTINUOUS
 10
156.3658162478
 20
31.5162047484
 11
156.0767541889
 21
31.5162047484
  0
LINE
  8
0
 62
7
  6
CONTINUOUS
 10
154.8048790786
 20
31.5162047484
 11
154.4580040786
 21
31.5162047484
  0
LINE
  8
0
 62
7
  6
CONTINUOUS
 10
152.7236290786
 20
31.5162047484
 11
152.4923789683
 21
31.5162047484
  0
LINE
  8
0
 62
7
  6
CONTINUOUS
 10
156.0767541889
 20
31.838841703
 11
156.3658162478
 21
31.838841703
  0
LINE
  8
0
 62
7
  6
CONTINUOUS
 10
156.3658162478
 20
32.0001601351
 11
156.0767541889
 21
32.0001601351
  0
LINE
  8
0
 62
7
  6
CONTINUOUS
 10
151.9720664683
 20
32.0001601351
 11
151.6830039132
 21
32.0001601351
  0
LINE
  8
0
 62
7
  6
CONTINUOUS
 10
151.0098482306
 20
32.287045381
 11
151.4224195792
 21
32.287045381
  0
LINE
  8
0
 62
7
  6
CONTINUOUS
 10
152.6491924929
 20
32.287045381
 11
154.0426351159
 21
32.287045381
  0
LINE
  8
0
 62
7
  6
CONTINUOUS
 10
154.3705039683
 20
32.287045381
 11
155.7639465913
 21
32.287045381
  0
LINE
  8
0
 62
7
  6
CONTINUOUS
 10
157.6491924929
 20
32.287045381
 11
159.0426351159
 21
32.287045381
  0
LINE
  8
0
 62
7
  6
CONTINUOUS
 10
159.3705039683
 20
32.287045381
 11
160.7639465913
 21
32.287045381
  0
LINE
  8
0
 62
7
  6
CONTINUOUS
 10
157.4064412478
 20
31.483941062
 11
157.2330037478
 21
31.4194136891
  0
LINE
  8
0
 62
7
  6
CONTINUOUS
 10
154.9783162478
 20
30.5160303817
 11
155.1517537478
 21
30.5805577631
  0
LINE
  8
0
 62
7
  6
CONTINUOUS
 10
160.4126916889
 20
30.5160303817
 11
160.6439414683
 21
30.5805577631
  0
LINE
  8
0
 62
7
  6
CONTINUOUS
 10
160.4126916889
 20
30.6773488336
 11
160.2970664683
 21
30.6450851472
  0
LINE
  8
0
 62
7
  6
CONTINUOUS
 10
159.3720666889
 20
31.3548863163
 11
159.6033164683
 21
31.3871500027
  0
LINE
  8
0
 62
7
  6
CONTINUOUS
 10
157.4064412478
 20
31.3548863163
 11
157.6376916889
 21
31.3871500027
  0
LINE
  8
0
 62
7
  6
CONTINUOUS
 10
154.3423788581
 20
30.9999857205
 11
154.5736289683
 21
31.0322494069
  0
LINE
  8
0
 62
7
  6
CONTINUOUS
 10
157.6376916889
 20
31.5162047484
 11
157.4064412478
 21
31.483941062
  0
LINE
  8
0
 62
7
  6
CONTINUOUS
 10
154.2267539683
 20
31.3548863163
 11
154.4580040786
 21
31.3871500027
  0
LINE
  8
0
 62
7
  6
CONTINUOUS
 10
159.6033164683
 20
31.5162047484
 11
159.2564414683
 21
31.483941062
  0
LINE
  8
0
 62
7
  6
CONTINUOUS
 10
154.5736289683
 20
31.1613041978
 11
154.2267539683
 21
31.1290405113
  0
LINE
  8
0
 62
7
  6
CONTINUOUS
 10
150.3533164408
 20
31.5162047484
 11
150.0064414821
 21
31.483941062
  0
LINE
  8
0
 62
7
  6
CONTINUOUS
 10
154.4580040786
 20
31.5162047484
 11
154.0533164683
 21
31.483941062
  0
LINE
  8
0
 62
7
  6
CONTINUOUS
 10
151.8295203618
 20
33.4345863646
 11
151.1737826569
 21
33.4345863646
  0
LINE
  8
0
 62
7
  6
CONTINUOUS
 10
157.2330037478
 20
31.2903589434
 11
157.4064412478
 21
31.3548863163
  0
LINE
  8
0
 62
7
  6
CONTINUOUS
 10
159.2564414683
 20
31.3226226299
 11
159.3720666889
 21
31.3548863163
  0
LINE
  8
0
 62
7
  6
CONTINUOUS
 10
159.2564414683
 20
31.483941062
 11
159.0251916889
 21
31.4194136891
  0
LINE
  8
0
 62
7
  6
CONTINUOUS
 10
154.9783162478
 20
30.6773488336
 11
154.6892538581
 21
30.6128214495
  0
LINE
  8
0
 62
7
  6
CONTINUOUS
 10
152.2611288581
 20
31.3548863163
 11
152.4923789683
 21
31.3871500027
  0
LINE
  8
0
 62
7
  6
CONTINUOUS
 10
152.4923789683
 20
31.5162047484
 11
152.2611288581
 21
31.483941062
  0
LINE
  8
0
 62
7
  6
CONTINUOUS
 10
150.0642539683
 20
31.3548863163
 11
150.2955039959
 21
31.3871500027
  0
LINE
  8
0
 62
7
  6
CONTINUOUS
 10
156.5836187224
 20
34.9099962007
 11
157.2393564274
 21
34.9099962007
  0
LINE
  8
0
 62
7
  6
CONTINUOUS
 10
154.2267539683
 20
30.967722034
 11
154.3423788581
 21
30.9999857205
  0
LINE
  8
0
 62
7
  6
CONTINUOUS
 10
154.2267539683
 20
31.1290405113
 11
153.9955038581
 21
31.0645131385
  0
LINE
  8
0
 62
7
  6
CONTINUOUS
 10
154.1111290786
 20
31.3226226299
 11
154.2267539683
 21
31.3548863163
  0
LINE
  8
0
 62
7
  6
CONTINUOUS
 10
150.7580039683
 20
30.5160303817
 11
150.9892539132
 21
30.5805577631
  0
LINE
  8
0
 62
7
  6
CONTINUOUS
 10
154.0533164683
 20
31.483941062
 11
153.9376915786
 21
31.4516773756
  0
LINE
  8
0
 62
7
  6
CONTINUOUS
 10
150.0064414821
 20
31.483941062
 11
149.8330039821
 21
31.4516773756
  0
LINE
  8
0
 62
7
  6
CONTINUOUS
 10
160.7639465913
 20
36.0575371843
 11
159.3705039683
 21
36.0575371843
  0
LINE
  8
0
 62
7
  6
CONTINUOUS
 10
157.4032908536
 20
36.0575371843
 11
156.990719505
 21
36.0575371843
  0
LINE
  8
0
 62
7
  6
CONTINUOUS
 10
155.7639465913
 20
36.0575371843
 11
154.3705039683
 21
36.0575371843
  0
LINE
  8
0
 62
7
  6
CONTINUOUS
 10
154.0426351159
 20
36.0575371843
 11
152.6491924929
 21
36.0575371843
  0
LINE
  8
0
 62
7
  6
CONTINUOUS
 10
150.7639465913
 20
36.0575371843
 11
149.3705039683
 21
36.0575371843
  0
LINE
  8
0
 62
7
  6
CONTINUOUS
 10
149.9486289546
 20
31.3226226299
 11
150.0642539683
 21
31.3548863163
  0
CIRCLE
  8
0
 62
7
  6
CONTINUOUS
 10
160.0672252798
 20
38.3936027581
 40
2.0901639344
  0
ARC
  8
0
 62
7
  6
CONTINUOUS
 10
151.0098482306
 20
33.9263896433
 40
1.6393442623
 50
180.0
 51
270.0
  0
ARC
  8
0
 62
7
  6
CONTINUOUS
 10
157.4032908536
 20
34.418192922
 40
1.6393442623
 50
0.0
 51
90.0
  0
ARC
  8
0
 62
7
  6
CONTINUOUS
 10
151.4224195792
 20
33.7624552171
 40
1.4754098361
 50
270.0
 51
326.2510114041
  0
ARC
  8
0
 62
7
  6
CONTINUOUS
 10
156.990719505
 20
34.5821273482
 40
1.4754098361
 50
90.0
 51
146.2510114041
  0
ARC
  8
0
 62
7
  6
CONTINUOUS
 10
151.8295203618
 20
34.2542584958
 40
0.8196721311
 50
270.0
 51
360.0
  0
ARC
  8
0
 62
7
  6
CONTINUOUS
 10
156.5836187224
 20
34.0903240696
 40
0.8196721311
 50
90.0
 51
180.0
  0
ARC
  8
0
 62
7
  6
CONTINUOUS
 10
151.1737826569
 20
33.8444224302
 40
0.4098360656
 50
180.0
 51
270.0
  0
ARC
  8
0
 62
7
  6
CONTINUOUS
 10
157.2393564274
 20
34.5001601351
 40
0.4098360656
 50
0.0
 51
90.0
  0
SOLID
  8
0
 62
7
  6
CONTINUOUS
 10
156.0767541889
 20
31.8388420633
 11
156.0767541889
 21
32.0001605469
 12
156.3658162478
 22
31.8388420633
 13
156.3658162478
 23
32.0001605469
  0
SOLID
  8
0
 62
7
  6
CONTINUOUS
 10
150.3533164408
 20
31.5162050961
 11
150.7580039683
 21
31.4839409236
 12
150.0064414821
 22
31.4839409236
 13
150.0064414821
 23
31.4839409236
  0
SOLID
  8
0
 62
7
  6
CONTINUOUS
 10
149.8330039821
 20
31.4516780059
 11
150.0064414821
 21
31.4839409236
 12
150.7580039683
 22
31.4839409236
 13
150.7580039683
 23
31.4839409236
  0
SOLID
  8
0
 62
7
  6
CONTINUOUS
 10
150.7580039683
 20
31.4839409236
 11
150.9892539132
 21
31.4194137026
 12
149.8330039821
 22
31.4516780059
 13
149.8330039821
 23
31.4516780059
  0
SOLID
  8
0
 62
7
  6
CONTINUOUS
 10
149.6595664615
 20
31.3871495108
 11
149.8330039821
 21
31.4516780059
 12
150.9892539132
 22
31.4194137026
 13
150.9892539132
 23
31.4194137026
  0
SOLID
  8
0
 62
7
  6
CONTINUOUS
 10
149.6595664615
 20
31.3871495108
 11
150.9892539132
 21
31.4194137026
 12
150.2955039959
 22
31.3871495108
 13
150.2955039959
 23
31.3871495108
  0
SOLID
  8
0
 62
7
  6
CONTINUOUS
 10
150.2955039959
 20
31.3871495108
 11
150.9892539132
 21
31.4194137026
 12
150.7001914408
 22
31.3548866125
 13
150.7001914408
 23
31.3548866125
  0
SOLID
  8
0
 62
7
  6
CONTINUOUS
 10
150.9892539132
 20
31.4194137026
 11
151.1626914132
 21
31.3226223092
 12
150.7001914408
 22
31.3548866125
 13
150.7001914408
 23
31.3548866125
  0
SOLID
  8
0
 62
7
  6
CONTINUOUS
 10
150.8736290235
 20
31.2903595223
 11
150.7001914408
 21
31.3548866125
 12
151.1626914132
 22
31.3226223092
 13
151.1626914132
 23
31.3226223092
  0
SOLID
  8
0
 62
7
  6
CONTINUOUS
 10
150.8736290235
 20
31.2903595223
 11
151.1626914132
 21
31.3226223092
 12
150.9314414683
 22
31.1935679757
 13
150.9314414683
 23
31.1935679757
  0
SOLID
  8
0
 62
7
  6
CONTINUOUS
 10
151.1626914132
 20
31.3226223092
 11
151.2205040235
 21
31.1935679757
 12
150.9314414683
 22
31.1935679757
 13
150.9314414683
 23
31.1935679757
  0
SOLID
  8
0
 62
7
  6
CONTINUOUS
 10
152.2611288581
 20
31.4839414344
 11
152.4923789683
 21
31.5162057377
 12
152.7236290786
 22
31.5162057377
 13
152.7236290786
 23
31.5162057377
  0
SOLID
  8
0
 62
7
  6
CONTINUOUS
 10
152.7236290786
 20
31.5162057377
 11
152.8970665786
 21
31.4839414344
 12
152.2611288581
 22
31.4839414344
 13
152.2611288581
 23
31.4839414344
  0
SOLID
  8
0
 62
7
  6
CONTINUOUS
 10
152.0876915235
 20
31.4194143443
 11
152.2611288581
 21
31.4839414344
 12
152.8970665786
 22
31.4839414344
 13
152.8970665786
 23
31.4839414344
  0
SOLID
  8
0
 62
7
  6
CONTINUOUS
 10
152.8970665786
 20
31.4839414344
 11
153.0705040786
 21
31.4194143443
 12
152.0876915235
 22
31.4194143443
 13
152.0876915235
 23
31.4194143443
  0
SOLID
  8
0
 62
7
  6
CONTINUOUS
 10
153.0705040786
 20
31.4194143443
 11
152.4923789683
 21
31.3871493993
 12
152.0876915235
 22
31.4194143443
 13
152.0876915235
 23
31.4194143443
  0
SOLID
  8
0
 62
7
  6
CONTINUOUS
 10
151.9720664683
 20
31.3548872541
 11
152.0876915235
 21
31.4194143443
 12
152.4923789683
 22
31.3871493993
 13
152.4923789683
 23
31.3871493993
  0
SOLID
  8
0
 62
7
  6
CONTINUOUS
 10
152.4923789683
 20
31.3871493993
 11
152.2611288581
 21
31.3548872541
 12
151.9720664683
 22
31.3548872541
 13
151.9720664683
 23
31.3548872541
  0
SOLID
  8
0
 62
7
  6
CONTINUOUS
 10
152.4923789683
 20
31.3871493993
 11
153.0705040786
 21
31.4194143443
 12
152.7236290786
 22
31.3548872541
 13
152.7236290786
 23
31.3548872541
  0
SOLID
  8
0
 62
7
  6
CONTINUOUS
 10
153.0705040786
 20
31.4194143443
 11
153.1861289683
 21
31.3548872541
 12
152.7236290786
 22
31.3548872541
 13
152.7236290786
 23
31.3548872541
  0
SOLID
  8
0
 62
7
  6
CONTINUOUS
 10
152.8392539683
 20
31.3226223092
 11
152.7236290786
 21
31.3548872541
 12
153.1861289683
 22
31.3548872541
 13
153.1861289683
 23
31.3548872541
  0
SOLID
  8
0
 62
7
  6
CONTINUOUS
 10
153.1861289683
 20
31.3548872541
 11
153.2439415786
 21
31.2903601639
 12
152.8392539683
 22
31.3226223092
 13
152.8392539683
 23
31.3226223092
  0
SOLID
  8
0
 62
7
  6
CONTINUOUS
 10
152.9548788581
 20
31.258095219
 11
152.8392539683
 21
31.3226223092
 12
153.2439415786
 22
31.2903601639
 13
153.2439415786
 23
31.2903601639
  0
SOLID
  8
0
 62
7
  6
CONTINUOUS
 10
152.9548788581
 20
31.258095219
 11
153.2439415786
 21
31.2903601639
 12
153.0126914683
 22
31.1290416803
 13
153.0126914683
 23
31.1290416803
  0
SOLID
  8
0
 62
7
  6
CONTINUOUS
 10
153.2439415786
 20
31.2903601639
 11
153.3017538581
 21
31.1290416803
 12
153.0126914683
 22
31.1290416803
 13
153.0126914683
 23
31.1290416803
  0
SOLID
  8
0
 62
7
  6
CONTINUOUS
 10
152.2611288581
 20
31.3548872541
 11
152.0876915235
 21
31.2903601639
 12
151.9720664683
 22
31.3548872541
 13
151.9720664683
 23
31.3548872541
  0
SOLID
  8
0
 62
7
  6
CONTINUOUS
 10
152.0876915235
 20
31.2903601639
 11
151.9720664683
 21
31.2258309157
 12
151.9720664683
 22
31.3548872541
 13
151.9720664683
 23
31.3548872541
  0
SOLID
  8
0
 62
7
  6
CONTINUOUS
 10
151.9720664683
 20
31.2258309157
 11
151.6830039132
 21
30.4837677459
 12
151.9720664683
 22
31.3548872541
 13
151.9720664683
 23
31.3548872541
  0
SOLID
  8
0
 62
7
  6
CONTINUOUS
 10
151.9720664683
 20
31.3548872541
 11
151.6830039132
 21
30.4837677459
 12
151.9720664683
 22
32.0001611885
 13
151.9720664683
 23
32.0001611885
  0
SOLID
  8
0
 62
7
  6
CONTINUOUS
 10
151.6830039132
 20
30.4837677459
 11
151.6830039132
 21
32.0001611885
 12
151.9720664683
 22
32.0001611885
 13
151.9720664683
 23
32.0001611885
  0
SOLID
  8
0
 62
7
  6
CONTINUOUS
 10
151.9720664683
 20
31.2258309157
 11
151.9720664683
 21
30.4837677459
 12
151.6830039132
 22
30.4837677459
 13
151.6830039132
 23
30.4837677459
  0
SOLID
  8
0
 62
7
  6
CONTINUOUS
 10
153.0126914683
 20
30.4837677459
 11
153.0126914683
 21
31.1290416803
 12
153.3017538581
 22
31.1290416803
 13
153.3017538581
 23
31.1290416803
  0
SOLID
  8
0
 62
7
  6
CONTINUOUS
 10
153.3017538581
 20
31.1290416803
 11
153.3017538581
 21
30.4837677459
 12
153.0126914683
 22
30.4837677459
 13
153.0126914683
 23
30.4837677459
  0
SOLID
  8
0
 62
7
  6
CONTINUOUS
 10
154.0533164683
 20
31.4839408139
 11
154.4580040786
 21
31.5162048066
 12
154.8048790786
 22
31.5162048066
 13
154.8048790786
 23
31.5162048066
  0
SOLID
  8
0
 62
7
  6
CONTINUOUS
 10
154.8048790786
 20
31.5162048066
 11
155.1517537478
 21
31.4839408139
 12
154.0533164683
 22
31.4839408139
 13
154.0533164683
 23
31.4839408139
  0
SOLID
  8
0
 62
7
  6
CONTINUOUS
 10
153.9376915786
 20
31.4516780059
 11
154.0533164683
 21
31.4839408139
 12
155.1517537478
 22
31.4839408139
 13
155.1517537478
 23
31.4839408139
  0
SOLID
  8
0
 62
7
  6
CONTINUOUS
 10
155.1517537478
 20
31.4839408139
 11
155.3251912478
 21
31.4194137026
 12
153.9376915786
 22
31.4516780059
 13
153.9376915786
 23
31.4516780059
  0
SOLID
  8
0
 62
7
  6
CONTINUOUS
 10
153.8220663581
 20
31.38714961
 11
153.9376915786
 21
31.4516780059
 12
155.3251912478
 22
31.4194137026
 13
155.3251912478
 23
31.4194137026
  0
SOLID
  8
0
 62
7
  6
CONTINUOUS
 10
153.8220663581
 20
31.38714961
 11
155.3251912478
 21
31.4194137026
 12
154.4580040786
 22
31.38714961
 13
154.4580040786
 23
31.38714961
  0
SOLID
  8
0
 62
7
  6
CONTINUOUS
 10
154.4580040786
 20
31.38714961
 11
155.3251912478
 21
31.4194137026
 12
154.8048790786
 22
31.38714961
 13
154.8048790786
 23
31.38714961
  0
SOLID
  8
0
 62
7
  6
CONTINUOUS
 10
154.8048790786
 20
31.38714961
 11
155.3251912478
 21
31.4194137026
 12
155.0361291889
 22
31.3548863916
 13
155.0361291889
 23
31.3548863916
  0
SOLID
  8
0
 62
7
  6
CONTINUOUS
 10
155.3251912478
 20
31.4194137026
 11
155.4408164683
 21
31.3548863916
 12
155.0361291889
 22
31.3548863916
 13
155.0361291889
 23
31.3548863916
  0
SOLID
  8
0
 62
7
  6
CONTINUOUS
 10
153.7642540786
 20
31.3226223989
 11
153.8220663581
 21
31.38714961
 12
154.4580040786
 22
31.38714961
 13
154.4580040786
 23
31.38714961
  0
SOLID
  8
0
 62
7
  6
CONTINUOUS
 10
155.1517537478
 20
31.3226223989
 11
155.0361291889
 21
31.3548863916
 12
155.4408164683
 22
31.3548863916
 13
155.4408164683
 23
31.3548863916
  0
SOLID
  8
0
 62
7
  6
CONTINUOUS
 10
155.1517537478
 20
31.3226223989
 11
155.4408164683
 21
31.3548863916
 12
155.2095666889
 22
31.2580951877
 13
155.2095666889
 23
31.2580951877
  0
SOLID
  8
0
 62
7
  6
CONTINUOUS
 10
155.4408164683
 20
31.3548863916
 11
155.4986287478
 21
31.2580951877
 12
155.2095666889
 22
31.2580951877
 13
155.2095666889
 23
31.2580951877
  0
SOLID
  8
0
 62
7
  6
CONTINUOUS
 10
155.2095666889
 20
31.1613038256
 11
155.2095666889
 21
31.2580951877
 12
155.4986287478
 22
31.2580951877
 13
155.4986287478
 23
31.2580951877
  0
SOLID
  8
0
 62
7
  6
CONTINUOUS
 10
155.2095666889
 20
31.1613038256
 11
155.4986287478
 21
31.2580951877
 12
155.2095666889
 22
31.0322496452
 13
155.2095666889
 23
31.0322496452
  0
SOLID
  8
0
 62
7
  6
CONTINUOUS
 10
155.2095666889
 20
31.0322496452
 11
155.4986287478
 21
31.2580951877
 12
155.2095666889
 22
30.8386672883
 13
155.2095666889
 23
30.8386672883
  0
SOLID
  8
0
 62
7
  6
CONTINUOUS
 10
155.4986287478
 20
31.2580951877
 11
155.4986287478
 21
30.7418754649
 12
155.2095666889
 22
30.8386672883
 13
155.2095666889
 23
30.8386672883
  0
SOLID
  8
0
 62
7
  6
CONTINUOUS
 10
157.4064412478
 20
31.4839405154
 11
157.6376916889
 21
31.5162052351
 12
157.8689414683
 22
31.5162052351
 13
157.8689414683
 23
31.5162052351
  0
SOLID
  8
0
 62
7
  6
CONTINUOUS
 10
157.8689414683
 20
31.5162052351
 11
158.0423789683
 21
31.4839405154
 12
157.4064412478
 22
31.4839405154
 13
157.4064412478
 23
31.4839405154
  0
SOLID
  8
0
 62
7
  6
CONTINUOUS
 10
157.2330037478
 20
31.4194141734
 11
157.4064412478
 21
31.4839405154
 12
158.0423789683
 22
31.4839405154
 13
158.0423789683
 23
31.4839405154
  0
SOLID
  8
0
 62
7
  6
CONTINUOUS
 10
158.0423789683
 20
31.4839405154
 11
158.2158164683
 21
31.4194141734
 12
157.2330037478
 22
31.4194141734
 13
157.2330037478
 23
31.4194141734
  0
SOLID
  8
0
 62
7
  6
CONTINUOUS
 10
158.2158164683
 20
31.4194141734
 11
157.6376916889
 21
31.3871493993
 12
157.2330037478
 22
31.4194141734
 13
157.2330037478
 23
31.4194141734
  0
SOLID
  8
0
 62
7
  6
CONTINUOUS
 10
157.1173791889
 20
31.3548867989
 11
157.2330037478
 21
31.4194141734
 12
157.6376916889
 22
31.3871493993
 13
157.6376916889
 23
31.3871493993
  0
SOLID
  8
0
 62
7
  6
CONTINUOUS
 10
157.6376916889
 20
31.3871493993
 11
157.4064412478
 21
31.3548867989
 12
157.1173791889
 22
31.3548867989
 13
157.1173791889
 23
31.3548867989
  0
SOLID
  8
0
 62
7
  6
CONTINUOUS
 10
157.6376916889
 20
31.3871493993
 11
158.2158164683
 21
31.4194141734
 12
157.8689414683
 22
31.3548867989
 13
157.8689414683
 23
31.3548867989
  0
SOLID
  8
0
 62
7
  6
CONTINUOUS
 10
158.2158164683
 20
31.4194141734
 11
158.3314416889
 21
31.3548867989
 12
157.8689414683
 22
31.3548867989
 13
157.8689414683
 23
31.3548867989
  0
SOLID
  8
0
 62
7
  6
CONTINUOUS
 10
157.9845666889
 20
31.3226223092
 11
157.8689414683
 21
31.3548867989
 12
158.3314416889
 22
31.3548867989
 13
158.3314416889
 23
31.3548867989
  0
SOLID
  8
0
 62
7
  6
CONTINUOUS
 10
157.9845666889
 20
31.3226223092
 11
158.3314416889
 21
31.3548867989
 12
158.1001912478
 22
31.2580947047
 13
158.1001912478
 23
31.2580947047
  0
SOLID
  8
0
 62
7
  6
CONTINUOUS
 10
158.3314416889
 20
31.3548867989
 11
158.3892539683
 21
31.2580947047
 12
158.1001912478
 22
31.2580947047
 13
158.1001912478
 23
31.2580947047
  0
SOLID
  8
0
 62
7
  6
CONTINUOUS
 10
158.1580041889
 20
31.0967762685
 11
158.1001912478
 21
31.2580947047
 12
158.3892539683
 22
31.2580947047
 13
158.3892539683
 23
31.2580947047
  0
SOLID
  8
0
 62
7
  6
CONTINUOUS
 10
158.3892539683
 20
31.2580947047
 11
158.4470662478
 21
31.0967762685
 12
158.1580041889
 22
31.0967762685
 13
158.1580041889
 23
31.0967762685
  0
SOLID
  8
0
 62
7
  6
CONTINUOUS
 10
157.4064412478
 20
31.3548867989
 11
157.2330037478
 21
31.2903595223
 12
157.1173791889
 22
31.3548867989
 13
157.1173791889
 23
31.3548867989
  0
SOLID
  8
0
 62
7
  6
CONTINUOUS
 10
157.2330037478
 20
31.2903595223
 11
157.1173791889
 21
31.2258309157
 12
157.1173791889
 22
31.3548867989
 13
157.1173791889
 23
31.3548867989
  0
SOLID
  8
0
 62
7
  6
CONTINUOUS
 10
157.1173791889
 20
31.2258309157
 11
156.8283164683
 21
30.4837672433
 12
157.1173791889
 22
31.3548867989
 13
157.1173791889
 23
31.3548867989
  0
SOLID
  8
0
 62
7
  6
CONTINUOUS
 10
157.1173791889
 20
31.3548867989
 11
156.8283164683
 21
30.4837672433
 12
157.1173791889
 22
31.5162052351
 13
157.1173791889
 23
31.5162052351
  0
SOLID
  8
0
 62
7
  6
CONTINUOUS
 10
156.8283164683
 20
30.4837672433
 11
156.8283164683
 21
31.5162052351
 12
157.1173791889
 22
31.5162052351
 13
157.1173791889
 23
31.5162052351
  0
SOLID
  8
0
 62
7
  6
CONTINUOUS
 10
157.1173791889
 20
31.2258309157
 11
157.1173791889
 21
30.4837672433
 12
156.8283164683
 22
30.4837672433
 13
156.8283164683
 23
30.4837672433
  0
SOLID
  8
0
 62
7
  6
CONTINUOUS
 10
158.1580041889
 20
30.4837672433
 11
158.1580041889
 21
31.0967762685
 12
158.4470662478
 22
31.0967762685
 13
158.4470662478
 23
31.0967762685
  0
SOLID
  8
0
 62
7
  6
CONTINUOUS
 10
158.4470662478
 20
31.0967762685
 11
158.4470662478
 21
30.4837672433
 12
158.1580041889
 22
30.4837672433
 13
158.1580041889
 23
30.4837672433
  0
SOLID
  8
0
 62
7
  6
CONTINUOUS
 10
159.2564414683
 20
31.4839408138
 11
159.6033164683
 21
31.5162050633
 12
159.9501914683
 22
31.5162050633
 13
159.9501914683
 23
31.5162050633
  0
SOLID
  8
0
 62
7
  6
CONTINUOUS
 10
159.9501914683
 20
31.5162050633
 11
160.2970664683
 21
31.4839408138
 12
159.2564414683
 22
31.4839408138
 13
159.2564414683
 23
31.4839408138
  0
SOLID
  8
0
 62
7
  6
CONTINUOUS
 10
159.0251916889
 20
31.4194137026
 11
159.2564414683
 21
31.4839408138
 12
160.2970664683
 22
31.4839408138
 13
160.2970664683
 23
31.4839408138
  0
SOLID
  8
0
 62
7
  6
CONTINUOUS
 10
159.0251916889
 20
31.4194137026
 11
160.2970664683
 21
31.4839407928
 12
160.4705039683
 22
31.4516780059
 13
160.4705039683
 23
31.4516780059
  0
SOLID
  8
0
 62
7
  6
CONTINUOUS
 10
159.0251916889
 20
31.4194137026
 11
160.4705039683
 21
31.4516780059
 12
159.6033164683
 22
31.3871494664
 13
159.6033164683
 23
31.3871494664
  0
SOLID
  8
0
 62
7
  6
CONTINUOUS
 10
159.6033164683
 20
31.3871494664
 11
160.4705039683
 21
31.4516780059
 12
159.9501914683
 22
31.3871494664
 13
159.9501914683
 23
31.3871494664
  0
SOLID
  8
0
 62
7
  6
CONTINUOUS
 10
160.4705039683
 20
31.4516780059
 11
160.6439414683
 21
31.3871494664
 12
159.9501914683
 22
31.3871494664
 13
159.9501914683
 23
31.3871494664
  0
SOLID
  8
0
 62
7
  6
CONTINUOUS
 10
160.2970664683
 20
31.3548866125
 11
159.9501914683
 21
31.3871494664
 12
160.6439414683
 22
31.3871494664
 13
160.6439414683
 23
31.3871494664
  0
SOLID
  8
0
 62
7
  6
CONTINUOUS
 10
158.9095664683
 20
31.3226222241
 11
159.0251916889
 21
31.4194137026
 12
159.6033164683
 22
31.3871494664
 13
159.6033164683
 23
31.3871494664
  0
SOLID
  8
0
 62
7
  6
CONTINUOUS
 10
160.2970664683
 20
31.3548866125
 11
160.6439414683
 21
31.3871494664
 12
160.4126916889
 22
31.3226222241
 13
160.4126916889
 23
31.3226222241
  0
SOLID
  8
0
 62
7
  6
CONTINUOUS
 10
160.4126916889
 20
31.3226222241
 11
160.6439414683
 21
31.3871494664
 12
160.4705039683
 22
31.2580952077
 13
160.4705039683
 23
31.2580952077
  0
SOLID
  8
0
 62
7
  6
CONTINUOUS
 10
160.6439414683
 20
31.3871494664
 11
160.7595660273
 21
31.2580952077
 12
160.4705039683
 22
31.2580952077
 13
160.4705039683
 23
31.2580952077
  0
SOLID
  8
0
 62
7
  6
CONTINUOUS
 10
150.0642539683
 20
31.3548866125
 11
149.5439414683
 21
31.3226222809
 12
150.2955039959
 22
31.3871493065
 13
150.2955039959
 23
31.3871493065
  0
SOLID
  8
0
 62
7
  6
CONTINUOUS
 10
149.5439414683
 20
31.3226222809
 11
149.6595664615
 21
31.3871493065
 12
150.2955039959
 22
31.3871493065
 13
150.2955039959
 23
31.3871493065
  0
SOLID
  8
0
 62
7
  6
CONTINUOUS
 10
150.0642539683
 20
31.3548866125
 11
149.9486289546
 21
31.3226222809
 12
149.5439414683
 22
31.3226222809
 13
149.5439414683
 23
31.3226222809
  0
SOLID
  8
0
 62
7
  6
CONTINUOUS
 10
149.4283164701
 20
31.1935681288
 11
149.5439414683
 21
31.3226222809
 12
149.9486289546
 22
31.3226222809
 13
149.9486289546
 23
31.3226222809
  0
SOLID
  8
0
 62
7
  6
CONTINUOUS
 10
153.7642540786
 20
31.3226222809
 11
154.4580040786
 21
31.3871493993
 12
154.2267539683
 22
31.3548866125
 13
154.2267539683
 23
31.3548866125
  0
SOLID
  8
0
 62
7
  6
CONTINUOUS
 10
154.2267539683
 20
31.3548866125
 11
154.1111290786
 21
31.3226222809
 12
153.7642540786
 22
31.3226222809
 13
153.7642540786
 23
31.3226222809
  0
SOLID
  8
0
 62
7
  6
CONTINUOUS
 10
153.7642540786
 20
31.2580951907
 11
153.7642540786
 21
31.3226222809
 12
154.1111290786
 22
31.3226222809
 13
154.1111290786
 23
31.3226222809
  0
SOLID
  8
0
 62
7
  6
CONTINUOUS
 10
154.1111290786
 20
31.3226222809
 11
154.0533164683
 21
31.2580951907
 12
153.7642540786
 22
31.2580951907
 13
153.7642540786
 23
31.2580951907
  0
SOLID
  8
0
 62
7
  6
CONTINUOUS
 10
158.9095664683
 20
31.32262241
 11
159.6033164683
 21
31.3871493993
 12
159.3720666889
 22
31.3548866125
 13
159.3720666889
 23
31.3548866125
  0
SOLID
  8
0
 62
7
  6
CONTINUOUS
 10
159.3720666889
 20
31.3548866125
 11
159.2564414683
 21
31.32262241
 12
158.9095664683
 22
31.32262241
 13
158.9095664683
 23
31.32262241
  0
SOLID
  8
0
 62
7
  6
CONTINUOUS
 10
158.9095664683
 20
31.2580953198
 11
158.9095664683
 21
31.32262241
 12
159.2564414683
 22
31.32262241
 13
159.2564414683
 23
31.32262241
  0
SOLID
  8
0
 62
7
  6
CONTINUOUS
 10
159.2564414683
 20
31.32262241
 11
159.1986291889
 21
31.2580953198
 12
158.9095664683
 22
31.2580953198
 13
158.9095664683
 23
31.2580953198
  0
SOLID
  8
0
 62
7
  6
CONTINUOUS
 10
159.0251916889
 20
31.1290410387
 11
158.9095664683
 21
31.2580953198
 12
159.1986291889
 22
31.2580953198
 13
159.1986291889
 23
31.2580953198
  0
SOLID
  8
0
 62
7
  6
CONTINUOUS
 10
149.4283164701
 20
31.1935681288
 11
149.9486289546
 21
31.3226223092
 12
149.7751914546
 22
31.2258309157
 13
149.7751914546
 23
31.2258309157
  0
SOLID
  8
0
 62
7
  6
CONTINUOUS
 10
149.7751914546
 20
31.2258309157
 11
149.7173789683
 21
31.1613038256
 12
149.4283164701
 22
31.1935681288
 13
149.4283164701
 23
31.1935681288
  0
SOLID
  8
0
 62
7
  6
CONTINUOUS
 10
149.3705039683
 20
30.999985342
 11
149.4283164701
 21
31.1935681288
 12
149.7173789683
 22
31.1613038256
 13
149.7173789683
 23
31.1613038256
  0
SOLID
  8
0
 62
7
  6
CONTINUOUS
 10
154.2267539683
 20
31.1290410387
 11
154.5736289683
 21
31.1613037812
 12
155.2095666889
 22
31.1613037812
 13
155.2095666889
 23
31.1613037812
  0
SOLID
  8
0
 62
7
  6
CONTINUOUS
 10
154.2267539683
 20
31.1290410387
 11
155.2095666889
 21
31.1613037812
 12
153.9955038581
 22
31.0645131385
 13
153.9955038581
 23
31.0645131385
  0
SOLID
  8
0
 62
7
  6
CONTINUOUS
 10
153.9955038581
 20
31.0645131385
 11
155.2095666889
 21
31.1613037812
 12
154.5736289683
 22
31.0322496008
 13
154.5736289683
 23
31.0322496008
  0
SOLID
  8
0
 62
7
  6
CONTINUOUS
 10
155.2095666889
 20
31.1613037812
 11
155.2095666889
 21
31.0322496008
 12
154.5736289683
 22
31.0322496008
 13
154.5736289683
 23
31.0322496008
  0
SOLID
  8
0
 62
7
  6
CONTINUOUS
 10
159.0251916889
 20
31.1290409764
 11
159.1986291889
 21
31.258095219
 12
159.2564414683
 22
31.1935681288
 13
159.2564414683
 23
31.1935681288
  0
SOLID
  8
0
 62
7
  6
CONTINUOUS
 10
159.2564414683
 20
31.1935681288
 11
159.4298789683
 21
31.1290409764
 12
159.0251916889
 22
31.1290409764
 13
159.0251916889
 23
31.1290409764
  0
SOLID
  8
0
 62
7
  6
CONTINUOUS
 10
159.2564414683
 20
31.0322496452
 11
159.0251916889
 21
31.1290409764
 12
159.4298789683
 22
31.1290409764
 13
159.4298789683
 23
31.1290409764
  0
SOLID
  8
0
 62
7
  6
CONTINUOUS
 10
159.4298789683
 20
31.1290409764
 11
160.4126916889
 21
30.9677225551
 12
159.2564414683
 22
31.0322496452
 13
159.2564414683
 23
31.0322496452
  0
SOLID
  8
0
 62
7
  6
CONTINUOUS
 10
160.2392541889
 20
30.8709310886
 11
159.2564414683
 21
31.0322496452
 12
160.4126916889
 22
30.9677225551
 13
160.4126916889
 23
30.9677225551
  0
SOLID
  8
0
 62
7
  6
CONTINUOUS
 10
160.4126916889
 20
30.9677225551
 11
160.6439414683
 21
30.8709310886
 12
160.2392541889
 22
30.8709310886
 13
160.2392541889
 23
30.8709310886
  0
SOLID
  8
0
 62
7
  6
CONTINUOUS
 10
160.4126916889
 20
30.8064040715
 11
160.2392541889
 21
30.8709310886
 12
160.6439414683
 22
30.8709310886
 13
160.6439414683
 23
30.8709310886
  0
SOLID
  8
0
 62
7
  6
CONTINUOUS
 10
160.4126916889
 20
30.8064040715
 11
160.6439414683
 21
30.8709310886
 12
160.4705039683
 22
30.7418753703
 13
160.4705039683
 23
30.7418753703
  0
SOLID
  8
0
 62
7
  6
CONTINUOUS
 10
160.6439414683
 20
30.8709310886
 11
160.7595660273
 21
30.7418753703
 12
160.4705039683
 22
30.7418753703
 13
160.4705039683
 23
30.7418753703
  0
SOLID
  8
0
 62
7
  6
CONTINUOUS
 10
160.4126916889
 20
30.6773482855
 11
160.4705039683
 21
30.7418753703
 12
160.7595660273
 22
30.7418753703
 13
160.7595660273
 23
30.7418753703
  0
SOLID
  8
0
 62
7
  6
CONTINUOUS
 10
160.7595660273
 20
30.7418753703
 11
160.7595660273
 21
30.6773482855
 12
160.4126916889
 22
30.6773482855
 13
160.4126916889
 23
30.6773482855
  0
SOLID
  8
0
 62
7
  6
CONTINUOUS
 10
160.2970664683
 20
30.6450855879
 11
160.4126916889
 21
30.6773482855
 12
160.7595660273
 22
30.6773482855
 13
160.7595660273
 23
30.6773482855
  0
SOLID
  8
0
 62
7
  6
CONTINUOUS
 10
160.2970664683
 20
30.6450855879
 11
160.7595660273
 21
30.6773482855
 12
160.0658166889
 22
30.6128212008
 13
160.0658166889
 23
30.6128212008
  0
SOLID
  8
0
 62
7
  6
CONTINUOUS
 10
160.7595660273
 20
30.6773482855
 11
160.6439414683
 21
30.5805584977
 12
160.0658166889
 22
30.6128212008
 13
160.0658166889
 23
30.6128212008
  0
SOLID
  8
0
 62
7
  6
CONTINUOUS
 10
160.6439414683
 20
30.5805584977
 11
159.1986291889
 21
30.5482941944
 12
160.0658166889
 22
30.6128212008
 13
160.0658166889
 23
30.6128212008
  0
SOLID
  8
0
 62
7
  6
CONTINUOUS
 10
160.0658166889
 20
30.6128212008
 11
159.1986291889
 21
30.5482941944
 12
159.7189416889
 22
30.6128212008
 13
159.7189416889
 23
30.6128212008
  0
SOLID
  8
0
 62
7
  6
CONTINUOUS
 10
159.1986291889
 20
30.5482941944
 11
159.0251916889
 21
30.6128212008
 12
159.7189416889
 22
30.6128212008
 13
159.7189416889
 23
30.6128212008
  0
SOLID
  8
0
 62
7
  6
CONTINUOUS
 10
159.1986291889
 20
30.5482941944
 11
160.6439414683
 21
30.5805584977
 12
159.3720666889
 22
30.5160301864
 13
159.3720666889
 23
30.5160301864
  0
SOLID
  8
0
 62
7
  6
CONTINUOUS
 10
160.6439414683
 20
30.5805584977
 11
160.4126916889
 21
30.5160301864
 12
159.3720666889
 22
30.5160301864
 13
159.3720666889
 23
30.5160301864
  0
SOLID
  8
0
 62
7
  6
CONTINUOUS
 10
159.7189416889
 20
30.4837670312
 11
159.3720666889
 21
30.5160301864
 12
160.4126916889
 22
30.5160301864
 13
160.4126916889
 23
30.5160301864
  0
SOLID
  8
0
 62
7
  6
CONTINUOUS
 10
160.4126916889
 20
30.5160301864
 11
160.0658166889
 21
30.4837670312
 12
159.7189416889
 22
30.4837670312
 13
159.7189416889
 23
30.4837670312
  0
SOLID
  8
0
 62
7
  6
CONTINUOUS
 10
149.3705039683
 20
30.999985342
 11
149.7173789683
 21
31.1613038256
 12
149.6595664615
 22
31.0322496452
 13
149.6595664615
 23
31.0322496452
  0
SOLID
  8
0
 62
7
  6
CONTINUOUS
 10
149.6595664615
 20
31.0322496452
 11
149.6595664615
 21
30.9354583476
 12
149.3705039683
 22
30.999985342
 13
149.3705039683
 23
30.999985342
  0
SOLID
  8
0
 62
7
  6
CONTINUOUS
 10
149.4283164701
 20
30.8064040715
 11
149.3705039683
 21
30.999985342
 12
149.6595664615
 22
30.9354583476
 13
149.6595664615
 23
30.9354583476
  0
SOLID
  8
0
 62
7
  6
CONTINUOUS
 10
149.6595664615
 20
30.9354583476
 11
149.7751914546
 21
30.7741397682
 12
149.4283164701
 22
30.8064040715
 13
149.4283164701
 23
30.8064040715
  0
SOLID
  8
0
 62
7
  6
CONTINUOUS
 10
149.5439414683
 20
30.6773485435
 11
149.4283164701
 21
30.8064040715
 12
149.7751914546
 22
30.7741397682
 13
149.7751914546
 23
30.7741397682
  0
SOLID
  8
0
 62
7
  6
CONTINUOUS
 10
149.7751914546
 20
30.7741397682
 11
149.9486289546
 21
30.6773485435
 12
149.5439414683
 22
30.6773485435
 13
149.5439414683
 23
30.6773485435
  0
SOLID
  8
0
 62
7
  6
CONTINUOUS
 10
149.6595664615
 20
30.6128213107
 11
149.5439414683
 21
30.6773485435
 12
149.9486289546
 22
30.6773485435
 13
149.9486289546
 23
30.6773485435
  0
SOLID
  8
0
 62
7
  6
CONTINUOUS
 10
149.9486289546
 20
30.6773485435
 11
150.2955039959
 21
30.6128213107
 12
149.6595664615
 22
30.6128213107
 13
149.6595664615
 23
30.6128213107
  0
SOLID
  8
0
 62
7
  6
CONTINUOUS
 10
149.8330039821
 20
30.5482941944
 11
149.6595664615
 21
30.6128213107
 12
150.2955039959
 22
30.6128213107
 13
150.2955039959
 23
30.6128213107
  0
SOLID
  8
0
 62
7
  6
CONTINUOUS
 10
153.8798789683
 20
30.9999852815
 11
153.9955038581
 21
31.0645131385
 12
154.5736289683
 22
31.0322496452
 13
154.5736289683
 23
31.0322496452
  0
SOLID
  8
0
 62
7
  6
CONTINUOUS
 10
154.5736289683
 20
31.0322496452
 11
154.3423788581
 21
30.9999852815
 12
153.8798789683
 22
30.9999852815
 13
153.8798789683
 23
30.9999852815
  0
SOLID
  8
0
 62
7
  6
CONTINUOUS
 10
153.7642540786
 20
30.8709311616
 11
153.8798789683
 21
30.9999852815
 12
154.3423788581
 22
30.9999852815
 13
154.3423788581
 23
30.9999852815
  0
SOLID
  8
0
 62
7
  6
CONTINUOUS
 10
154.1111290786
 20
30.9031946612
 11
153.7642540786
 21
30.8709311616
 12
154.2267539683
 22
30.9677225551
 13
154.2267539683
 23
30.9677225551
  0
SOLID
  8
0
 62
7
  6
CONTINUOUS
 10
153.7642540786
 20
30.8709311616
 11
154.3423788581
 21
30.999985342
 12
154.2267539683
 22
30.9677225551
 13
154.2267539683
 23
30.9677225551
  0
SOLID
  8
0
 62
7
  6
CONTINUOUS
 10
154.1111290786
 20
30.9031946612
 11
154.0533164683
 21
30.8064040715
 12
153.7642540786
 22
30.8709311616
 13
153.7642540786
 23
30.8709311616
  0
SOLID
  8
0
 62
7
  6
CONTINUOUS
 10
153.7642540786
 20
30.7741397682
 11
153.7642540786
 21
30.8709311616
 12
154.0533164683
 22
30.8064040715
 13
154.0533164683
 23
30.8064040715
  0
SOLID
  8
0
 62
7
  6
CONTINUOUS
 10
154.0533164683
 20
30.8064040715
 11
154.0533164683
 21
30.7418754649
 12
153.7642540786
 22
30.7741397682
 13
153.7642540786
 23
30.7741397682
  0
SOLID
  8
0
 62
7
  6
CONTINUOUS
 10
153.8220663581
 20
30.6450855879
 11
153.7642540786
 21
30.7741397682
 12
154.0533164683
 22
30.7418754649
 13
154.0533164683
 23
30.7418754649
  0
SOLID
  8
0
 62
7
  6
CONTINUOUS
 10
155.2095666889
 20
30.8386672883
 11
155.4986287478
 21
30.7418754649
 12
155.1517537478
 22
30.7741397682
 13
155.1517537478
 23
30.7741397682
  0
SOLID
  8
0
 62
7
  6
CONTINUOUS
 10
154.9783162478
 20
30.6773483748
 11
155.1517537478
 21
30.7741397682
 12
155.4986287478
 22
30.7418754649
 13
155.4986287478
 23
30.7418754649
  0
SOLID
  8
0
 62
7
  6
CONTINUOUS
 10
154.9783162478
 20
30.6773483748
 11
155.4986287478
 21
30.7418754649
 12
155.2095666889
 22
30.6450855879
 13
155.2095666889
 23
30.6450855879
  0
SOLID
  8
0
 62
7
  6
CONTINUOUS
 10
155.4986287478
 20
30.7418754649
 11
155.5564416889
 21
30.5805584977
 12
155.2095666889
 22
30.6450855879
 13
155.2095666889
 23
30.6450855879
  0
SOLID
  8
0
 62
7
  6
CONTINUOUS
 10
155.2673789683
 20
30.5482941944
 11
155.2095666889
 21
30.6450855879
 12
155.5564416889
 22
30.5805584977
 13
155.5564416889
 23
30.5805584977
  0
SOLID
  8
0
 62
7
  6
CONTINUOUS
 10
155.2673789683
 20
30.5482941944
 11
155.5564416889
 21
30.5805584977
 12
155.3251912478
 22
30.4837669548
 13
155.3251912478
 23
30.4837669548
  0
SOLID
  8
0
 62
7
  6
CONTINUOUS
 10
155.5564416889
 20
30.5805584977
 11
155.6142539683
 21
30.4837669548
 12
155.3251912478
 22
30.4837669548
 13
155.3251912478
 23
30.4837669548
  0
SOLID
  8
0
 62
7
  6
CONTINUOUS
 10
150.8736290235
 20
30.7096125201
 11
150.9314414683
 21
30.8064039377
 12
151.2205040235
 22
30.8064039377
 13
151.2205040235
 23
30.8064039377
  0
SOLID
  8
0
 62
7
  6
CONTINUOUS
 10
151.2205040235
 20
30.8064039377
 11
151.1626914132
 21
30.6773483748
 12
150.8736290235
 22
30.7096125201
 13
150.8736290235
 23
30.7096125201
  0
SOLID
  8
0
 62
7
  6
CONTINUOUS
 10
150.7001914408
 20
30.6450855879
 11
150.8736290235
 21
30.7096125201
 12
151.1626914132
 22
30.6773483748
 13
151.1626914132
 23
30.6773483748
  0
SOLID
  8
0
 62
7
  6
CONTINUOUS
 10
150.7001914408
 20
30.6450855879
 11
151.1626914132
 21
30.6773483748
 12
150.2955039959
 22
30.6128212846
 13
150.2955039959
 23
30.6128212846
  0
SOLID
  8
0
 62
7
  6
CONTINUOUS
 10
151.1626914132
 20
30.6773483748
 11
150.9892539132
 21
30.5805584977
 12
150.2955039959
 22
30.6128212846
 13
150.2955039959
 23
30.6128212846
  0
SOLID
  8
0
 62
7
  6
CONTINUOUS
 10
149.8330039821
 20
30.5482941944
 11
150.2955039959
 21
30.6128212846
 12
150.9892539132
 22
30.5805584977
 13
150.9892539132
 23
30.5805584977
  0
SOLID
  8
0
 62
7
  6
CONTINUOUS
 10
149.8330039821
 20
30.5482941944
 11
150.9892539132
 21
30.5805584977
 12
150.0064414821
 22
30.5160300219
 13
150.0064414821
 23
30.5160300219
  0
SOLID
  8
0
 62
7
  6
CONTINUOUS
 10
150.9892539132
 20
30.5805584977
 11
150.7580039683
 21
30.5160300219
 12
150.0064414821
 22
30.5160300219
 13
150.0064414821
 23
30.5160300219
  0
SOLID
  8
0
 62
7
  6
CONTINUOUS
 10
150.3533164408
 20
30.4837671043
 11
150.0064414821
 21
30.5160300219
 12
150.7580039683
 22
30.5160300219
 13
150.7580039683
 23
30.5160300219
  0
SOLID
  8
0
 62
7
  6
CONTINUOUS
 10
153.8220663581
 20
30.6450855879
 11
154.0533164683
 21
30.7418754649
 12
154.1111290786
 22
30.6773483748
 13
154.1111290786
 23
30.6773483748
  0
SOLID
  8
0
 62
7
  6
CONTINUOUS
 10
154.1111290786
 20
30.6773483748
 11
154.3423788581
 21
30.6128212846
 12
153.8220663581
 22
30.6450855879
 13
153.8220663581
 23
30.6450855879
  0
SOLID
  8
0
 62
7
  6
CONTINUOUS
 10
153.9955038581
 20
30.5482941944
 11
153.8220663581
 21
30.6450855879
 12
154.3423788581
 22
30.6128212846
 13
154.3423788581
 23
30.6128212846
  0
SOLID
  8
0
 62
7
  6
CONTINUOUS
 10
154.6892538581
 20
30.6128213209
 11
154.9783162478
 21
30.6773483748
 12
155.2095666889
 22
30.6450855879
 13
155.2095666889
 23
30.6450855879
  0
SOLID
  8
0
 62
7
  6
CONTINUOUS
 10
155.2095666889
 20
30.6450855879
 11
155.1517537478
 21
30.5805584977
 12
154.6892538581
 22
30.6128213209
 13
154.6892538581
 23
30.6128213209
  0
SOLID
  8
0
 62
7
  6
CONTINUOUS
 10
155.1517537478
 20
30.5805584977
 11
153.9955038581
 21
30.5482941944
 12
154.6892538581
 22
30.6128213209
 13
154.6892538581
 23
30.6128213209
  0
SOLID
  8
0
 62
7
  6
CONTINUOUS
 10
153.9955038581
 20
30.5482941944
 11
154.3423788581
 21
30.6128213209
 12
154.6892538581
 22
30.6128213209
 13
154.6892538581
 23
30.6128213209
  0
SOLID
  8
0
 62
7
  6
CONTINUOUS
 10
153.9955038581
 20
30.5482941944
 11
155.1517537478
 21
30.5805584977
 12
154.1111290786
 22
30.5160299113
 13
154.1111290786
 23
30.5160299113
  0
SOLID
  8
0
 62
7
  6
CONTINUOUS
 10
155.1517537478
 20
30.5805584977
 11
154.9783162478
 21
30.5160299113
 12
154.1111290786
 22
30.5160299113
 13
154.1111290786
 23
30.5160299113
  0
SOLID
  8
0
 62
7
  6
CONTINUOUS
 10
154.3423788581
 20
30.483767076
 11
154.1111290786
 21
30.5160299113
 12
154.9783162478
 22
30.5160299113
 13
154.9783162478
 23
30.5160299113
  0
SOLID
  8
0
 62
7
  6
CONTINUOUS
 10
154.9783162478
 20
30.5160299113
 11
154.6892538581
 21
30.483767076
 12
154.3423788581
 22
30.483767076
 13
154.3423788581
 23
30.483767076
  0
SOLID
  8
0
 62
7
  6
CONTINUOUS
 10
159.3720666889
 20
30.6450855879
 11
159.0251916889
 21
30.6128213209
 12
159.2564414683
 22
30.6773483748
 13
159.2564414683
 23
30.6773483748
  0
SOLID
  8
0
 62
7
  6
CONTINUOUS
 10
159.2564414683
 20
30.6773483748
 11
159.0251916889
 21
30.6128213209
 12
159.1986291889
 22
30.7418755012
 13
159.1986291889
 23
30.7418755012
  0
SOLID
  8
0
 62
7
  6
CONTINUOUS
 10
159.0251916889
 20
30.6128213209
 11
158.9095664683
 21
30.7418755012
 12
159.1986291889
 22
30.7418755012
 13
159.1986291889
 23
30.7418755012
  0
SOLID
  8
0
 62
7
  6
CONTINUOUS
 10
159.3720666889
 20
30.6450855879
 11
159.7189416889
 21
30.6128213209
 12
159.0251916889
 22
30.6128213209
 13
159.0251916889
 23
30.6128213209
  0
SOLID
  8
0
 62
7
  6
CONTINUOUS
 10
156.0767541889
 20
30.4837671043
 11
156.0767541889
 21
31.5162050961
 12
156.3658162478
 22
30.4837671043
 13
156.3658162478
 23
31.5162050961
  0
ENDBLK
  8
0
  6
BYBLOCK
 62
0
  0
BLOCK
  8
0
 62
2
  6
CONTINUOUS
  2
SYMBOL_3_BL0
 70
64
 10
31.7661185167
 20
19.8972369706
  0
TEXT
  8
0
 62
7
  6
CONTINUOUS
 10
18.0387879101
 20
19.2884917655
  7
TEXTSTYLE_3
 40
2.7338706658
  1
Ammeraal Beltech
 41
1.0
 51
15.0
 72
0
  0
TEXT
  8
0
 62
7
  6
CONTINUOUS
 10
28.8395887358
 20
17.0149550926
  7
TEXTSTYLE_4
 40
1.0935482663
  1
Innovation & Service in Belting
 41
1.0
 72
0
  0
LINE
  8
0
 62
7
  6
CONTINUOUS
 10
12.0142472588
 20
20.055085074
 11
12.7923992521
 21
23.7160023717
  0
LINE
  8
0
 62
7
  6
CONTINUOUS
 10
22.8875675419
 20
27.3793962833
 11
13.2802169951
 21
24.257778862
  0
LINE
  8
0
 62
7
  6
CONTINUOUS
 10
12.2395305911
 20
19.361734271
 11
19.7466058522
 21
12.602333345
  0
LINE
  8
0
 62
7
  6
CONTINUOUS
 10
12.5020650018
 20
20.5968615644
 11
23.310334367
 21
24.1086811633
  0
LINE
  8
0
 62
7
  6
CONTINUOUS
 10
23.3061292298
 20
13.7588925996
 11
14.860669561
 21
21.3632186413
  0
LINE
  8
0
 62
7
  6
CONTINUOUS
 10
23.8259519496
 20
26.5344711676
 11
22.8493924124
 21
21.9401197651
  0
LINE
  8
0
 62
7
  6
CONTINUOUS
 10
22.1495904647
 20
18.6478104513
 11
21.4631422532
 21
15.4183255269
  0
LINE
  8
0
 62
7
  6
CONTINUOUS
 10
24.5070480481
 20
14.1490947773
 11
25.4632795838
 21
18.6478104513
  0
LINE
  8
0
 62
7
  6
CONTINUOUS
 10
26.1630815315
 20
21.9401197651
 11
26.6073233338
 21
24.0301131245
  0
LINE
  8
0
 62
7
  6
CONTINUOUS
 10
20.4597069275
 20
12.4507590323
 11
24.0192303051
 21
13.6073182869
  0
LINE
  8
0
 62
7
  6
CONTINUOUS
 10
23.6006686173
 20
27.2278219706
 11
26.3820400015
 21
24.7234639276
  0
ARC
  8
0
 62
7
  6
CONTINUOUS
 10
13.5055003274
 20
23.564428059
 40
0.7290321776
 50
108.0
 51
168.0
  0
ARC
  8
0
 62
7
  6
CONTINUOUS
 10
23.1128508743
 20
26.6860454803
 40
0.7290321776
 50
348.0
 51
108.0
  0
ARC
  8
0
 62
7
  6
CONTINUOUS
 10
25.8942222585
 20
24.1816874372
 40
0.7290321776
 50
348.0
 51
48.0
  0
ARC
  8
0
 62
7
  6
CONTINUOUS
 10
20.2344235952
 20
13.1441098354
 40
0.7290321776
 50
228.0
 51
288.0
  0
ARC
  8
0
 62
7
  6
CONTINUOUS
 10
12.7273483341
 20
19.9035107613
 40
0.7290321776
 50
108.0
 51
228.0
  0
ARC
  8
0
 62
7
  6
CONTINUOUS
 10
23.7939469728
 20
14.30066909
 40
0.7290321776
 50
228.0
 51
348.0
  0
ENDBLK
  8
0
  6
BYBLOCK
 62
0
  0
ENDSEC
  0
SECTION
  2
ENTITIES
  0
TEXT
  8
0
 62
5
  6
CONTINUOUS
 10
96.0
 20
25.636
  7
TEXTSTYLE_2
 40
2.8
  1
Scale :
 41
0.6
 51
0.000019
 72
0
  0
TEXT
  8
0
 62
5
  6
CONTINUOUS
 10
116.0
 20
25.636
  7
TEXTSTYLE_2
 40
2.8
  1
Chain type:
 41
0.6
 51
0.000019
 72
0
  0
INSERT
  8
0
 62
2
  6
CONTINUOUS
  2
SYMBOL_3_BL0
 10
31.7661185167
 20
19.8972369706
  0
INSERT
  8
0
 62
2
  6
CONTINUOUS
  2
SYMBOL_11_BL1
 10
173.3924355793
 20
35.4326167403
  0
LINE
  8
0
 62
2
  6
CONTINUOUS
 10
10.0
 20
30.0
 11
200.0
 21
30.0
  0
LINE
  8
0
 62
2
  6
CONTINUOUS
 10
10.0
 20
30.0
 11
10.0
 21
10.0
  0
LINE
  8
0
 62
2
  6
CONTINUOUS
 10
10.0
 20
10.0
 11
200.0
 21
10.0
  0
LINE
  8
0
 62
2
  6
CONTINUOUS
 10
95.0
 20
30.0
 11
95.0
 21
10.0
  0
LINE
  8
0
 62
2
  6
CONTINUOUS
 10
115.0
 20
30.0
 11
115.0
 21
10.0
  0
LINE
  8
0
 62
2
  6
CONTINUOUS
 10
200.0
 20
30.0
 11
200.0
 21
10.0
  0
TEXT
  8
0
 62
5
  6
CONTINUOUS
 10
13.0
 20
23.303
  7
TEXTSTYLE_5
 40
1.52
  1
                                                                     Ammeraal Beltech Modular A/S
 41
1.0
 72
0
  0
TEXT
  8
0
 62
5
  6
CONTINUOUS
 10
13.0
 20
20.595
  7
TEXTSTYLE_5
 40
1.5
  1
                                                                      Hjulmagervej 21,  7100 Vejle,  DK
 41
1.0
 72
0
  0
TEXT
  8
0
 62
5
  6
CONTINUOUS
 10
13.0
 20
17.881
  7
TEXTSTYLE_5
 40
1.495
  1
                                                                      tel: 
 41
1.0
 72
0
  0
TEXT
  8
0
 62
5
  6
CONTINUOUS
 10
57.9869465649
 20
17.881
  7
TEXTSTYLE_5
 40
1.51
  1
+45 75723100     fax: +45 75723348
 41
1.0
 72
0
  0
TEXT
  8
0
 62
5
  6
CONTINUOUS
 10
13.0
 20
15.177
  7
TEXTSTYLE_5
 40
1.5
  1
                                                                      admin@unichains.dk  www.unichains.com
 41
1.0
 72
0
  0
TEXT
  8
0
 62
5
  6
CONTINUOUS
 10
99.75
 20
13.75
  7
TEXTSTYLE_6
 40
5.0
  1
1:1
 41
0.7
 72
1
 11
105.0
 21
13.75
  0
TEXT
  8
0
 62
5
  6
CONTINUOUS
 10
118.0
 20
13.75
  7
TEXTSTYLE_7
 40
7.5
  1
Z23
 41
0.7555555556
 72
0
  0
LINE
  8
0
 62
7
  6
CONTINUOUS
 10
210.0
 20
0.0
 11
0.0
 21
0.0
  0
LINE
  8
0
 62
7
  6
CONTINUOUS
 10
10.0
 20
10.0
 11
200.0
 21
10.0
  0
LINE
  8
0
 62
7
  6
CONTINUOUS
 10
10.0
 20
30.0
 11
200.0
 21
30.0
  0
LINE
  8
0
 62
7
  6
CONTINUOUS
 10
0.0
 20
0.0
 11
0.0
 21
297.0
  0
LINE
  8
0
 62
7
  6
CONTINUOUS
 10
10.0
 20
10.0
 11
10.0
 21
287.0
  0
LINE
  8
0
 62
7
  6
CONTINUOUS
 10
200.0
 20
287.0
 11
200.0
 21
10.0
  0
LINE
  8
0
 62
7
  6
CONTINUOUS
 10
210.0
 20
0.0
 11
210.0
 21
297.0
  0
LINE
  8
0
 62
7
  6
CONTINUOUS
 10
10.0
 20
287.0
 11
200.0
 21
287.0
  0
LINE
  8
0
 62
7
  6
CONTINUOUS
 10
0.0
 20
297.0
 11
210.0
 21
297.0
  0
LINE
  8
2_FEATURE
 62
7
  6
CONTINUOUS
 10
28.8909364676
 20
210.6791238083
 11
28.74360985
 21
208.5306728266
  0
LINE
  8
2_FEATURE
 62
7
  6
CONTINUOUS
 10
33.113823097
 20
229.5452823715
 11
32.3923915981
 21
227.5162226519
  0
LINE
  8
2_FEATURE
 62
7
  6
CONTINUOUS
 10
42.2694962467
 20
246.5728588165
 11
41.0274503715
 21
244.8136348976
  0
LINE
  8
2_FEATURE
 62
7
  6
CONTINUOUS
 10
55.6791089571
 20
260.4993442802
 11
54.0085401392
 21
259.1403937376
  0
LINE
  8
2_FEATURE
 62
7
  6
CONTINUOUS
 10
72.3484061179
 20
270.292160146
 11
70.3731786045
 21
269.4342423043
  0
LINE
  8
0
 62
7
  6
CONTINUOUS
 10
117.7293739638
 20
136.0904849391
 11
119.8032661919
 21
136.6705864641
  0
LINE
  8
2_FEATURE
 62
7
  6
CONTINUOUS
 10
98.537750861
 20
133.7567512153
 11
100.691247092
 21
133.7558932831
  0
LINE
  8
2_FEATURE
 62
7
  6
CONTINUOUS
 10
79.4280601989
 20
136.6866715583
 11
81.501489555
 21
136.1049177802
  0
LINE
  8
2_FEATURE
 62
7
  6
CONTINUOUS
 10
61.8171891026
 20
144.6630071607
 11
63.6568172606
 21
143.5434916436
  0
LINE
  8
2_FEATURE
 62
7
  6
CONTINUOUS
 10
47.0108947898
 20
157.0943529904
 11
48.4803226056
 21
155.5200821602
  0
LINE
  8
2_FEATURE
 62
7
  6
CONTINUOUS
 10
36.1069892633
 20
173.0589874894
 11
37.09726608
 21
171.1466855835
  0
LINE
  8
2_FEATURE
 62
7
  6
CONTINUOUS
 10
29.9139420912
 20
191.3732135757
 11
30.3516438801
 21
189.2646681299
  0
LINE
  8
0
 62
7
  6
CONTINUOUS
 10
48.0061457134
 20
236.3422565792
 11
47.823342202
 21
235.8430892859
  0
LINE
  8
0
 62
7
  6
CONTINUOUS
 10
44.205341829
 20
229.0636677163
 11
43.9981908848
 21
228.5858020024
  0
LINE
  8
0
 62
7
  6
CONTINUOUS
 10
44.4862240822
 20
228.3742435358
 11
44.6933750265
 21
228.8521092497
  0
LINE
  8
0
 62
7
  6
CONTINUOUS
 10
50.9100109463
 20
240.6591985686
 11
50.624885524
 21
240.0929425938
  0
LINE
  8
0
 62
7
  6
CONTINUOUS
 10
54.0362773527
 20
244.5543445621
 11
53.7054420422
 21
244.0135208082
  0
LINE
  8
0
 62
7
  6
CONTINUOUS
 10
48.2248305524
 20
236.6969222261
 11
48.0061457134
 21
236.3422565792
  0
LINE
  8
0
 62
7
  6
CONTINUOUS
 10
48.4589107469
 20
236.0630842112
 11
48.677595586
 21
236.4177498582
  0
LINE
  8
0
 62
7
  6
CONTINUOUS
 10
59.3143110127
 20
249.8939607858
 11
58.995293399
 21
249.4687412767
  0
LINE
  8
0
 62
7
  6
CONTINUOUS
 10
48.5887400772
 20
237.0844205723
 11
48.2248305524
 21
236.6969222261
  0
LINE
  8
0
 62
7
  6
CONTINUOUS
 10
63.3399714512
 20
253.1897886236
 11
62.9036284656
 21
252.7298460898
  0
LINE
  8
0
 62
7
  6
CONTINUOUS
 10
51.3664203104
 20
241.0992358713
 11
50.9100109463
 21
240.6591985686
  0
LINE
  8
0
 62
7
  6
CONTINUOUS
 10
59.6260050098
 20
250.1704723145
 11
59.3143110127
 21
249.8939607858
  0
LINE
  8
0
 62
7
  6
CONTINUOUS
 10
59.6673037383
 20
249.4960543618
 11
59.9789977354
 21
249.7725658905
  0
LINE
  8
0
 62
7
  6
CONTINUOUS
 10
67.3686909242
 20
255.962213551
 11
66.8076914106
 21
255.4844211851
  0
LINE
  8
0
 62
7
  6
CONTINUOUS
 10
54.5274085308
 20
244.9552591431
 11
54.0362773527
 21
244.5543445621
  0
LINE
  8
0
 62
7
  6
CONTINUOUS
 10
74.0508177587
 20
259.6077998586
 11
73.6227030579
 21
259.2926742404
  0
LINE
  8
0
 62
7
  6
CONTINUOUS
 10
67.7215807818
 20
256.1837503085
 11
67.3686909242
 21
255.962213551
  0
LINE
  8
0
 62
7
  6
CONTINUOUS
 10
67.563279358
 20
255.4563281047
 11
67.9161732541
 21
255.6778673975
  0
LINE
  8
0
 62
7
  6
CONTINUOUS
 10
66.5793160754
 20
254.084964136
 11
67.0204294071
 21
254.3618857167
  0
LINE
  8
0
 62
7
  6
CONTINUOUS
 10
60.0862197137
 20
250.436529254
 11
59.6260050098
 21
250.1704723145
  0
LINE
  8
0
 62
7
  6
CONTINUOUS
 10
78.8560475026
 20
261.6023326274
 11
78.3055806846
 21
261.2878034272
  0
LINE
  8
0
 62
7
  6
CONTINUOUS
 10
63.9039100625
 20
253.4794704804
 11
63.3399714512
 21
253.1897886236
  0
LINE
  8
0
 62
7
  6
CONTINUOUS
 10
74.4290208939
 20
259.782648865
 11
74.0508177587
 21
259.6077998586
  0
LINE
  8
0
 62
7
  6
CONTINUOUS
 10
74.2740300811
 20
259.1249855612
 11
74.6522332163
 21
259.2998345676
  0
LINE
  8
0
 62
7
  6
CONTINUOUS
 10
68.307480373
 20
256.4259568414
 11
67.7215807818
 21
256.1837503085
  0
LINE
  8
0
 62
7
  6
CONTINUOUS
 10
46.0659877108
 20
221.2769061451
 11
46.0480039205
 21
220.8472493576
  0
LINE
  8
0
 62
7
  6
CONTINUOUS
 10
46.4555462867
 20
220.7248295108
 11
46.4735301037
 21
221.1544862902
  0
LINE
  8
0
 62
7
  6
CONTINUOUS
 10
44.5460742837
 20
225.6811078948
 11
44.4975375632
 21
225.2538225113
  0
LINE
  8
0
 62
7
  6
CONTINUOUS
 10
44.895326854
 20
225.1026899616
 11
44.9438635744
 21
225.5299753451
  0
LINE
  8
0
 62
7
  6
CONTINUOUS
 10
43.614750373
 20
223.1008699328
 11
43.464913548
 21
222.6020549465
  0
LINE
  8
0
 62
7
  6
CONTINUOUS
 10
42.8655663873
 20
220.6067954655
 11
42.7157295944
 21
220.1079805864
  0
LINE
  8
0
 62
7
  6
CONTINUOUS
 10
46.0480039205
 20
220.8472493576
 11
45.9281344691
 21
220.4481973972
  0
LINE
  8
0
 62
7
  6
CONTINUOUS
 10
46.3356768353
 20
220.3257775504
 11
46.4555462867
 21
220.7248295108
  0
LINE
  8
0
 62
7
  6
CONTINUOUS
 10
46.7851872246
 20
221.8222222236
 11
46.9350240496
 21
222.3210372098
  0
LINE
  8
0
 62
7
  6
CONTINUOUS
 10
48.3307789145
 20
235.6525840907
 11
48.4589107469
 21
236.0630842112
  0
LINE
  8
0
 62
7
  6
CONTINUOUS
 10
50.2545764049
 20
235.9348992596
 11
50.1264439469
 21
235.5243981244
  0
LINE
  8
0
 62
7
  6
CONTINUOUS
 10
50.1418393022
 20
234.5358944625
 11
50.2699711346
 21
234.9463945831
  0
LINE
  8
0
 62
7
  6
CONTINUOUS
 10
52.1561897359
 20
234.762375197
 11
52.0280572779
 21
234.3518740617
  0
LINE
  8
0
 62
7
  6
CONTINUOUS
 10
52.5354940538
 20
234.1613688274
 11
52.7182969316
 21
234.6605351109
  0
LINE
  8
0
 62
7
  6
CONTINUOUS
 10
44.6940583268
 20
226.0706101408
 11
44.5460742837
 21
225.6811078948
  0
LINE
  8
0
 62
7
  6
CONTINUOUS
 10
44.2131103454
 20
224.8047282591
 11
44.0281303444
 21
224.3178505909
  0
LINE
  8
0
 62
7
  6
CONTINUOUS
 10
47.210444949
 20
223.1087900873
 11
47.39542495
 21
223.5956677555
  0
LINE
  8
0
 62
7
  6
CONTINUOUS
 10
48.0613528266
 20
225.3484270268
 11
48.2463327217
 21
225.8353044165
  0
LINE
  8
0
 62
7
  6
CONTINUOUS
 10
45.6694416948
 20
228.4289921979
 11
45.4622907506
 21
227.9511264841
  0
LINE
  8
0
 62
7
  6
CONTINUOUS
 10
48.5857034876
 20
226.5971521793
 11
48.7928544318
 21
227.0750178932
  0
LINE
  8
0
 62
7
  6
CONTINUOUS
 10
51.1148890009
 20
239.8612524073
 11
51.3382208006
 21
240.3436518885
  0
LINE
  8
0
 62
7
  6
CONTINUOUS
 10
54.7303045277
 20
238.4910037089
 11
54.5069741424
 21
238.008606147
  0
LINE
  8
0
 62
7
  6
CONTINUOUS
 10
54.9351840566
 20
237.6930594228
 11
55.2203094715
 21
238.2593154031
  0
LINE
  8
0
 62
7
  6
CONTINUOUS
 10
54.1746794414
 20
243.7422266693
 11
54.4370170219
 21
244.2045716299
  0
LINE
  8
0
 62
7
  6
CONTINUOUS
 10
57.6648285477
 20
242.0785965494
 11
57.4024909672
 21
241.6162515888
  0
LINE
  8
0
 62
7
  6
CONTINUOUS
 10
66.8076914106
 20
255.4844211851
 11
66.5679271237
 21
255.0826846854
  0
LINE
  8
0
 62
7
  6
CONTINUOUS
 10
46.1139218137
 20
219.957330623
 11
46.3356768353
 21
220.3257775504
  0
LINE
  8
0
 62
7
  6
CONTINUOUS
 10
57.8032306926
 20
241.2664786076
 11
58.1340659961
 21
241.8073023676
  0
LINE
  8
0
 62
7
  6
CONTINUOUS
 10
50.1264439469
 20
235.5243981244
 11
49.9077591078
 21
235.1697324774
  0
LINE
  8
0
 62
7
  6
CONTINUOUS
 10
50.2699711346
 20
234.9463945831
 11
50.4886559737
 21
235.30106023
  0
LINE
  8
0
 62
7
  6
CONTINUOUS
 10
52.0280572779
 20
234.3518740617
 11
51.8093724388
 21
233.9972084147
  0
LINE
  8
0
 62
7
  6
CONTINUOUS
 10
52.2074664824
 20
233.6293698496
 11
52.5354940538
 21
234.1613688274
  0
LINE
  8
0
 62
7
  6
CONTINUOUS
 10
59.4262082863
 20
249.1399615482
 11
59.6673037383
 21
249.4960543618
  0
LINE
  8
0
 62
7
  6
CONTINUOUS
 10
61.3496683236
 20
248.8553563421
 11
61.1085746551
 21
248.4992651108
  0
LINE
  8
0
 62
7
  6
CONTINUOUS
 10
60.8381793864
 20
247.5483356292
 11
61.0792748384
 21
247.9044284428
  0
LINE
  8
0
 62
7
  6
CONTINUOUS
 10
62.8322379194
 20
247.184149194
 11
62.5911442509
 21
246.8280579627
  0
LINE
  8
0
 62
7
  6
CONTINUOUS
 10
44.9438635744
 20
225.5299753451
 11
45.1912949403
 21
225.8816944537
  0
LINE
  8
0
 62
7
  6
CONTINUOUS
 10
63.0220591876
 20
246.4992781785
 11
63.3410785786
 21
246.9244992767
  0
LINE
  8
0
 62
7
  6
CONTINUOUS
 10
44.9044936289
 20
226.3249535486
 11
44.6940583268
 21
226.0706101408
  0
LINE
  8
0
 62
7
  6
CONTINUOUS
 10
63.3059730578
 20
252.3666621432
 11
63.6589605155
 21
252.764136931
  0
LINE
  8
0
 62
7
  6
CONTINUOUS
 10
66.3724654544
 20
250.0117873464
 11
66.0194799046
 21
249.6143139884
  0
LINE
  8
0
 62
7
  6
CONTINUOUS
 10
51.8435569497
 20
233.2418715084
 11
52.2074664824
 21
233.6293698496
  0
LINE
  8
0
 62
7
  6
CONTINUOUS
 10
66.3384690136
 20
249.1886622362
 11
66.7748119936
 21
249.6486047775
  0
LINE
  8
0
 62
7
  6
CONTINUOUS
 10
48.677595586
 20
236.4177498582
 11
48.9868340574
 21
236.7165820463
  0
LINE
  8
0
 62
7
  6
CONTINUOUS
 10
49.9077591078
 20
235.1697324774
 11
49.598521262
 21
234.870901304
  0
LINE
  8
0
 62
7
  6
CONTINUOUS
 10
50.4886559737
 20
235.30106023
 11
50.7978944451
 21
235.5998924181
  0
LINE
  8
0
 62
7
  6
CONTINUOUS
 10
51.8093724388
 20
233.9972084147
 11
51.500134593
 21
233.6983772414
  0
LINE
  8
0
 62
7
  6
CONTINUOUS
 10
54.4787746851
 20
237.2530221255
 11
54.9351840566
 21
237.6930594228
  0
LINE
  8
0
 62
7
  6
CONTINUOUS
 10
67.1787308309
 20
255.0893079205
 11
67.563279358
 21
255.4563281047
  0
LINE
  8
0
 62
7
  6
CONTINUOUS
 10
51.3382208006
 20
240.3436518885
 11
51.7328351277
 21
240.6998307784
  0
LINE
  8
0
 62
7
  6
CONTINUOUS
 10
54.5069741424
 20
238.008606147
 11
54.1123584009
 21
237.6524253378
  0
LINE
  8
0
 62
7
  6
CONTINUOUS
 10
61.1085746551
 20
248.4992651108
 11
60.796880658
 21
248.222753582
  0
LINE
  8
0
 62
7
  6
CONTINUOUS
 10
61.0792748384
 20
247.9044284428
 11
61.3909688356
 21
248.1809399715
  0
LINE
  8
0
 62
7
  6
CONTINUOUS
 10
62.5911442509
 20
246.8280579627
 11
62.2794502538
 21
246.5515464339
  0
LINE
  8
0
 62
7
  6
CONTINUOUS
 10
62.5545190837
 20
246.0845116765
 11
63.0220591876
 21
246.4992781785
  0
LINE
  8
0
 62
7
  6
CONTINUOUS
 10
57.3120995074
 20
240.8655640327
 11
57.8032306926
 21
241.2664786076
  0
LINE
  8
0
 62
7
  6
CONTINUOUS
 10
73.9404694103
 20
258.8535736954
 11
74.2740300811
 21
259.1249855612
  0
LINE
  8
0
 62
7
  6
CONTINUOUS
 10
75.7000777721
 20
258.0262424125
 11
75.3665127731
 21
257.7548285456
  0
LINE
  8
0
 62
7
  6
CONTINUOUS
 10
74.8333188249
 20
256.9223162355
 11
75.1668794957
 21
257.1937281013
  0
LINE
  8
0
 62
7
  6
CONTINUOUS
 10
76.63756962
 20
255.9984221607
 11
76.304004621
 21
255.7270082939
  0
LINE
  8
0
 62
7
  6
CONTINUOUS
 10
54.4370170219
 20
244.2045716299
 11
54.8596504701
 21
244.5270074176
  0
LINE
  8
0
 62
7
  6
CONTINUOUS
 10
57.4024909672
 20
241.6162515888
 11
56.9798575191
 21
241.293815801
  0
LINE
  8
0
 62
7
  6
CONTINUOUS
 10
76.6217710046
 20
255.2879076812
 11
77.0498813732
 21
255.6030313069
  0
LINE
  8
0
 62
7
  6
CONTINUOUS
 10
71.420560061
 20
253.2303212911
 11
68.9503229804
 21
251.6795589178
  0
LINE
  8
0
 62
7
  6
CONTINUOUS
 10
68.5273531933
 20
250.7859834489
 11
71.7033740277
 21
252.7798218725
  0
LINE
  8
0
 62
7
  6
CONTINUOUS
 10
78.5860674002
 20
260.8240018039
 11
79.0386983996
 21
261.1027607743
  0
LINE
  8
0
 62
7
  6
CONTINUOUS
 10
80.8429506947
 20
257.6846891793
 11
80.3903152168
 21
257.4059285716
  0
LINE
  8
0
 62
7
  6
CONTINUOUS
 10
62.0943043736
 20
245.8184547439
 11
62.5545190837
 21
246.0845116765
  0
LINE
  8
0
 62
7
  6
CONTINUOUS
 10
80.5729661394
 20
256.9063566485
 11
81.1234329542
 21
257.2208858575
  0
LINE
  8
0
 62
7
  6
CONTINUOUS
 10
83.5584361295
 20
260.5698632434
 11
83.9320595273
 21
260.7827779649
  0
LINE
  8
0
 62
7
  6
CONTINUOUS
 10
85.4717583832
 20
259.1094720836
 11
85.0981349854
 21
258.8965573621
  0
LINE
  8
0
 62
7
  6
CONTINUOUS
 10
59.9789977354
 20
249.7725658905
 11
60.3612884941
 21
249.9694945523
  0
LINE
  8
0
 62
7
  6
CONTINUOUS
 10
60.796880658
 20
248.222753582
 11
60.4145881157
 21
248.0258233381
  0
LINE
  8
0
 62
7
  6
CONTINUOUS
 10
61.3909688356
 20
248.1809399715
 11
61.7732595943
 21
248.3778686333
  0
LINE
  8
0
 62
7
  6
CONTINUOUS
 10
62.2794502538
 20
246.5515464339
 11
61.8971577115
 21
246.35461619
  0
LINE
  8
0
 62
7
  6
CONTINUOUS
 10
65.7745303967
 20
248.8989803869
 11
66.3384690136
 21
249.1886622362
  0
LINE
  8
0
 62
7
  6
CONTINUOUS
 10
83.7912134801
 20
261.2957065931
 11
83.3171384819
 21
261.0552086756
  0
LINE
  8
0
 62
7
  6
CONTINUOUS
 10
85.2389810524
 20
258.3836286621
 11
85.7130560481
 21
258.6241265886
  0
LINE
  8
0
 62
7
  6
CONTINUOUS
 10
63.6589605155
 20
252.764136931
 11
64.1395416911
 21
252.991349612
  0
LINE
  8
0
 62
7
  6
CONTINUOUS
 10
66.0194799046
 20
249.6143139884
 11
65.5388968211
 21
249.3870998777
  0
LINE
  8
0
 62
7
  6
CONTINUOUS
 10
75.3665127731
 20
257.7548285456
 11
74.9883096378
 21
257.5799795392
  0
LINE
  8
0
 62
7
  6
CONTINUOUS
 10
75.1668794957
 20
257.1937281013
 11
75.545082631
 21
257.3685771077
  0
LINE
  8
0
 62
7
  6
CONTINUOUS
 10
76.304004621
 20
255.7270082939
 11
75.9258014857
 21
255.5521592875
  0
LINE
  8
0
 62
7
  6
CONTINUOUS
 10
76.0544641376
 20
255.0256331711
 11
76.6217710046
 21
255.2879076812
  0
LINE
  8
0
 62
7
  6
CONTINUOUS
 10
67.9161732541
 20
255.6778673975
 11
68.413847352
 21
255.8646878395
  0
LINE
  8
0
 62
7
  6
CONTINUOUS
 10
48.3837524699
 20
235.1304140083
 11
48.3307789145
 21
235.6525840907
  0
LINE
  8
0
 62
7
  6
CONTINUOUS
 10
49.6327057174
 20
234.1155644319
 11
49.6856792728
 21
233.5933943495
  0
LINE
  8
0
 62
7
  6
CONTINUOUS
 10
50.2016022239
 20
236.4570683274
 11
50.2545764049
 21
235.9348992596
  0
LINE
  8
0
 62
7
  6
CONTINUOUS
 10
47.823342202
 20
235.8430892859
 11
47.8216453297
 21
235.2322540601
  0
LINE
  8
0
 62
7
  6
CONTINUOUS
 10
52.7182969316
 20
234.6605351109
 11
52.7199944058
 21
235.2713713661
  0
LINE
  8
0
 62
7
  6
CONTINUOUS
 10
51.1007899532
 20
239.4834613756
 11
51.1148890009
 21
239.8612524073
  0
LINE
  8
0
 62
7
  6
CONTINUOUS
 10
54.7444042826
 20
238.8687957003
 11
54.7303045277
 21
238.4910037089
  0
LINE
  8
0
 62
7
  6
CONTINUOUS
 10
49.6514948174
 20
234.3487312216
 11
49.6327057174
 21
234.1155644319
  0
LINE
  8
0
 62
7
  6
CONTINUOUS
 10
50.1042598509
 20
234.0695588537
 11
50.1418393022
 21
234.5358944625
  0
LINE
  8
0
 62
7
  6
CONTINUOUS
 10
50.7449202641
 20
236.1220614858
 11
50.7637099897
 21
236.3552292903
  0
LINE
  8
0
 62
7
  6
CONTINUOUS
 10
52.1937685616
 20
235.2287097911
 11
52.1561897359
 21
234.762375197
  0
LINE
  8
0
 62
7
  6
CONTINUOUS
 10
50.624885524
 20
240.0929425938
 11
50.5728383731
 21
239.4843254002
  0
LINE
  8
0
 62
7
  6
CONTINUOUS
 10
55.2203094715
 20
238.2593154031
 11
55.2723558927
 21
238.8679316536
  0
LINE
  8
0
 62
7
  6
CONTINUOUS
 10
54.129483687
 20
243.3668829127
 11
54.1746794414
 21
243.7422266693
  0
LINE
  8
0
 62
7
  6
CONTINUOUS
 10
57.7100243022
 20
242.453940306
 11
57.6648285477
 21
242.0785965494
  0
LINE
  8
0
 62
7
  6
CONTINUOUS
 10
53.7054420422
 20
244.0135208082
 11
53.6034003294
 21
243.4112666747
  0
LINE
  8
0
 62
7
  6
CONTINUOUS
 10
58.1340659961
 20
241.8073023676
 11
58.2361076878
 21
242.4095565195
  0
LINE
  8
0
 62
7
  6
CONTINUOUS
 10
59.326311708
 20
248.6247077473
 11
59.4262082863
 21
249.1399615482
  0
LINE
  8
0
 62
7
  6
CONTINUOUS
 10
60.2294421922
 20
247.2927316968
 11
60.129545614
 21
246.7774778959
  0
LINE
  8
0
 62
7
  6
CONTINUOUS
 10
61.4495666854
 20
249.3706117253
 11
61.3496683236
 21
248.8553563421
  0
LINE
  8
0
 62
7
  6
CONTINUOUS
 10
58.995293399
 20
249.4687412767
 11
58.8174710921
 21
248.8843576158
  0
LINE
  8
0
 62
7
  6
CONTINUOUS
 10
63.3410785786
 20
246.9244992767
 11
63.5188990835
 21
247.5088813763
  0
LINE
  8
0
 62
7
  6
CONTINUOUS
 10
63.1834982843
 20
252.0089953685
 11
63.3059730578
 21
252.3666621432
  0
LINE
  8
0
 62
7
  6
CONTINUOUS
 10
66.4949402279
 20
250.3694541211
 11
66.3724654544
 21
250.0117873464
  0
LINE
  8
0
 62
7
  6
CONTINUOUS
 10
60.3146915374
 20
247.5105695371
 11
60.2294421922
 21
247.2927316968
  0
LINE
  8
0
 62
7
  6
CONTINUOUS
 10
60.667684263
 20
247.1126631131
 11
60.8381793864
 21
247.5483356292
  0
LINE
  8
0
 62
7
  6
CONTINUOUS
 10
61.8731579561
 20
248.8931240164
 11
61.9584055178
 21
249.1109602745
  0
LINE
  8
0
 62
7
  6
CONTINUOUS
 10
63.0027348263
 20
247.6198232924
 11
62.8322379194
 21
247.184149194
  0
LINE
  8
0
 62
7
  6
CONTINUOUS
 10
62.9036284656
 20
252.7298460898
 11
62.6782366336
 21
252.162110625
  0
LINE
  8
0
 62
7
  6
CONTINUOUS
 10
66.7748119936
 20
249.6486047775
 11
67.0002019009
 21
250.2163388349
  0
LINE
  8
0
 62
7
  6
CONTINUOUS
 10
67.0271879989
 20
254.7429549764
 11
67.1787308309
 21
255.0893079205
  0
LINE
  8
0
 62
7
  6
CONTINUOUS
 10
73.6961893402
 20
258.3890341096
 11
73.9404694103
 21
258.8535736954
  0
LINE
  8
0
 62
7
  6
CONTINUOUS
 10
74.176727029
 20
256.8531674443
 11
73.9324469589
 21
256.3886278585
  0
LINE
  8
0
 62
7
  6
CONTINUOUS
 10
75.9443535139
 20
258.4907799973
 11
75.7000777721
 21
258.0262424125
  0
LINE
  8
0
 62
7
  6
CONTINUOUS
 10
73.6227030579
 20
259.2926742404
 11
73.2838776143
 21
258.7844249042
  0
LINE
  8
0
 62
7
  6
CONTINUOUS
 10
77.0498813732
 20
255.6030313069
 11
77.3887111333
 21
256.1112826694
  0
LINE
  8
0
 62
7
  6
CONTINUOUS
 10
78.3656292603
 20
260.5168656479
 11
78.5860674002
 21
260.8240018039
  0
LINE
  8
0
 62
7
  6
CONTINUOUS
 10
81.0633888345
 20
257.9918253354
 11
80.8429506947
 21
257.6846891793
  0
LINE
  8
0
 62
7
  6
CONTINUOUS
 10
83.2411465525
 20
260.1517758079
 11
83.5584361295
 21
260.5698632434
  0
LINE
  8
0
 62
7
  6
CONTINUOUS
 10
74.321183968
 20
257.0371538065
 11
74.176727029
 21
256.8531674443
  0
LINE
  8
0
 62
7
  6
CONTINUOUS
 10
74.5443962904
 20
256.5543395092
 11
74.8333188249
 21
256.9223162355
  0
LINE
  8
0
 62
7
  6
CONTINUOUS
 10
76.2122083008
 20
257.9114028405
 11
76.3566695681
 21
258.0953912036
  0
LINE
  8
0
 62
7
  6
CONTINUOUS
 10
76.9264878263
 20
256.3663968861
 11
76.63756962
 21
255.9984221607
  0
LINE
  8
0
 62
7
  6
CONTINUOUS
 10
78.3055806846
 20
261.2878034272
 11
77.926010044
 21
260.8092157156
  0
LINE
  8
0
 62
7
  6
CONTINUOUS
 10
81.1234329542
 20
257.2208858575
 11
81.5030080637
 21
257.6994752327
  0
LINE
  8
0
 62
7
  6
CONTINUOUS
 10
85.7167655692
 20
259.3973905975
 11
85.4717583832
 21
259.1094720836
  0
LINE
  8
0
 62
7
  6
CONTINUOUS
 10
83.3171384819
 20
261.0552086756
 11
82.8994065007
 21
260.6095405694
  0
LINE
  8
0
 62
7
  6
CONTINUOUS
 10
85.7130560481
 20
258.6241265886
 11
86.1307880218
 21
259.0697947217
  0
LINE
  8
0
 62
7
  6
CONTINUOUS
 10
45.9281344691
 20
220.4481973972
 11
45.6044938382
 21
220.1103554369
  0
LINE
  8
0
 62
7
  6
CONTINUOUS
 10
45.1912949403
 20
225.8816944537
 11
45.3647341787
 21
226.0386621607
  0
LINE
  8
0
 62
7
  6
CONTINUOUS
 10
45.2143762537
 20
226.541513819
 11
44.9044936289
 21
226.3249535486
  0
LINE
  8
0
 62
7
  6
CONTINUOUS
 10
50.9448160031
 20
236.2435603431
 11
50.7449202641
 21
236.1220614858
  0
LINE
  8
0
 62
7
  6
CONTINUOUS
 10
50.7978944451
 20
235.5998924181
 11
51.1976852976
 21
235.8428891179
  0
LINE
  8
0
 62
7
  6
CONTINUOUS
 10
49.451599704
 20
234.2272333791
 11
49.6514948174
 21
234.3487312216
  0
LINE
  8
0
 62
7
  6
CONTINUOUS
 10
51.500134593
 20
233.6983772414
 11
51.1003431149
 21
233.4553795269
  0
LINE
  8
0
 62
7
  6
CONTINUOUS
 10
49.1337556154
 20
237.3602499713
 11
48.5887400772
 21
237.0844205723
  0
LINE
  8
0
 62
7
  6
CONTINUOUS
 10
51.2985413877
 20
232.9660421241
 11
51.8435569497
 21
233.2418715084
  0
LINE
  8
0
 62
7
  6
CONTINUOUS
 10
51.9323185792
 20
241.3291960892
 11
51.3664203104
 21
241.0992358713
  0
LINE
  8
0
 62
7
  6
CONTINUOUS
 10
53.9128756866
 20
237.0230609646
 11
54.4787746851
 21
237.2530221255
  0
LINE
  8
0
 62
7
  6
CONTINUOUS
 10
48.9868340574
 20
236.7165820463
 11
49.4771779166
 21
236.9037442725
  0
LINE
  8
0
 62
7
  6
CONTINUOUS
 10
51.4351598623
 20
236.4307225693
 11
50.9448160031
 21
236.2435603431
  0
LINE
  8
0
 62
7
  6
CONTINUOUS
 10
49.598521262
 20
234.870901304
 11
49.1081767772
 21
234.6837380631
  0
LINE
  8
0
 62
7
  6
CONTINUOUS
 10
51.7328351277
 20
240.6998307784
 11
52.0895027661
 21
240.8251854258
  0
LINE
  8
0
 62
7
  6
CONTINUOUS
 10
54.1123584009
 20
237.6524253378
 11
53.7556914698
 21
237.5270716501
  0
LINE
  8
0
 62
7
  6
CONTINUOUS
 10
55.1103378467
 20
245.137785758
 11
54.5274085308
 21
244.9552591431
  0
LINE
  8
0
 62
7
  6
CONTINUOUS
 10
56.7291701705
 20
240.6830374362
 11
57.3120995074
 21
240.8655640327
  0
LINE
  8
0
 62
7
  6
CONTINUOUS
 10
45.9521186234
 20
221.6374049977
 11
46.0659877108
 21
221.2769061451
  0
LINE
  8
0
 62
7
  6
CONTINUOUS
 10
44.4975375632
 20
225.2538225113
 11
44.585444335
 21
224.8861299699
  0
LINE
  8
0
 62
7
  6
CONTINUOUS
 10
44.9832336258
 20
224.7349974201
 11
44.895326854
 21
225.1026899616
  0
LINE
  8
0
 62
7
  6
CONTINUOUS
 10
46.4735301037
 20
221.1544862902
 11
46.4315792593
 21
221.3846173035
  0
LINE
  8
0
 62
7
  6
CONTINUOUS
 10
53.6034003294
 20
243.4112666747
 11
53.6383525088
 21
242.9659683316
  0
LINE
  8
0
 62
7
  6
CONTINUOUS
 10
58.8174710921
 20
248.8843576158
 11
58.7954966754
 21
248.4382305104
  0
LINE
  8
0
 62
7
  6
CONTINUOUS
 10
61.9584055178
 20
249.1109602745
 11
61.9803799344
 21
249.5570873799
  0
LINE
  8
0
 62
7
  6
CONTINUOUS
 10
62.6782366336
 20
252.162110625
 11
62.619559673
 21
251.7193135117
  0
LINE
  8
0
 62
7
  6
CONTINUOUS
 10
66.5679271237
 20
255.0826846854
 11
66.4412863885
 21
254.5007471759
  0
LINE
  8
0
 62
7
  6
CONTINUOUS
 10
69.3007065529
 20
255.0397422072
 11
68.2445392266
 21
251.2364828674
  0
LINE
  8
0
 62
7
  6
CONTINUOUS
 10
68.9503229804
 20
251.6795589178
 11
69.9115102601
 21
255.0463654423
  0
LINE
  8
0
 62
7
  6
CONTINUOUS
 10
73.2838776143
 20
258.7844249042
 11
73.1341515742
 21
258.3635990708
  0
LINE
  8
0
 62
7
  6
CONTINUOUS
 10
76.3566695681
 20
258.0953912036
 11
76.5063956081
 21
258.5162170371
  0
LINE
  8
0
 62
7
  6
CONTINUOUS
 10
77.926010044
 20
260.8092157156
 11
77.7421020835
 21
260.4021651889
  0
LINE
  8
0
 62
7
  6
CONTINUOUS
 10
45.8202485332
 20
219.7192515788
 11
46.1139218137
 21
219.957330623
  0
LINE
  8
0
 62
7
  6
CONTINUOUS
 10
113.1365695139
 20
259.2961469945
 11
117.5107866527
 21
261.8441841383
  0
LINE
  8
0
 62
7
  6
CONTINUOUS
 10
117.0650484514
 20
262.1874782506
 11
112.5903928235
 21
259.6670720068
  0
LINE
  8
0
 62
7
  6
CONTINUOUS
 10
119.3865836114
 20
261.6488851871
 11
118.84805795
 21
261.3945757448
  0
LINE
  8
0
 62
7
  6
CONTINUOUS
 10
45.4872628148
 20
226.6606983885
 11
45.2143762537
 21
226.541513819
  0
LINE
  8
0
 62
7
  6
CONTINUOUS
 10
45.3647341787
 20
226.0386621607
 11
45.6376207398
 21
226.1578467302
  0
LINE
  8
0
 62
7
  6
CONTINUOUS
 10
121.0182342488
 20
259.456246248
 11
117.3593661743
 21
257.9753737837
  0
LINE
  8
0
 62
7
  6
CONTINUOUS
 10
118.1408184567
 20
257.6859133004
 11
121.3957788707
 21
258.9760586519
  0
LINE
  8
0
 62
7
  6
CONTINUOUS
 10
124.0101065616
 20
259.8275912657
 11
123.4524407467
 21
259.6185458963
  0
LINE
  8
0
 62
7
  6
CONTINUOUS
 10
125.4554403157
 20
257.5079111263
 11
125.1766117279
 21
257.4033864223
  0
LINE
  8
0
 62
7
  6
CONTINUOUS
 10
44.585444335
 20
224.8861299699
 11
44.7103469588
 21
224.615812572
  0
LINE
  8
0
 62
7
  6
CONTINUOUS
 10
45.1081362496
 20
224.4646800223
 11
44.9832336258
 21
224.7349974201
  0
LINE
  8
0
 62
7
  6
CONTINUOUS
 10
47.8216453297
 20
235.2322540601
 11
47.9292905641
 21
234.7987511504
  0
LINE
  8
0
 62
7
  6
CONTINUOUS
 10
50.7637099897
 20
236.3552292903
 11
50.6560647554
 21
236.7887321999
  0
LINE
  8
0
 62
7
  6
CONTINUOUS
 10
50.5728383731
 20
239.4843254002
 11
50.6443805891
 21
239.0434240728
  0
LINE
  8
0
 62
7
  6
CONTINUOUS
 10
60.7163084904
 20
246.5869546114
 11
60.667684263
 21
247.1126631131
  0
LINE
  8
0
 62
7
  6
CONTINUOUS
 10
62.9541106484
 20
248.1455317383
 11
63.0027348263
 21
247.6198232924
  0
LINE
  8
0
 62
7
  6
CONTINUOUS
 10
58.2361076878
 20
242.4095565195
 11
58.2011554804
 21
242.854854887
  0
LINE
  8
0
 62
7
  6
CONTINUOUS
 10
63.2328594133
 20
251.2483392552
 11
63.1834982843
 21
252.0089953685
  0
LINE
  8
0
 62
7
  6
CONTINUOUS
 10
67.0204294071
 20
254.3618857167
 11
67.0271879989
 21
254.7429549764
  0
LINE
  8
0
 62
7
  6
CONTINUOUS
 10
63.5188990835
 20
247.5088813763
 11
63.5408734754
 21
247.9550085096
  0
LINE
  8
0
 62
7
  6
CONTINUOUS
 10
67.0002019009
 20
250.2163388349
 11
67.0588788392
 21
250.6591359779
  0
LINE
  8
0
 62
7
  6
CONTINUOUS
 10
73.6410174552
 20
258.011921758
 11
73.6961893402
 21
258.3890341096
  0
LINE
  8
0
 62
7
  6
CONTINUOUS
 10
74.4393127774
 20
256.036950681
 11
74.5443962904
 21
256.5543395092
  0
LINE
  8
0
 62
7
  6
CONTINUOUS
 10
77.0315713706
 20
256.8837856466
 11
76.9264878263
 21
256.3663968861
  0
LINE
  8
0
 62
7
  6
CONTINUOUS
 10
78.1934761219
 20
259.7743014996
 11
78.3656292603
 21
260.5168656479
  0
LINE
  8
0
 62
7
  6
CONTINUOUS
 10
77.3887111333
 20
256.1112826694
 11
77.5384371578
 21
256.5321085367
  0
LINE
  8
0
 62
7
  6
CONTINUOUS
 10
81.5030080637
 20
257.6994752327
 11
81.6869160113
 21
258.1065257944
  0
LINE
  8
0
 62
4
  6
CONTINUOUS
 10
62.1499741383
 20
214.4193664551
 11
89.9715664351
 21
242.2409587519
  0
LINE
  8
0
 62
7
  6
CONTINUOUS
 10
119.0909666851
 20
260.8508124444
 11
119.3971905745
 21
261.0777229458
  0
LINE
  8
0
 62
7
  6
CONTINUOUS
 10
123.6497051164
 20
259.0566047107
 11
123.9735838848
 21
259.257502734
  0
LINE
  8
0
 62
7
  6
CONTINUOUS
 10
45.4246896771
 20
219.5117775498
 11
45.8202485332
 21
219.7192515788
  0
LINE
  8
0
 62
7
  6
CONTINUOUS
 10
124.6981233248
 20
255.3958453111
 11
124.419286066
 21
255.2913245782
  0
LINE
  8
0
 62
7
  6
CONTINUOUS
 10
134.2548964143
 20
251.5551097581
 11
134.7549413494
 21
251.7244870892
  0
LINE
  8
0
 62
4
  6
CONTINUOUS
 10
62.1499741383
 20
195.0769364468
 11
89.9715664351
 21
167.25534415
  0
LINE
  8
0
 62
7
  6
CONTINUOUS
 10
46.4315792593
 20
221.3846173035
 11
46.2158244929
 21
221.7757209885
  0
LINE
  8
0
 62
7
  6
CONTINUOUS
 10
48.546069637
 20
234.7855781149
 11
48.3837524699
 21
235.1304140083
  0
LINE
  8
0
 62
7
  6
CONTINUOUS
 10
50.3024582188
 20
233.5802213922
 11
50.1042598509
 21
234.0695588537
  0
LINE
  8
0
 62
7
  6
CONTINUOUS
 10
51.3674632847
 20
238.7693734505
 11
51.1007899532
 21
239.4834613756
  0
LINE
  8
0
 62
7
  6
CONTINUOUS
 10
54.3363821625
 20
242.633241821
 11
54.129483687
 21
243.3668829127
  0
LINE
  8
0
 62
7
  6
CONTINUOUS
 10
52.7199944058
 20
235.2713713661
 11
52.6123491397
 21
235.7048742953
  0
LINE
  8
0
 62
7
  6
CONTINUOUS
 10
55.2723558927
 20
238.8679316536
 11
55.2008136467
 21
239.3088330031
  0
LINE
  8
0
 62
7
  6
CONTINUOUS
 10
59.3822596508
 20
248.2477071144
 11
59.326311708
 21
248.6247077473
  0
LINE
  8
0
 62
7
  6
CONTINUOUS
 10
66.4455811409
 20
251.1301114853
 11
66.4949402279
 21
250.3694541211
  0
LINE
  8
0
 62
7
  6
CONTINUOUS
 10
71.7555221338
 20
257.2779451607
 11
71.8320417431
 21
254.2944497529
  0
LINE
  8
0
 62
7
  6
CONTINUOUS
 10
72.2081639134
 20
254.2562698516
 11
72.1316444461
 21
257.2397649974
  0
LINE
  8
0
 62
7
  6
CONTINUOUS
 10
69.9115102601
 20
255.0463654423
 11
69.9182688519
 21
255.427434702
  0
LINE
  8
0
 62
7
  6
CONTINUOUS
 10
77.7421020835
 20
260.4021651889
 11
77.6925556426
 21
259.9309688841
  0
LINE
  8
0
 62
7
  6
CONTINUOUS
 10
75.9995298522
 20
258.8678940794
 11
75.9443535139
 21
258.4907799973
  0
LINE
  8
0
 62
7
  6
CONTINUOUS
 10
81.2355375713
 20
258.7343876363
 11
81.0633888345
 21
257.9918253354
  0
LINE
  8
0
 62
7
  6
CONTINUOUS
 10
85.8331565238
 20
259.7603129755
 11
85.7167655692
 21
259.3973905975
  0
LINE
  8
0
 62
7
  6
CONTINUOUS
 10
86.1307880218
 20
259.0697947217
 11
86.3194567791
 21
259.5628847227
  0
LINE
  8
0
 62
4
  6
CONTINUOUS
 10
95.5104767568
 20
245.5171273738
 11
94.0962631944
 21
244.1029138115
  0
LINE
  8
0
 62
4
  6
CONTINUOUS
 10
58.8738055164
 20
208.8804561334
 11
60.2880190788
 21
210.2946696958
  0
LINE
  8
0
 62
7
  6
CONTINUOUS
 10
121.3957788707
 20
258.9760586519
 11
121.7020027601
 21
259.2029691533
  0
LINE
  8
0
 62
7
  6
CONTINUOUS
 10
125.6977548661
 20
257.04234326
 11
126.0216336345
 21
257.2432412834
  0
LINE
  8
0
 62
7
  6
CONTINUOUS
 10
124.80101923
 20
254.8780170447
 11
125.1248979984
 21
255.078915068
  0
LINE
  8
0
 62
7
  6
CONTINUOUS
 10
45.6044938382
 20
220.1103554369
 11
45.2389022932
 21
220.0026443552
  0
LINE
  8
0
 62
4
  6
CONTINUOUS
 10
94.0962631944
 20
165.3933890904
 11
95.5104767568
 21
163.9791755281
  0
LINE
  8
0
 62
4
  6
CONTINUOUS
 10
60.2880190788
 20
199.2016332061
 11
58.8738055164
 21
200.6158467685
  0
LINE
  8
0
 62
7
  6
CONTINUOUS
 10
45.7063965085
 20
221.9287458051
 11
45.9521186234
 21
221.6374049977
  0
LINE
  8
0
 62
7
  6
CONTINUOUS
 10
50.6443805891
 20
239.0434240728
 11
50.8633591058
 21
238.6232708626
  0
LINE
  8
0
 62
7
  6
CONTINUOUS
 10
50.0392859361
 20
236.801905079
 11
50.2016022239
 21
236.4570683274
  0
LINE
  8
0
 62
7
  6
CONTINUOUS
 10
53.6383525088
 20
242.9659683316
 11
53.8219487843
 21
242.5291923992
  0
LINE
  8
0
 62
7
  6
CONTINUOUS
 10
51.9955702571
 20
235.7180472135
 11
52.1937685616
 21
235.2287097911
  0
LINE
  8
0
 62
7
  6
CONTINUOUS
 10
54.4777311311
 20
239.5828834928
 11
54.7444042826
 21
238.8687957003
  0
LINE
  8
0
 62
7
  6
CONTINUOUS
 10
57.7890236013
 20
247.001367743
 11
58.7225197675
 21
244.1666382209
  0
LINE
  8
0
 62
7
  6
CONTINUOUS
 10
59.0936769381
 20
244.2385266524
 11
58.1601809833
 21
247.0732559646
  0
LINE
  8
0
 62
7
  6
CONTINUOUS
 10
57.5031259951
 20
243.1875812507
 11
57.7100243022
 21
242.453940306
  0
LINE
  8
0
 62
7
  6
CONTINUOUS
 10
62.619559673
 20
251.7193135117
 11
62.708037961
 21
251.2538552358
  0
LINE
  8
0
 62
7
  6
CONTINUOUS
 10
61.3936171568
 20
249.7476105529
 11
61.4495666854
 21
249.3706117253
  0
LINE
  8
0
 62
7
  6
CONTINUOUS
 10
69.2509023593
 20
255.5109113379
 11
69.3007065529
 21
255.0397422072
  0
LINE
  8
2_FEATURE
 62
7
  6
CONTINUOUS
 10
79.1430212733
 20
137.0408061006
 11
78.8503703747
 21
141.0238840066
  0
LINE
  8
2_FEATURE
 62
7
  6
CONTINUOUS
 10
70.3897929576
 20
265.0587581805
 11
70.1388680372
 21
269.0446822688
  0
LINE
  8
0
 62
7
  6
CONTINUOUS
 10
73.1341515742
 20
258.3635990708
 11
73.16826029
 21
257.7933589992
  0
LINE
  8
0
 62
7
  6
CONTINUOUS
 10
73.9324469589
 20
256.3886278585
 11
73.9665599403
 21
255.8183899232
  0
LINE
  8
0
 62
7
  6
CONTINUOUS
 10
77.6925556426
 20
259.9309688841
 11
77.704314943
 21
259.5954568999
  0
LINE
  8
0
 62
7
  6
CONTINUOUS
 10
76.5063956081
 20
258.5162170371
 11
76.5169251537
 21
258.9898919776
  0
LINE
  8
0
 62
7
  6
CONTINUOUS
 10
81.6869160113
 20
258.1065257944
 11
81.7364624267
 21
258.5777221691
  0
LINE
  8
2_FEATURE
 62
7
  6
CONTINUOUS
 10
61.6382486936
 20
145.0809052263
 11
62.4309231246
 21
148.9952661448
  0
LINE
  8
2_FEATURE
 62
7
  6
CONTINUOUS
 10
87.7436771979
 20
270.7141876927
 11
88.5772985086
 21
274.6200332688
  0
LINE
  8
2_FEATURE
 62
7
  6
CONTINUOUS
 10
46.9513204257
 20
157.5450295466
 11
48.7705473776
 21
161.1004433695
  0
LINE
  8
0
 62
7
  6
CONTINUOUS
 10
106.0380508225
 20
271.4730129998
 11
107.8974947327
 21
275.0075600002
  0
LINE
  8
2_FEATURE
 62
7
  6
CONTINUOUS
 10
36.1711980827
 20
173.509027144
 11
38.8820910577
 21
176.4418778787
  0
LINE
  8
0
 62
7
  6
CONTINUOUS
 10
123.8006767464
 20
267.2741677443
 11
126.5446666986
 21
270.1760763053
  0
LINE
  8
0
 62
7
  6
CONTINUOUS
 10
121.3614013111
 20
259.7829191548
 11
121.0182342488
 21
259.456246248
  0
LINE
  8
0
 62
7
  6
CONTINUOUS
 10
125.8243779042
 20
257.8051784304
 11
125.4554403157
 21
257.5079111263
  0
LINE
  8
0
 62
7
  6
CONTINUOUS
 10
124.8825834796
 20
255.5444830017
 11
124.6981233248
 21
255.3958453111
  0
LINE
  8
2_FEATURE
 62
7
  6
CONTINUOUS
 10
30.097173334
 20
191.7892481594
 11
33.4987332986
 21
193.8820797247
  0
LINE
  8
0
 62
7
  6
CONTINUOUS
 10
138.2284008676
 20
251.3937279627
 11
133.7380949644
 21
248.6342096588
  0
LINE
  8
0
 62
7
  6
CONTINUOUS
 10
139.772116647
 20
258.4393339205
 11
143.1971996338
 21
260.4934421667
  0
LINE
  8
0
 62
7
  6
CONTINUOUS
 10
140.462666569
 20
247.4293752592
 11
140.7618278013
 21
247.5817239487
  0
LINE
  8
0
 62
7
  6
CONTINUOUS
 10
139.2604300794
 20
246.2244413153
 11
139.5595912065
 21
246.3767898994
  0
LINE
  8
0
 62
7
  6
CONTINUOUS
 10
140.6922870754
 20
248.1019487721
 11
140.1691113463
 21
247.872553233
  0
LINE
  8
0
 62
7
  6
CONTINUOUS
 10
140.6488788946
 20
243.4865813498
 11
141.1720544659
 21
243.7159767307
  0
LINE
  8
2_FEATURE
 62
7
  6
CONTINUOUS
 10
29.1796044619
 20
211.0303064562
 11
33.0196229109
 21
212.1279459532
  0
LINE
  8
0
 62
7
  6
CONTINUOUS
 10
168.5876326032
 20
188.9009977877
 11
164.633683131
 21
188.3381143854
  0
LINE
  8
2_FEATURE
 62
7
  6
CONTINUOUS
 10
41.4614877726
 20
171.4608612869
 11
37.5018607044
 21
170.9394136533
  0
LINE
  8
0
 62
7
  6
CONTINUOUS
 10
161.7567443003
 20
170.8899117013
 11
157.7975339684
 21
171.4145141237
  0
LINE
  8
2_FEATURE
 62
7
  6
CONTINUOUS
 10
34.6388251774
 20
188.3899030881
 11
30.6853254549
 21
188.9559367421
  0
LINE
  8
0
 62
7
  6
CONTINUOUS
 10
150.3204191116
 20
155.3892432255
 11
146.6495033859
 21
156.9624348504
  0
LINE
  8
2_FEATURE
 62
7
  6
CONTINUOUS
 10
32.6358778943
 20
206.5318264529
 11
28.9816375703
 21
208.1433728556
  0
LINE
  8
0
 62
7
  6
CONTINUOUS
 10
135.1266028359
 20
143.5482887032
 11
132.016161592
 21
146.0534253107
  0
LINE
  8
2_FEATURE
 62
7
  6
CONTINUOUS
 10
35.6011543564
 20
224.5414993176
 11
32.5171169097
 21
227.0790704361
  0
LINE
  8
0
 62
7
  6
CONTINUOUS
 10
47.9292905641
 20
234.7987511504
 11
48.2727131189
 21
234.3422452952
  0
LINE
  8
0
 62
7
  6
CONTINUOUS
 10
49.6856792728
 20
233.5933943495
 11
50.0291023264
 21
233.1368895872
  0
LINE
  8
0
 62
7
  6
CONTINUOUS
 10
50.8633591058
 20
238.6232708626
 11
51.0584909285
 21
238.3500852246
  0
LINE
  8
2_FEATURE
 62
7
  6
CONTINUOUS
 10
117.301840274
 20
136.2449951563
 11
114.9824970333
 21
139.4963335093
  0
LINE
  8
2_FEATURE
 62
7
  6
CONTINUOUS
 10
43.3147942783
 20
241.0835953259
 11
41.029625522
 21
244.3590430676
  0
LINE
  8
0
 62
7
  6
CONTINUOUS
 10
50.6560647554
 20
236.7887321999
 11
50.4031948352
 21
237.1894024104
  0
LINE
  8
0
 62
7
  6
CONTINUOUS
 10
53.8219487843
 20
242.5291923992
 11
53.9938966481
 21
242.2408514468
  0
LINE
  8
0
 62
7
  6
CONTINUOUS
 10
55.2008136467
 20
239.3088330031
 11
54.9818343629
 21
239.7289852978
  0
LINE
  8
0
 62
7
  6
CONTINUOUS
 10
58.2011554804
 20
242.854854887
 11
58.0175591488
 21
243.2916308684
  0
LINE
  8
0
 62
7
  6
CONTINUOUS
 10
58.7954966754
 20
248.4382305104
 11
58.992643492
 21
247.9020688902
  0
LINE
  8
0
 62
7
  6
CONTINUOUS
 10
60.129545614
 20
246.7774778959
 11
60.3266905481
 21
246.2413148049
  0
LINE
  8
2_FEATURE
 62
7
  6
CONTINUOUS
 10
98.1677476166
 20
134.0208649451
 11
96.8114699757
 21
137.7773347127
  0
LINE
  8
2_FEATURE
 62
7
  6
CONTINUOUS
 10
55.204870187
 20
254.9316015389
 11
53.8880038521
 21
258.7020679835
  0
LINE
  8
0
 62
7
  6
CONTINUOUS
 10
62.708037961
 20
251.2538552358
 11
62.8160741426
 21
250.935994806
  0
LINE
  8
0
 62
7
  6
CONTINUOUS
 10
61.9803799344
 20
249.5570873799
 11
61.8538336443
 21
250.0136690746
  0
LINE
  8
0
 62
7
  6
CONTINUOUS
 10
67.0588788392
 20
250.6591359779
 11
66.9704005065
 21
251.1245943134
  0
LINE
  8
0
 62
7
  6
CONTINUOUS
 10
77.5384371578
 20
256.5321085367
 11
77.5043285358
 21
257.1023484053
  0
LINE
  8
0
 62
7
  6
CONTINUOUS
 10
81.7364624267
 20
258.5777221691
 11
81.7247032286
 21
258.9132338735
  0
LINE
  8
0
 62
7
  6
CONTINUOUS
 10
85.8490958978
 20
260.0956520857
 11
85.8331565238
 21
259.7603129755
  0
LINE
  8
0
 62
7
  6
CONTINUOUS
 10
86.3194567791
 20
259.5628847227
 11
86.3795093149
 21
260.130978552
  0
LINE
  8
0
 62
7
  6
CONTINUOUS
 10
118.84805795
 20
261.3945757448
 11
118.6025657159
 21
261.031722762
  0
LINE
  8
0
 62
7
  6
CONTINUOUS
 10
123.4524407467
 20
259.6185458963
 11
123.1778715911
 21
259.2771656054
  0
LINE
  8
0
 62
7
  6
CONTINUOUS
 10
126.0216336345
 20
257.2432412834
 11
126.29620279
 21
257.5846215742
  0
LINE
  8
0
 62
7
  6
CONTINUOUS
 10
125.1248979984
 20
255.078915068
 11
125.3544170049
 21
255.323922107
  0
LINE
  8
0
 62
7
  6
CONTINUOUS
 10
134.5723194886
 20
252.371781978
 11
134.3039502769
 21
252.1700758996
  0
LINE
  8
0
 62
7
  6
CONTINUOUS
 10
134.7549413494
 20
251.7244870892
 11
135.0233105612
 21
251.9261931676
  0
LINE
  8
0
 62
7
  6
CONTINUOUS
 10
135.7098811265
 20
249.2018578418
 11
138.2741353427
 21
250.7999337743
  0
LINE
  8
0
 62
7
  6
CONTINUOUS
 10
134.2169273835
 20
248.2325325317
 11
135.3565983276
 21
248.9427864206
  0
LINE
  8
0
 62
7
  6
CONTINUOUS
 10
140.8784992432
 20
244.1591547045
 11
140.5793382213
 21
244.0068062259
  0
LINE
  8
0
 62
7
  6
CONTINUOUS
 10
51.0584909285
 20
238.3500852246
 11
51.4249057458
 21
237.9506801317
  0
LINE
  8
0
 62
7
  6
CONTINUOUS
 10
53.9938966481
 20
242.2408514468
 11
54.3261385874
 21
241.8125997213
  0
LINE
  8
0
 62
7
  6
CONTINUOUS
 10
52.6123491397
 20
235.7048742953
 11
52.2689267752
 21
236.1613800332
  0
LINE
  8
0
 62
7
  6
CONTINUOUS
 10
54.9818343629
 20
239.7289852978
 11
54.7867034873
 21
240.0021717187
  0
LINE
  8
0
 62
7
  6
CONTINUOUS
 10
58.0175591488
 20
243.2916308684
 11
57.8456115094
 21
243.5799716248
  0
LINE
  8
0
 62
7
  6
CONTINUOUS
 10
62.8160741426
 20
250.935994806
 11
63.0517076792
 21
250.4478753673
  0
LINE
  8
0
 62
7
  6
CONTINUOUS
 10
63.5408734754
 20
247.9550085096
 11
63.3437268072
 21
248.4911699626
  0
LINE
  8
0
 62
7
  6
CONTINUOUS
 10
66.9704005065
 20
251.1245943134
 11
66.8623645036
 21
251.4424545048
  0
LINE
  8
0
 62
7
  6
CONTINUOUS
 10
66.4412863885
 20
254.5007471759
 11
66.5793160754
 21
254.084964136
  0
LINE
  8
0
 62
7
  6
CONTINUOUS
 10
77.704314943
 20
259.5954568999
 11
77.7891300216
 21
259.0601148169
  0
LINE
  8
0
 62
7
  6
CONTINUOUS
 10
121.7020027601
 20
259.2029691533
 11
121.9474860513
 21
259.5658254487
  0
LINE
  8
0
 62
7
  6
CONTINUOUS
 10
140.1691113463
 20
247.872553233
 11
139.5693912284
 21
247.4189712948
  0
LINE
  8
0
 62
7
  6
CONTINUOUS
 10
139.9380862251
 20
247.051101686
 11
140.462666569
 21
247.4293752592
  0
LINE
  8
0
 62
7
  6
CONTINUOUS
 10
51.81952078
 20
238.3068599812
 11
51.3674632847
 21
238.7693734505
  0
LINE
  8
0
 62
7
  6
CONTINUOUS
 10
54.0256728086
 20
240.0453960908
 11
54.4777311311
 21
239.5828834928
  0
LINE
  8
0
 62
7
  6
CONTINUOUS
 10
54.7867034873
 20
240.0021717187
 11
54.42028855
 21
240.4015769
  0
LINE
  8
0
 62
7
  6
CONTINUOUS
 10
54.7487720356
 20
242.1350355091
 11
54.3363821625
 21
242.633241821
  0
LINE
  8
0
 62
7
  6
CONTINUOUS
 10
57.0907360097
 20
243.6857876606
 11
57.5031259951
 21
243.1875812507
  0
LINE
  8
0
 62
7
  6
CONTINUOUS
 10
57.8456115094
 20
243.5799716248
 11
57.5133694579
 21
244.0082234483
  0
LINE
  8
0
 62
7
  6
CONTINUOUS
 10
63.5322888548
 20
250.6750880483
 11
63.2328594133
 21
251.2483392552
  0
LINE
  8
0
 62
7
  6
CONTINUOUS
 10
66.1461497021
 20
251.7033613817
 11
66.4455811409
 21
251.1301114853
  0
LINE
  8
0
 62
7
  6
CONTINUOUS
 10
66.8623645036
 20
251.4424545048
 11
66.6267327856
 21
251.9305754925
  0
LINE
  8
0
 62
7
  6
CONTINUOUS
 10
69.9182688519
 20
255.427434702
 11
69.780239165
 21
255.8432177419
  0
LINE
  8
0
 62
7
  6
CONTINUOUS
 10
78.3148258583
 20
259.1390466834
 11
78.1934761219
 21
259.7743014996
  0
LINE
  8
0
 62
7
  6
CONTINUOUS
 10
81.1141922622
 20
259.3696442299
 11
81.2355375713
 21
258.7343876363
  0
LINE
  8
0
 62
7
  6
CONTINUOUS
 10
81.7247032286
 20
258.9132338735
 11
81.6398836204
 21
259.448574459
  0
LINE
  8
0
 62
2
  6
CONTINUOUS
 10
99.6427814393
 20
205.6281514509
 11
99.6427814393
 21
203.8681514509
  0
LINE
  8
DEFAULT_1
 62
2
  6
CENTER
 10
99.6427814393
 20
200.3481514509
 11
99.6427814393
 21
131.7481514509
  0
LINE
  8
DEFAULT_1
 62
2
  6
CENTER
 10
99.6427814393
 20
209.1481514509
 11
99.6427814393
 21
277.7481514509
  0
LINE
  8
0
 62
7
  6
CONTINUOUS
 10
113.6908921143
 20
263.6673936038
 11
113.5498024793
 21
263.154531925
  0
LINE
  8
0
 62
7
  6
CONTINUOUS
 10
112.5903928235
 20
259.6670720068
 11
112.3646493878
 21
258.846493249
  0
LINE
  8
0
 62
7
  6
CONTINUOUS
 10
117.3593661743
 20
257.9753737837
 11
117.1746055695
 21
257.4765782496
  0
LINE
  8
0
 62
7
  6
CONTINUOUS
 10
124.1428529554
 20
257.6517575345
 11
123.9626522328
 21
257.266264257
  0
LINE
  8
0
 62
7
  6
CONTINUOUS
 10
132.7811268153
 20
255.4438114924
 11
129.91361053
 21
251.3477950918
  0
LINE
  8
0
 62
7
  6
CONTINUOUS
 10
130.4256125801
 20
250.9893555562
 11
131.7068432789
 21
252.8194905696
  0
LINE
  8
0
 62
7
  6
CONTINUOUS
 10
132.072909144
 20
253.342386218
 11
132.9880739778
 21
254.6496255831
  0
LINE
  8
0
 62
7
  6
CONTINUOUS
 10
139.5693912284
 20
247.4189712948
 11
139.0434128102
 21
246.8918127405
  0
LINE
  8
0
 62
7
  6
CONTINUOUS
 10
139.7878066771
 20
246.9004849562
 11
139.9380862251
 21
247.051101686
  0
LINE
  8
0
 62
7
  6
CONTINUOUS
 10
139.0350107573
 20
245.9985162207
 11
139.2604300794
 21
246.2244413153
  0
LINE
  8
0
 62
2
  6
CONTINUOUS
 10
100.5227814393
 20
204.7481514509
 11
98.7627814393
 21
204.7481514509
  0
LINE
  8
DEFAULT_1
 62
2
  6
CENTER
 10
95.2427814393
 20
204.7481514509
 11
26.6427814393
 21
204.7481514509
  0
LINE
  8
DEFAULT_1
 62
2
  6
CENTER
 10
104.0427814393
 20
204.7481514509
 11
172.6427814393
 21
204.7481514509
  0
LINE
  8
0
 62
7
  6
CONTINUOUS
 10
42.7157295944
 20
220.1079805864
 11
44.7534413897
 21
219.495881363
  0
LINE
  8
0
 62
7
  6
CONTINUOUS
 10
44.9032781825
 20
219.9946962422
 11
42.8655663873
 21
220.6067954655
  0
LINE
  8
0
 62
7
  6
CONTINUOUS
 10
44.0281303444
 20
224.3178505909
 11
47.210444949
 21
223.1087900873
  0
LINE
  8
0
 62
7
  6
CONTINUOUS
 10
47.39542495
 20
223.5956677555
 11
45.1081362496
 21
224.4646800223
  0
LINE
  8
0
 62
7
  6
CONTINUOUS
 10
44.7103469588
 20
224.615812572
 11
44.2131103454
 21
224.8047282591
  0
LINE
  8
0
 62
7
  6
CONTINUOUS
 10
43.9981908848
 20
228.5858020024
 11
44.4862240822
 21
228.3742435358
  0
LINE
  8
0
 62
7
  6
CONTINUOUS
 10
45.4622907506
 20
227.9511264841
 11
48.5857034876
 21
226.5971521793
  0
LINE
  8
0
 62
7
  6
CONTINUOUS
 10
48.7928544318
 20
227.0750178932
 11
45.6694416948
 21
228.4289921979
  0
LINE
  8
0
 62
7
  6
CONTINUOUS
 10
44.6933750265
 20
228.8521092497
 11
44.205341829
 21
229.0636677163
  0
LINE
  8
0
 62
7
  6
CONTINUOUS
 10
50.0291023264
 20
233.1368895872
 11
50.3007613465
 21
232.9693861664
  0
LINE
  8
0
 62
7
  6
CONTINUOUS
 10
48.2727131189
 20
234.3422452952
 11
48.544372139
 21
234.1747418744
  0
LINE
  8
0
 62
7
  6
CONTINUOUS
 10
50.574117239
 20
233.4127179714
 11
50.3024582188
 21
233.5802213922
  0
LINE
  8
0
 62
7
  6
CONTINUOUS
 10
48.7271756504
 20
234.6739091678
 11
48.546069637
 21
234.7855781149
  0
LINE
  8
0
 62
7
  6
CONTINUOUS
 10
51.4249057458
 20
237.9506801317
 11
52.1956834835
 21
237.3826961076
  0
LINE
  8
0
 62
7
  6
CONTINUOUS
 10
52.4190145761
 20
237.8650946292
 11
51.81952078
 21
238.3068599812
  0
LINE
  8
0
 62
7
  6
CONTINUOUS
 10
54.3261385874
 20
241.8125997213
 11
55.047469992
 21
241.1830084434
  0
LINE
  8
0
 62
7
  6
CONTINUOUS
 10
55.3098075725
 20
241.645353404
 11
54.7487720356
 21
242.1350355091
  0
LINE
  8
0
 62
7
  6
CONTINUOUS
 10
60.3266905481
 20
246.2413148049
 11
60.5384861835
 21
246.0025709505
  0
LINE
  8
0
 62
7
  6
CONTINUOUS
 10
58.992643492
 20
247.9020688902
 11
59.2044391274
 21
247.6633250358
  0
LINE
  8
0
 62
7
  6
CONTINUOUS
 10
60.9281041258
 20
246.348210757
 11
60.7163084904
 21
246.5869546114
  0
LINE
  8
0
 62
7
  6
CONTINUOUS
 10
59.523456741
 20
248.0885445448
 11
59.3822596508
 21
248.2477071144
  0
LINE
  8
0
 62
7
  6
CONTINUOUS
 10
63.0517076792
 20
250.4478753673
 11
63.625887995
 21
249.6817023207
  0
LINE
  8
0
 62
7
  6
CONTINUOUS
 10
63.9788735449
 20
250.0791756787
 11
63.5322888548
 21
250.6750880483
  0
LINE
  8
0
 62
7
  6
CONTINUOUS
 10
68.2445392266
 20
251.2364828674
 11
68.5273531933
 21
250.7859834489
  0
LINE
  8
0
 62
7
  6
CONTINUOUS
 10
73.9665599403
 20
255.8183899232
 11
74.1004873338
 21
255.5287013448
  0
LINE
  8
0
 62
7
  6
CONTINUOUS
 10
73.16826029
 20
257.7933589992
 11
73.3021876834
 21
257.5036704208
  0
LINE
  8
0
 62
7
  6
CONTINUOUS
 10
74.5732401708
 20
255.7472621026
 11
74.4393127774
 21
256.036950681
  0
LINE
  8
0
 62
7
  6
CONTINUOUS
 10
73.7303023842
 20
257.818796039
 11
73.6410174552
 21
258.011921758
  0
LINE
  8
0
 62
7
  6
CONTINUOUS
 10
77.7891300216
 20
259.0601148169
 11
78.1179016363
 21
258.1608854813
  0
LINE
  8
0
 62
7
  6
CONTINUOUS
 10
78.5705371141
 20
258.4396460891
 11
78.3148258583
 21
259.1390466834
  0
LINE
  8
0
 62
7
  6
CONTINUOUS
 10
81.8056088158
 20
262.6259289031
 11
82.5380083403
 21
259.9586997493
  0
LINE
  8
0
 62
7
  6
CONTINUOUS
 10
82.8994065007
 20
260.6095405694
 11
82.4486990707
 21
262.2509124668
  0
LINE
  8
0
 62
7
  6
CONTINUOUS
 10
116.3820694152
 20
257.7412901338
 11
116.5513769969
 21
258.3567242201
  0
LINE
  8
0
 62
7
  6
CONTINUOUS
 10
117.5107866527
 20
261.8441841383
 11
117.7083121416
 21
262.5621904886
  0
LINE
  8
0
 62
7
  6
CONTINUOUS
 10
121.4353056461
 20
259.9824376199
 11
121.3614013111
 21
259.7829191548
  0
LINE
  8
0
 62
7
  6
CONTINUOUS
 10
120.6911140111
 20
256.1740160129
 11
120.8758746159
 21
256.6728115469
  0
LINE
  8
0
 62
7
  6
CONTINUOUS
 10
121.9474860513
 20
259.5658254487
 11
122.0213903864
 21
259.7653439138
  0
LINE
  8
0
 62
7
  6
CONTINUOUS
 10
125.9144783917
 20
257.9979253392
 11
125.8243779042
 21
257.8051784304
  0
LINE
  8
0
 62
7
  6
CONTINUOUS
 10
125.0627842022
 20
255.9299762792
 11
124.8825834796
 21
255.5444830017
  0
LINE
  8
0
 62
7
  6
CONTINUOUS
 10
126.29620279
 20
257.5846215742
 11
126.3863032775
 21
257.7773684829
  0
LINE
  8
0
 62
7
  6
CONTINUOUS
 10
125.3544170049
 20
255.323922107
 11
125.5346177275
 21
255.7094153845
  0
LINE
  8
0
 62
7
  6
CONTINUOUS
 10
134.7553525921
 20
252.6332300463
 11
134.5723194886
 21
252.371781978
  0
LINE
  8
0
 62
7
  6
CONTINUOUS
 10
135.0233105612
 20
251.9261931676
 11
135.2673546422
 21
252.2747905107
  0
LINE
  8
0
 62
7
  6
CONTINUOUS
 10
139.0434128102
 20
246.8918127405
 11
138.5911759865
 21
246.2910774646
  0
LINE
  8
0
 62
7
  6
CONTINUOUS
 10
141.1039185652
 20
244.3850797992
 11
140.8784992432
 21
244.1591547045
  0
LINE
  8
0
 62
7
  6
CONTINUOUS
 10
141.1720544659
 20
243.7159767307
 11
141.5477534412
 21
244.0925186607
  0
LINE
  8
0
 62
7
  6
CONTINUOUS
 10
43.464913548
 20
222.6020549465
 11
45.7063965085
 21
221.9287458051
  0
LINE
  8
0
 62
7
  6
CONTINUOUS
 10
46.2637757353
 20
222.3051409338
 11
43.614750373
 21
223.1008699328
  0
LINE
  8
0
 62
7
  6
CONTINUOUS
 10
46.1718534169
 20
226.0663067439
 11
48.0613528266
 21
225.3484270268
  0
LINE
  8
0
 62
7
  6
CONTINUOUS
 10
48.2463327217
 20
225.8353044165
 11
46.3568333121
 21
226.5531841335
  0
LINE
  8
0
 62
7
  6
CONTINUOUS
 10
49.8581799227
 20
236.9135740261
 11
50.0392859361
 21
236.801905079
  0
LINE
  8
0
 62
7
  6
CONTINUOUS
 10
51.723911237
 20
235.8855506342
 11
51.9955702571
 21
235.7180472135
  0
LINE
  8
0
 62
7
  6
CONTINUOUS
 10
50.4031948352
 20
237.1894024104
 11
50.1315358151
 21
237.3569058312
  0
LINE
  8
0
 62
7
  6
CONTINUOUS
 10
52.2689267752
 20
236.1613800332
 11
51.997267755
 21
236.328883454
  0
LINE
  8
0
 62
7
  6
CONTINUOUS
 10
53.4261790125
 20
240.4871614428
 11
54.0256728086
 21
240.0453960908
  0
LINE
  8
0
 62
7
  6
CONTINUOUS
 10
54.42028855
 20
240.4015769
 11
53.6495108123
 21
240.9695609241
  0
LINE
  8
0
 62
7
  6
CONTINUOUS
 10
56.5297004728
 20
244.1754697657
 11
57.0907360097
 21
243.6857876606
  0
LINE
  8
0
 62
7
  6
CONTINUOUS
 10
57.5133694579
 20
244.0082234483
 11
56.7920380533
 21
244.6378147263
  0
LINE
  8
0
 62
7
  6
CONTINUOUS
 10
61.2524200666
 20
249.9067731225
 11
61.3936171568
 21
249.7476105529
  0
LINE
  8
0
 62
7
  6
CONTINUOUS
 10
62.742315013
 20
248.3842755928
 11
62.9541106484
 21
248.1455317383
  0
LINE
  8
0
 62
7
  6
CONTINUOUS
 10
61.8538336443
 20
250.0136690746
 11
61.6420380089
 21
250.252412929
  0
LINE
  8
0
 62
7
  6
CONTINUOUS
 10
63.3437268072
 20
248.4911699626
 11
63.1319311718
 21
248.729913817
  0
LINE
  8
0
 62
7
  6
CONTINUOUS
 10
65.699565012
 20
252.2992737513
 11
66.1461497021
 21
251.7033613817
  0
LINE
  8
0
 62
7
  6
CONTINUOUS
 10
66.6267327856
 20
251.9305754925
 11
66.0525524698
 21
252.6967485391
  0
LINE
  8
0
 62
7
  6
CONTINUOUS
 10
69.13777663
 20
255.6911113325
 11
69.2509023593
 21
255.5109113379
  0
LINE
  8
0
 62
7
  6
CONTINUOUS
 10
71.7033740277
 20
252.7798218725
 11
71.420560061
 21
253.2303212911
  0
LINE
  8
0
 62
7
  6
CONTINUOUS
 10
69.780239165
 20
255.8432177419
 11
69.6671134357
 21
256.0234177364
  0
LINE
  8
0
 62
7
  6
CONTINUOUS
 10
75.9102449233
 20
259.0610197983
 11
75.9995298522
 21
258.8678940794
  0
LINE
  8
0
 62
7
  6
CONTINUOUS
 10
76.8976439772
 20
257.173474225
 11
77.0315713706
 21
256.8837856466
  0
LINE
  8
0
 62
7
  6
CONTINUOUS
 10
76.5169251537
 20
258.9898919776
 11
76.3829977603
 21
259.2795805561
  0
LINE
  8
0
 62
7
  6
CONTINUOUS
 10
77.5043285358
 20
257.1023484053
 11
77.3704011424
 21
257.3920369837
  0
LINE
  8
0
 62
7
  6
CONTINUOUS
 10
80.8584810063
 20
260.0690448242
 11
81.1141922622
 21
259.3696442299
  0
LINE
  8
0
 62
7
  6
CONTINUOUS
 10
81.6398836204
 20
259.448574459
 11
81.3111120057
 21
260.3478037946
  0
LINE
  8
0
 62
7
  6
CONTINUOUS
 10
85.7927574789
 20
260.300823537
 11
85.8490958978
 21
260.0956520857
  0
LINE
  8
0
 62
7
  6
CONTINUOUS
 10
85.3617035198
 20
263.0507998971
 11
85.2208574726
 21
263.5637285252
  0
LINE
  8
0
 62
7
  6
CONTINUOUS
 10
86.3795093149
 20
260.130978552
 11
86.2668324771
 21
260.5413214545
  0
LINE
  8
0
 62
7
  6
CONTINUOUS
 10
44.7534413897
 20
219.495881363
 11
45.1909511517
 21
219.4732244866
  0
LINE
  8
0
 62
7
  6
CONTINUOUS
 10
45.6376207398
 20
226.1578467302
 11
46.1718534169
 21
226.0663067439
  0
LINE
  8
0
 62
7
  6
CONTINUOUS
 10
46.3568333121
 20
226.5531841335
 11
45.8226008466
 21
226.644724677
  0
LINE
  8
0
 62
7
  6
CONTINUOUS
 10
52.1956834835
 20
237.3826961076
 11
52.6856884948
 21
237.1510077521
  0
LINE
  8
0
 62
7
  6
CONTINUOUS
 10
53.6495108123
 20
240.9695609241
 11
53.159505921
 21
241.2012491912
  0
LINE
  8
0
 62
7
  6
CONTINUOUS
 10
52.994660851
 20
237.570295978
 11
52.4190145761
 21
237.8650946292
  0
LINE
  8
0
 62
7
  6
CONTINUOUS
 10
52.8505335648
 20
240.7819609653
 11
53.4261790125
 21
240.4871614428
  0
LINE
  8
0
 62
7
  6
CONTINUOUS
 10
55.047469992
 20
241.1830084434
 11
55.5167075035
 21
240.9117142065
  0
LINE
  8
0
 62
7
  6
CONTINUOUS
 10
56.7920380533
 20
244.6378147263
 11
56.3228006541
 21
244.9091088651
  0
LINE
  8
0
 62
7
  6
CONTINUOUS
 10
55.8591930179
 20
241.3041045807
 11
55.3098075725
 21
241.645353404
  0
LINE
  8
0
 62
7
  6
CONTINUOUS
 10
55.9803151397
 20
244.516718491
 11
56.5297004728
 21
244.1754697657
  0
LINE
  8
0
 62
7
  6
CONTINUOUS
 10
63.625887995
 20
249.6817023207
 11
64.0282326766
 21
249.3185182548
  0
LINE
  8
0
 62
7
  6
CONTINUOUS
 10
66.0525524698
 20
252.6967485391
 11
65.6502059697
 21
253.0599310559
  0
LINE
  8
0
 62
7
  6
CONTINUOUS
 10
64.4450179472
 20
249.6308627041
 11
63.9788735449
 21
250.0791756787
  0
LINE
  8
0
 62
7
  6
CONTINUOUS
 10
65.233422607
 20
252.7475880365
 11
65.699565012
 21
252.2992737513
  0
LINE
  8
0
 62
7
  6
CONTINUOUS
 10
78.1179016363
 20
258.1608854813
 11
78.398388403
 21
257.6970837181
  0
LINE
  8
0
 62
7
  6
CONTINUOUS
 10
81.3111120057
 20
260.3478037946
 11
81.0306297686
 21
260.8116070552
  0
LINE
  8
0
 62
7
  6
CONTINUOUS
 10
78.8875495818
 20
257.8759283179
 11
78.5705371141
 21
258.4396460891
  0
LINE
  8
0
 62
7
  6
CONTINUOUS
 10
80.5414641113
 20
260.632760818
 11
80.8584810063
 21
260.0690448242
  0
LINE
  8
0
 62
7
  6
CONTINUOUS
 10
122.0213903864
 20
259.7653439138
 11
122.0715240215
 21
260.2005603611
  0
LINE
  8
0
 62
7
  6
CONTINUOUS
 10
121.957257092
 20
256.9119411643
 11
121.916466312
 21
256.5787121905
  0
LINE
  8
0
 62
7
  6
CONTINUOUS
 10
125.5346177275
 20
255.7094153845
 11
125.6204500803
 21
256.1390217836
  0
LINE
  8
0
 62
7
  6
CONTINUOUS
 10
126.3863032775
 20
257.7773684829
 11
126.4721355672
 21
258.2069747471
  0
LINE
  8
0
 62
7
  6
CONTINUOUS
 10
134.8530492455
 20
252.9544196163
 11
134.7553525921
 21
252.6332300463
  0
LINE
  8
0
 62
7
  6
CONTINUOUS
 10
135.2673546422
 20
252.2747905107
 11
135.3650512956
 21
252.5959800806
  0
LINE
  8
0
 62
7
  6
CONTINUOUS
 10
136.9303135271
 20
245.9563601017
 11
138.8668416576
 21
250.8581605029
  0
LINE
  8
0
 62
7
  6
CONTINUOUS
 10
136.9527039557
 20
247.6038647066
 11
136.451481108
 21
246.3580372288
  0
LINE
  8
0
 62
7
  6
CONTINUOUS
 10
138.2741353427
 20
250.7999337743
 11
137.1463783837
 21
247.9968264605
  0
LINE
  8
0
 62
7
  6
CONTINUOUS
 10
138.5911759865
 20
246.2910774646
 11
138.3629537123
 21
245.767389091
  0
LINE
  8
0
 62
7
  6
CONTINUOUS
 10
138.883333135
 20
245.6990145098
 11
139.0350107573
 21
245.9985162207
  0
LINE
  8
0
 62
7
  6
CONTINUOUS
 10
141.2555962928
 20
244.6845816155
 11
141.1039185652
 21
244.3850797992
  0
LINE
  8
0
 62
7
  6
CONTINUOUS
 10
142.7527929357
 20
245.5952159362
 11
142.904470558
 21
245.894717647
  0
LINE
  8
0
 62
7
  6
CONTINUOUS
 10
45.2389022932
 20
220.0026443552
 11
44.9032781825
 21
219.9946962422
  0
LINE
  8
0
 62
7
  6
CONTINUOUS
 10
45.8226008466
 20
226.644724677
 11
45.4872628148
 21
226.6606983885
  0
LINE
  8
0
 62
7
  6
CONTINUOUS
 10
46.70128545
 20
222.2824839647
 11
46.2637757353
 21
222.3051409338
  0
LINE
  8
0
 62
7
  6
CONTINUOUS
 10
50.3007613465
 20
232.9693861664
 11
50.8628685502
 21
232.8675460755
  0
LINE
  8
0
 62
7
  6
CONTINUOUS
 10
52.6856884948
 20
237.1510077521
 11
53.0044087372
 21
237.0455371973
  0
LINE
  8
0
 62
7
  6
CONTINUOUS
 10
53.159505921
 20
241.2012491912
 11
52.8407847315
 21
241.3067189631
  0
LINE
  8
0
 62
7
  6
CONTINUOUS
 10
55.5167075035
 20
240.9117142065
 11
55.8256474673
 21
240.7803274443
  0
LINE
  8
0
 62
7
  6
CONTINUOUS
 10
56.3228006541
 20
244.9091088651
 11
56.0138604658
 21
245.0404958233
  0
LINE
  8
0
 62
7
  6
CONTINUOUS
 10
60.5384861835
 20
246.0025709505
 11
61.0473268489
 21
245.7429210262
  0
LINE
  8
0
 62
7
  6
CONTINUOUS
 10
64.0282326766
 20
249.3185182548
 11
64.3029835509
 21
249.1255964151
  0
LINE
  8
0
 62
7
  6
CONTINUOUS
 10
65.6502059697
 20
253.0599310559
 11
65.3754549167
 21
253.2528531342
  0
LINE
  8
0
 62
7
  6
CONTINUOUS
 10
74.1004873338
 20
255.5287013448
 11
74.512799091
 21
255.1333104825
  0
LINE
  8
0
 62
7
  6
CONTINUOUS
 10
69.6671134357
 20
256.0234177364
 11
69.3526408393
 21
256.3284336652
  0
LINE
  8
0
 62
7
  6
CONTINUOUS
 10
78.398388403
 20
257.6970837181
 11
78.6058102813
 21
257.4331091988
  0
LINE
  8
0
 62
7
  6
CONTINUOUS
 10
81.0306297686
 20
260.8116070552
 11
80.823207788
 21
261.0755818545
  0
LINE
  8
0
 62
7
  6
CONTINUOUS
 10
85.6078028088
 20
260.5809989243
 11
85.7927574789
 21
260.300823537
  0
LINE
  8
0
 62
7
  6
CONTINUOUS
 10
122.4333500495
 20
256.4545246826
 11
122.4290819779
 21
256.691384308
  0
LINE
  8
0
 62
7
  6
CONTINUOUS
 10
125.0542567614
 20
256.4036916265
 11
125.0627842022
 21
255.9299762792
  0
LINE
  8
0
 62
7
  6
CONTINUOUS
 10
129.1979157082
 20
269.0211537116
 11
128.9438149602
 21
265.0354308206
  0
LINE
  8
0
 62
7
  6
CONTINUOUS
 10
120.3844116397
 20
141.0073372435
 11
120.0885871946
 21
137.0244937805
  0
LINE
  8
0
 62
7
  6
CONTINUOUS
 10
145.4405339398
 20
258.665594335
 11
144.1206637881
 21
254.8961783409
  0
LINE
  8
2_FEATURE
 62
7
  6
CONTINUOUS
 10
102.4207309525
 20
137.775100037
 11
101.0614606596
 21
134.0197121177
  0
LINE
  8
0
 62
7
  6
CONTINUOUS
 10
141.5477534412
 20
244.0925186607
 11
141.7759756629
 21
244.6162069815
  0
LINE
  8
0
 62
7
  6
CONTINUOUS
 10
158.2874799434
 20
244.3123286648
 11
155.999702099
 21
241.0387027411
  0
LINE
  8
2_FEATURE
 62
7
  6
CONTINUOUS
 10
84.2510793279
 20
139.5085766109
 11
81.9291462199
 21
136.2590872978
  0
LINE
  8
0
 62
7
  6
CONTINUOUS
 10
166.7862175055
 20
227.0255789163
 11
163.7001591502
 21
224.4904659046
  0
LINE
  8
2_FEATURE
 62
7
  6
CONTINUOUS
 10
67.2226447401
 20
146.0792384254
 11
64.1102084392
 21
143.5765809525
  0
LINE
  8
0
 62
7
  6
CONTINUOUS
 10
170.306608125
 20
208.087070345
 11
166.651084912
 21
206.4784360818
  0
LINE
  8
2_FEATURE
 62
7
  6
CONTINUOUS
 10
52.5979996791
 20
156.999904066
 11
48.92583163
 21
155.4296378551
  0
LINE
  8
0
 62
7
  6
CONTINUOUS
 10
152.768168856
 20
245.623569871
 11
156.6203922588
 21
246.6775760422
  0
LINE
  8
0
 62
7
  6
CONTINUOUS
 10
45.1909511517
 20
219.4732244866
 11
45.4246896771
 21
219.5117775498
  0
LINE
  8
0
 62
7
  6
CONTINUOUS
 10
46.9350240496
 20
222.3210372098
 11
46.70128545
 21
222.2824839647
  0
LINE
  8
0
 62
7
  6
CONTINUOUS
 10
46.2158244929
 20
221.7757209885
 11
46.7851872246
 21
221.8222222236
  0
LINE
  8
2_FEATURE
 62
7
  6
CONTINUOUS
 10
33.4865245678
 20
229.8055746626
 11
37.4802835119
 21
229.8266376618
  0
LINE
  8
0
 62
7
  6
CONTINUOUS
 10
161.8252416872
 20
229.7770998249
 11
165.818982581
 21
229.7528546825
  0
LINE
  8
0
 62
7
  6
CONTINUOUS
 10
48.544372139
 20
234.1747418744
 11
49.0159268982
 21
234.1287373109
  0
LINE
  8
0
 62
7
  6
CONTINUOUS
 10
51.997267755
 20
236.328883454
 11
51.4351598623
 21
236.4307225693
  0
LINE
  8
0
 62
7
  6
CONTINUOUS
 10
50.1315358151
 20
237.3569058312
 11
49.5694284212
 21
237.4587460394
  0
LINE
  8
0
 62
7
  6
CONTINUOUS
 10
53.0044087372
 20
237.0455371973
 11
53.4705660474
 21
236.9608156753
  0
LINE
  8
0
 62
7
  6
CONTINUOUS
 10
55.8256474673
 20
240.7803274443
 11
56.2832347187
 21
240.6574666362
  0
LINE
  8
2_FEATURE
 62
7
  6
CONTINUOUS
 10
42.6985972608
 20
246.722961391
 11
46.549979629
 21
245.6658861772
  0
LINE
  8
0
 62
7
  6
CONTINUOUS
 10
166.271798897
 20
212.0748595663
 11
170.1109415491
 21
210.9741607654
  0
LINE
  8
0
 62
7
  6
CONTINUOUS
 10
59.2044391274
 20
247.6633250358
 11
59.6426794147
 21
247.4832548698
  0
LINE
  8
0
 62
7
  6
CONTINUOUS
 10
63.1319311718
 20
248.729913817
 11
62.6230922405
 21
248.9895653792
  0
LINE
  8
0
 62
7
  6
CONTINUOUS
 10
61.6420380089
 20
250.252412929
 11
61.1331971952
 21
250.5120630205
  0
LINE
  8
0
 62
7
  6
CONTINUOUS
 10
64.3029835509
 20
249.1255964151
 11
64.7248878106
 21
248.9100119232
  0
LINE
  8
2_FEATURE
 62
7
  6
CONTINUOUS
 10
56.1327938398
 20
260.5281277896
 11
59.5562390657
 21
258.4712911556
  0
LINE
  8
0
 62
7
  6
CONTINUOUS
 10
165.778150708
 20
193.8293808755
 11
169.1780420652
 21
191.7338396773
  0
LINE
  8
0
 62
7
  6
CONTINUOUS
 10
73.3021876834
 20
257.5036704208
 11
73.6698612731
 21
257.2048444866
  0
LINE
  8
0
 62
7
  6
CONTINUOUS
 10
77.3704011424
 20
257.3920369837
 11
76.9580850257
 21
257.7874259127
  0
LINE
  8
0
 62
7
  6
CONTINUOUS
 10
76.3829977603
 20
259.2795805561
 11
75.9706859093
 21
259.6749716212
  0
LINE
  8
0
 62
7
  6
CONTINUOUS
 10
78.6058102813
 20
257.4331091988
 11
78.9475981831
 21
257.1049904686
  0
LINE
  8
2_FEATURE
 62
7
  6
CONTINUOUS
 10
72.7930364246
 20
270.1974904384
 11
75.5347133211
 21
267.2933964405
  0
LINE
  8
0
 62
7
  6
CONTINUOUS
 10
160.3808986422
 20
176.3934739209
 11
163.0894539179
 21
173.4584641301
  0
LINE
  8
0
 62
7
  6
CONTINUOUS
 10
82.7915312648
 20
259.035428075
 11
83.105106725
 21
258.6802502299
  0
LINE
  8
0
 62
7
  6
CONTINUOUS
 10
83.7077979349
 20
258.8457443551
 11
83.3942224747
 21
259.2009222002
  0
LINE
  8
0
 62
7
  6
CONTINUOUS
 10
86.2668324771
 20
260.5413214545
 11
85.9250877877
 21
260.9990850971
  0
LINE
  8
0
 62
7
  6
CONTINUOUS
 10
91.5053738388
 20
275.0212428786
 11
93.3589144275
 21
271.483596565
  0
LINE
  8
0
 62
7
  6
CONTINUOUS
 10
150.4802217029
 20
161.0599232122
 11
152.2966151923
 21
157.5030609932
  0
LINE
  8
0
 62
7
  6
CONTINUOUS
 10
110.7639334216
 20
274.6111943265
 11
111.5944423655
 21
270.704685777
  0
LINE
  8
0
 62
7
  6
CONTINUOUS
 10
136.8102051209
 20
148.9656341533
 11
137.5997604133
 21
145.0506428897
  0
LINE
  8
0
 62
7
  6
CONTINUOUS
 10
138.3629537123
 20
245.767389091
 11
138.2836129382
 21
245.2454324926
  0
LINE
  8
0
 62
7
  6
CONTINUOUS
 10
138.8053904088
 20
245.325942866
 11
138.883333135
 21
245.6990145098
  0
LINE
  8
0
 62
7
  6
CONTINUOUS
 10
142.4620338614
 20
246.336163872
 11
142.3840911879
 21
245.963092281
  0
LINE
  8
0
 62
4
  6
CONTINUOUS
 10
140.4117573621
 20
200.6158467685
 11
138.9975437998
 21
199.2016332061
  0
LINE
  8
0
 62
4
  6
CONTINUOUS
 10
103.7750861217
 20
163.9791755281
 11
105.1892996841
 21
165.3933890904
  0
LINE
  8
0
 62
4
  6
CONTINUOUS
 10
109.3139964434
 20
167.25534415
 11
137.1355887403
 21
195.0769364468
  0
LINE
  8
0
 62
7
  6
CONTINUOUS
 10
140.5793382213
 20
244.0068062259
 11
140.2064421981
 21
243.9280275748
  0
LINE
  8
0
 62
7
  6
CONTINUOUS
 10
140.7618278013
 20
247.5817239487
 11
141.1347237719
 21
247.660502547
  0
LINE
  8
0
 62
7
  6
CONTINUOUS
 10
140.127101424
 20
243.4060709764
 11
140.6488788946
 21
243.4865813498
  0
LINE
  8
0
 62
7
  6
CONTINUOUS
 10
51.1003431149
 20
233.4553795269
 11
50.574117239
 21
233.4127179714
  0
LINE
  8
0
 62
7
  6
CONTINUOUS
 10
49.1081767772
 20
234.6837380631
 11
48.7271756504
 21
234.6739091678
  0
LINE
  8
0
 62
7
  6
CONTINUOUS
 10
49.4771779166
 20
236.9037442725
 11
49.8581799227
 21
236.9135740261
  0
LINE
  8
0
 62
7
  6
CONTINUOUS
 10
53.7556914698
 20
237.5270716501
 11
52.994660851
 21
237.570295978
  0
LINE
  8
0
 62
7
  6
CONTINUOUS
 10
52.0895027661
 20
240.8251854258
 11
52.8505335648
 21
240.7819609653
  0
LINE
  8
0
 62
7
  6
CONTINUOUS
 10
56.6140700292
 20
241.1982903902
 11
55.8591930179
 21
241.3041045807
  0
LINE
  8
0
 62
7
  6
CONTINUOUS
 10
55.22543796
 20
244.6225328285
 11
55.9803151397
 21
244.516718491
  0
LINE
  8
0
 62
7
  6
CONTINUOUS
 10
52.8407847315
 20
241.3067189631
 11
52.3746281884
 21
241.3914414006
  0
LINE
  8
0
 62
7
  6
CONTINUOUS
 10
61.4442684077
 20
246.2372688131
 11
60.9281041258
 21
246.348210757
  0
LINE
  8
0
 62
7
  6
CONTINUOUS
 10
56.0138604658
 20
245.0404958233
 11
55.5562732704
 21
245.1633565824
  0
LINE
  8
0
 62
7
  6
CONTINUOUS
 10
59.8911002667
 20
247.9880572459
 11
59.523456741
 21
248.0885445448
  0
LINE
  8
0
 62
7
  6
CONTINUOUS
 10
60.8847781266
 20
250.0072622266
 11
61.2524200666
 21
249.9067731225
  0
LINE
  8
0
 62
7
  6
CONTINUOUS
 10
65.1612307961
 20
249.369954457
 11
64.4450179472
 21
249.6308627041
  0
LINE
  8
0
 62
7
  6
CONTINUOUS
 10
64.5172077161
 20
253.0084950326
 11
65.233422607
 21
252.7475880365
  0
LINE
  8
0
 62
7
  6
CONTINUOUS
 10
68.7916413257
 20
255.8506412993
 11
69.13777663
 21
255.6911113325
  0
LINE
  8
0
 62
7
  6
CONTINUOUS
 10
65.3754549167
 20
253.2528531342
 11
64.9535507017
 21
253.4684375664
  0
LINE
  8
0
 62
7
  6
CONTINUOUS
 10
75.0354634935
 20
255.4921478521
 11
74.5732401708
 21
255.7472621026
  0
LINE
  8
0
 62
7
  6
CONTINUOUS
 10
75.587213673
 20
259.2632831435
 11
75.9102449233
 21
259.0610197983
  0
LINE
  8
0
 62
7
  6
CONTINUOUS
 10
74.0533291811
 20
257.6165309633
 11
73.7303023842
 21
257.818796039
  0
LINE
  8
0
 62
7
  6
CONTINUOUS
 10
79.4980650011
 20
257.4195196689
 11
78.8875495818
 21
257.8759283179
  0
LINE
  8
0
 62
7
  6
CONTINUOUS
 10
79.9309530938
 20
261.0891713144
 11
80.5414641113
 21
260.632760818
  0
LINE
  8
0
 62
7
  6
CONTINUOUS
 10
83.105106725
 20
258.6802502299
 11
83.5191291776
 21
258.3526543541
  0
LINE
  8
0
 62
7
  6
CONTINUOUS
 10
85.3223965778
 20
260.8335909719
 11
85.6078028088
 21
260.5809989243
  0
LINE
  8
0
 62
7
  6
CONTINUOUS
 10
80.823207788
 20
261.0755818545
 11
80.4814199117
 21
261.4037005146
  0
LINE
  8
0
 62
4
  6
CONTINUOUS
 10
138.9975437998
 20
210.2946696958
 11
140.4117573621
 21
208.8804561334
  0
LINE
  8
0
 62
4
  6
CONTINUOUS
 10
105.1892996841
 20
244.1029138115
 11
103.7750861217
 21
245.5171273738
  0
LINE
  8
0
 62
4
  6
CONTINUOUS
 10
109.3139964434
 20
242.2409587519
 11
137.1355887403
 21
214.4193664551
  0
LINE
  8
0
 62
7
  6
CONTINUOUS
 10
121.3508033944
 20
260.3540783629
 11
121.4353056461
 21
259.9824376199
  0
LINE
  8
0
 62
7
  6
CONTINUOUS
 10
121.916466312
 20
256.5787121905
 11
121.970052636
 21
256.2013662591
  0
LINE
  8
0
 62
7
  6
CONTINUOUS
 10
125.6204500803
 20
256.1390217836
 11
125.5668723958
 21
256.5163636765
  0
LINE
  8
0
 62
7
  6
CONTINUOUS
 10
125.8608920677
 20
258.3752712706
 11
125.9144783917
 21
257.9979253392
  0
LINE
  8
0
 62
7
  6
CONTINUOUS
 10
135.3650512956
 20
252.5959800806
 11
135.3530941806
 21
253.1237969474
  0
LINE
  8
0
 62
7
  6
CONTINUOUS
 10
142.904470558
 20
245.894717647
 11
142.9838113058
 21
246.4166742191
  0
LINE
  8
0
 62
7
  6
CONTINUOUS
 10
50.8628685502
 20
232.8675460755
 11
51.2985413877
 21
232.9660421241
  0
LINE
  8
0
 62
7
  6
CONTINUOUS
 10
49.0159268982
 20
234.1287373109
 11
49.451599704
 21
234.2272333791
  0
LINE
  8
0
 62
7
  6
CONTINUOUS
 10
134.3039502769
 20
252.1700758996
 11
134.011263576
 21
252.1152553722
  0
LINE
  8
0
 62
7
  6
CONTINUOUS
 10
141.2140645197
 20
248.1824591191
 11
140.6922870754
 21
248.1019487721
  0
LINE
  8
0
 62
7
  6
CONTINUOUS
 10
53.4705660474
 20
236.9608156753
 11
53.9128756866
 21
237.0230609646
  0
LINE
  8
0
 62
7
  6
CONTINUOUS
 10
51.1976852976
 20
235.8428891179
 11
51.723911237
 21
235.8855506342
  0
LINE
  8
0
 62
7
  6
CONTINUOUS
 10
56.2832347187
 20
240.6574666362
 11
56.7291701705
 21
240.6830374362
  0
LINE
  8
0
 62
7
  6
CONTINUOUS
 10
61.0473268489
 20
245.7429210262
 11
61.4928925609
 21
245.711560395
  0
LINE
  8
0
 62
7
  6
CONTINUOUS
 10
59.6426794147
 20
247.4832548698
 11
60.088245102
 21
247.4518942664
  0
LINE
  8
0
 62
7
  6
CONTINUOUS
 10
64.7248878106
 20
248.9100119232
 11
65.1663516707
 21
248.8420269755
  0
LINE
  8
0
 62
7
  6
CONTINUOUS
 10
62.2261506817
 20
248.4952175924
 11
62.742315013
 21
248.3842755928
  0
LINE
  8
0
 62
7
  6
CONTINUOUS
 10
74.512799091
 20
255.1333104825
 11
74.9303799335
 21
254.9747591254
  0
LINE
  8
0
 62
7
  6
CONTINUOUS
 10
73.6698612731
 20
257.2048444866
 11
74.0874421
 21
257.0462931633
  0
LINE
  8
0
 62
7
  6
CONTINUOUS
 10
78.9475981831
 20
257.1049904686
 11
79.3506872328
 21
256.9125547366
  0
LINE
  8
0
 62
7
  6
CONTINUOUS
 10
76.4354206232
 20
257.4285885431
 11
76.8976439772
 21
257.173474225
  0
LINE
  8
0
 62
7
  6
CONTINUOUS
 10
85.9250877877
 20
260.9990850971
 11
85.5110653449
 21
261.326680937
  0
LINE
  8
0
 62
7
  6
CONTINUOUS
 10
122.5319778831
 20
256.1735560416
 11
122.4333500495
 21
256.4545246826
  0
LINE
  8
0
 62
7
  6
CONTINUOUS
 10
141.2583991923
 20
244.9823448416
 11
141.2555962928
 21
244.6845816155
  0
LINE
  8
0
 62
7
  6
CONTINUOUS
 10
141.7759756629
 20
244.6162069815
 11
141.7801766367
 21
245.0628551887
  0
LINE
  8
0
 62
7
  6
CONTINUOUS
 10
56.9798575191
 20
241.293815801
 11
56.6140700292
 21
241.1982903902
  0
LINE
  8
0
 62
7
  6
CONTINUOUS
 10
49.5694284212
 20
237.4587460394
 11
49.1337556154
 21
237.3602499713
  0
LINE
  8
0
 62
7
  6
CONTINUOUS
 10
125.1851392318
 20
256.92967121
 11
125.6977548661
 21
257.04234326
  0
LINE
  8
0
 62
7
  6
CONTINUOUS
 10
58.7225197675
 20
244.1666382209
 11
59.0936769381
 21
244.2385266524
  0
LINE
  8
0
 62
7
  6
CONTINUOUS
 10
61.4928925609
 20
245.711560395
 11
62.0943043736
 21
245.8184547439
  0
LINE
  8
0
 62
7
  6
CONTINUOUS
 10
124.4278221935
 20
254.8176052936
 11
124.80101923
 21
254.8780170447
  0
LINE
  8
0
 62
7
  6
CONTINUOUS
 10
52.3746281884
 20
241.3914414006
 11
51.9323185792
 21
241.3291960892
  0
LINE
  8
0
 62
7
  6
CONTINUOUS
 10
65.1663516707
 20
248.8420269755
 11
65.7745303967
 21
248.8989803869
  0
LINE
  8
0
 62
7
  6
CONTINUOUS
 10
60.4145881157
 20
248.0258233381
 11
59.8911002667
 21
247.9880572459
  0
LINE
  8
0
 62
7
  6
CONTINUOUS
 10
62.6230922405
 20
248.9895653792
 11
62.099602608
 21
248.9517977049
  0
LINE
  8
0
 62
7
  6
CONTINUOUS
 10
55.5562732704
 20
245.1633565824
 11
55.1103378467
 21
245.137785758
  0
LINE
  8
0
 62
7
  6
CONTINUOUS
 10
65.5388968211
 20
249.3870998777
 11
65.1612307961
 21
249.369954457
  0
LINE
  8
0
 62
7
  6
CONTINUOUS
 10
133.7305261775
 20
251.5326234475
 11
134.2548964143
 21
251.5551097581
  0
LINE
  8
0
 62
7
  6
CONTINUOUS
 10
139.5595912065
 20
246.3767898994
 11
139.857347403
 21
246.3802601328
  0
LINE
  8
0
 62
7
  6
CONTINUOUS
 10
61.1331971952
 20
250.5120630205
 11
60.6876315079
 21
250.5434236239
  0
LINE
  8
0
 62
7
  6
CONTINUOUS
 10
71.8320417431
 20
254.2944497529
 11
72.2081639134
 21
254.2562698516
  0
LINE
  8
0
 62
7
  6
CONTINUOUS
 10
74.9303799335
 20
254.9747591254
 11
75.537064504
 21
254.9036332803
  0
LINE
  8
0
 62
7
  6
CONTINUOUS
 10
64.9535507017
 20
253.4684375664
 11
64.5120868638
 21
253.5364224843
  0
LINE
  8
0
 62
7
  6
CONTINUOUS
 10
140.2064421981
 20
243.9280275748
 11
139.8349443018
 21
243.9981339576
  0
LINE
  8
0
 62
7
  6
CONTINUOUS
 10
79.3506872328
 20
256.9125547366
 11
79.9494389595
 21
256.7916561983
  0
LINE
  8
0
 62
7
  6
CONTINUOUS
 10
74.5654640381
 20
257.5016933923
 11
74.0533291811
 21
257.6165309633
  0
LINE
  8
0
 62
7
  6
CONTINUOUS
 10
76.9580850257
 20
257.7874259127
 11
76.445954497
 21
257.9022654847
  0
LINE
  8
0
 62
7
  6
CONTINUOUS
 10
139.5329803344
 20
243.5480222067
 11
140.127101424
 21
243.4060709764
  0
LINE
  8
0
 62
7
  6
CONTINUOUS
 10
69.3526408393
 20
256.3284336652
 11
68.7734958014
 21
256.4672938567
  0
LINE
  8
0
 62
7
  6
CONTINUOUS
 10
79.8646238586
 20
257.3269983424
 11
79.4980650011
 21
257.4195196689
  0
LINE
  8
0
 62
7
  6
CONTINUOUS
 10
83.5191291776
 20
258.3526543541
 11
84.1058764229
 21
258.1828080795
  0
LINE
  8
0
 62
7
  6
CONTINUOUS
 10
84.0654819588
 20
258.7233199665
 11
83.7077979349
 21
258.8457443551
  0
LINE
  8
0
 62
7
  6
CONTINUOUS
 10
75.9706859093
 20
259.6749716212
 11
75.5531050824
 21
259.8335229446
  0
LINE
  8
0
 62
7
  6
CONTINUOUS
 10
80.4814199117
 20
261.4037005146
 11
80.0783308748
 21
261.5961362117
  0
LINE
  8
0
 62
7
  6
CONTINUOUS
 10
121.970052636
 20
256.2013662591
 11
122.1630489183
 21
255.8762846651
  0
LINE
  8
0
 62
7
  6
CONTINUOUS
 10
122.0715240215
 20
260.2005603611
 11
121.8286063435
 21
260.744326974
  0
LINE
  8
0
 62
7
  6
CONTINUOUS
 10
126.4721355672
 20
258.2069747471
 11
126.2748798369
 21
258.7689118941
  0
LINE
  8
0
 62
7
  6
CONTINUOUS
 10
138.2836129382
 20
245.2454324926
 11
138.4268885931
 21
244.6516377692
  0
LINE
  8
0
 62
7
  6
CONTINUOUS
 10
138.876329209
 20
244.9546030237
 11
138.8053904088
 21
245.325942866
  0
LINE
  8
0
 62
7
  6
CONTINUOUS
 10
134.8044064547
 20
253.2481961878
 11
134.8530492455
 21
252.9544196163
  0
LINE
  8
0
 62
7
  6
CONTINUOUS
 10
54.8596504701
 20
244.5270074176
 11
55.22543796
 21
244.6225328285
  0
LINE
  8
0
 62
7
  6
CONTINUOUS
 10
61.8971577115
 20
246.35461619
 11
61.4442684077
 21
246.2372688131
  0
LINE
  8
0
 62
7
  6
CONTINUOUS
 10
60.088245102
 20
247.4518942664
 11
60.3146915374
 21
247.5105695371
  0
LINE
  8
0
 62
7
  6
CONTINUOUS
 10
61.7732595943
 20
248.3778686333
 11
62.2261506817
 21
248.4952175924
  0
LINE
  8
0
 62
7
  6
CONTINUOUS
 10
62.099602608
 20
248.9517977049
 11
61.8731579561
 21
248.8931240164
  0
LINE
  8
0
 62
7
  6
CONTINUOUS
 10
119.3971905745
 20
261.0777229458
 11
119.7641371762
 21
261.1686942784
  0
LINE
  8
0
 62
7
  6
CONTINUOUS
 10
58.1601809833
 20
247.0732559646
 11
57.7890236013
 21
247.001367743
  0
LINE
  8
0
 62
7
  6
CONTINUOUS
 10
60.6876315079
 20
250.5434236239
 11
60.0862197137
 21
250.436529254
  0
LINE
  8
0
 62
7
  6
CONTINUOUS
 10
123.9735838848
 20
259.257502734
 11
124.3467809055
 21
259.3179144513
  0
LINE
  8
0
 62
7
  6
CONTINUOUS
 10
64.5120868638
 20
253.5364224843
 11
63.9039100625
 21
253.4794704804
  0
LINE
  8
0
 62
7
  6
CONTINUOUS
 10
60.3612884941
 20
249.9694945523
 11
60.8847781266
 21
250.0072622266
  0
LINE
  8
0
 62
7
  6
CONTINUOUS
 10
64.1395416911
 20
252.991349612
 11
64.5172077161
 21
253.0084950326
  0
LINE
  8
0
 62
7
  6
CONTINUOUS
 10
123.9602567281
 20
254.8013065377
 11
124.4278221935
 21
254.8176052936
  0
LINE
  8
0
 62
7
  6
CONTINUOUS
 10
124.419286066
 20
255.2913245782
 11
124.1855076589
 21
255.2831731936
  0
LINE
  8
0
 62
7
  6
CONTINUOUS
 10
68.413847352
 20
255.8646878395
 11
68.7916413257
 21
255.8506412993
  0
LINE
  8
0
 62
7
  6
CONTINUOUS
 10
75.5029558859
 20
255.4738731406
 11
75.0354634935
 21
255.4921478521
  0
LINE
  8
0
 62
7
  6
CONTINUOUS
 10
74.0874421
 20
257.0462931633
 11
74.321183968
 21
257.0371538065
  0
LINE
  8
0
 62
7
  6
CONTINUOUS
 10
75.967932559
 20
257.4468652557
 11
76.4354206232
 21
257.4285885431
  0
LINE
  8
0
 62
7
  6
CONTINUOUS
 10
76.445954497
 20
257.9022654847
 11
76.2122083008
 21
257.9114028405
  0
LINE
  8
0
 62
7
  6
CONTINUOUS
 10
72.1316444461
 20
257.2397649974
 11
71.7555221338
 21
257.2779451607
  0
LINE
  8
0
 62
7
  6
CONTINUOUS
 10
75.5531050824
 20
259.8335229446
 11
74.9464205237
 21
259.9046487643
  0
LINE
  8
0
 62
7
  6
CONTINUOUS
 10
139.857347403
 20
246.3802601328
 11
140.2288452993
 21
246.3101537501
  0
LINE
  8
0
 62
7
  6
CONTINUOUS
 10
140.5308024697
 20
246.7602721907
 11
139.7878066771
 21
246.9004849562
  0
LINE
  8
0
 62
7
  6
CONTINUOUS
 10
141.1347237719
 20
247.660502547
 11
141.5062216682
 21
247.5903961643
  0
LINE
  8
0
 62
7
  6
CONTINUOUS
 10
123.5377414511
 20
254.881381118
 11
123.9602567281
 21
254.8013065377
  0
LINE
  8
0
 62
7
  6
CONTINUOUS
 10
80.0783308748
 20
261.5961362117
 11
79.4795746793
 21
261.7170330864
  0
LINE
  8
0
 62
7
  6
CONTINUOUS
 10
75.0750831443
 20
259.3781227156
 11
75.587213673
 21
259.2632831435
  0
LINE
  8
0
 62
7
  6
CONTINUOUS
 10
141.8081788386
 20
248.040514605
 11
141.2140645197
 21
248.1824591191
  0
LINE
  8
0
 62
7
  6
CONTINUOUS
 10
79.5643942363
 20
261.1816926408
 11
79.9309530938
 21
261.0891713144
  0
LINE
  8
0
 62
7
  6
CONTINUOUS
 10
85.5110653449
 20
261.326680937
 11
84.9243181071
 21
261.4965271846
  0
LINE
  8
0
 62
7
  6
CONTINUOUS
 10
84.9647125539
 20
260.9560153605
 11
85.3223965778
 21
260.8335909719
  0
LINE
  8
0
 62
7
  6
CONTINUOUS
 10
139.8349443018
 20
243.9981339576
 11
139.5385861795
 21
244.1435487052
  0
LINE
  8
0
 62
7
  6
CONTINUOUS
 10
122.4504049981
 20
255.5070941315
 11
122.7828199058
 21
255.2342728956
  0
LINE
  8
0
 62
7
  6
CONTINUOUS
 10
122.1630489183
 20
255.8762846651
 11
122.4504049981
 21
255.5070941315
  0
LINE
  8
0
 62
7
  6
CONTINUOUS
 10
122.6756559289
 20
255.9889607874
 11
122.5319778831
 21
256.1735560416
  0
LINE
  8
0
 62
7
  6
CONTINUOUS
 10
121.1316652558
 20
260.6621434017
 11
121.3508033944
 21
260.3540783629
  0
LINE
  8
0
 62
7
  6
CONTINUOUS
 10
124.8612604633
 20
256.7287731867
 11
125.0542567614
 21
256.4036916265
  0
LINE
  8
0
 62
7
  6
CONTINUOUS
 10
125.6678957696
 20
258.7003528308
 11
125.8608920677
 21
258.3752712706
  0
LINE
  8
0
 62
7
  6
CONTINUOUS
 10
139.0224077833
 20
244.6585715463
 11
138.876329209
 21
244.9546030237
  0
LINE
  8
0
 62
7
  6
CONTINUOUS
 10
135.3530941806
 20
253.1237969474
 11
135.1947898089
 21
253.6242062851
  0
LINE
  8
0
 62
7
  6
CONTINUOUS
 10
141.7801766367
 20
245.0628551887
 11
141.636894211
 21
245.6566566282
  0
LINE
  8
0
 62
7
  6
CONTINUOUS
 10
142.9838113058
 20
246.4166742191
 11
142.8405356311
 21
247.0104689227
  0
LINE
  8
0
 62
7
  6
CONTINUOUS
 10
141.1874603921
 20
245.3536846839
 11
141.2583991923
 21
244.9823448416
  0
LINE
  8
0
 62
7
  6
CONTINUOUS
 10
142.3910950612
 20
246.7075037143
 11
142.4620338614
 21
246.336163872
  0
LINE
  8
0
 62
7
  6
CONTINUOUS
 10
84.6362898424
 20
258.2181345368
 11
85.2389810524
 21
258.3836286621
  0
LINE
  8
0
 62
7
  6
CONTINUOUS
 10
85.0981349854
 20
258.8965573621
 11
84.4954437755
 21
258.7310632368
  0
LINE
  8
0
 62
7
  6
CONTINUOUS
 10
83.3942224747
 20
259.2009222002
 11
82.7915312648
 21
259.035428075
  0
LINE
  8
0
 62
7
  6
CONTINUOUS
 10
82.5380083403
 20
259.9586997493
 11
83.2411465525
 21
260.1517758079
  0
LINE
  8
0
 62
7
  6
CONTINUOUS
 10
83.9320595273
 20
260.7827779649
 11
84.5347507372
 21
260.9482720902
  0
LINE
  8
0
 62
7
  6
CONTINUOUS
 10
84.39390469
 20
261.4612007183
 11
83.7912134801
 21
261.2957065931
  0
LINE
  8
0
 62
7
  6
CONTINUOUS
 10
82.4486990707
 20
262.2509124668
 11
85.3617035198
 21
263.0507998971
  0
LINE
  8
0
 62
7
  6
CONTINUOUS
 10
85.2208574726
 20
263.5637285252
 11
81.8056088158
 21
262.6259289031
  0
LINE
  8
0
 62
7
  6
CONTINUOUS
 10
75.537064504
 20
254.9036332803
 11
76.0544641376
 21
255.0256331711
  0
LINE
  8
0
 62
7
  6
CONTINUOUS
 10
74.9464205237
 20
259.9046487643
 11
74.4290208939
 21
259.782648865
  0
LINE
  8
0
 62
7
  6
CONTINUOUS
 10
75.9258014857
 20
255.5521592875
 11
75.5029558859
 21
255.4738731406
  0
LINE
  8
0
 62
7
  6
CONTINUOUS
 10
75.545082631
 20
257.3685771077
 11
75.967932559
 21
257.4468652557
  0
LINE
  8
0
 62
7
  6
CONTINUOUS
 10
74.9883096378
 20
257.5799795392
 11
74.5654640381
 21
257.5016933923
  0
LINE
  8
0
 62
7
  6
CONTINUOUS
 10
74.6522332163
 20
259.2998345676
 11
75.0750831443
 21
259.3781227156
  0
LINE
  8
0
 62
7
  6
CONTINUOUS
 10
79.9494389595
 20
256.7916561983
 11
80.5729661394
 21
256.9063566485
  0
LINE
  8
0
 62
7
  6
CONTINUOUS
 10
79.4795746793
 20
261.7170330864
 11
78.8560475026
 21
261.6023326274
  0
LINE
  8
0
 62
7
  6
CONTINUOUS
 10
80.3903152168
 20
257.4059285716
 11
79.8646238586
 21
257.3269983424
  0
LINE
  8
0
 62
7
  6
CONTINUOUS
 10
79.0386983996
 20
261.1027607743
 11
79.5643942363
 21
261.1816926408
  0
LINE
  8
0
 62
7
  6
CONTINUOUS
 10
119.8512139841
 20
261.7036731311
 11
119.3865836114
 21
261.6488851871
  0
LINE
  8
0
 62
7
  6
CONTINUOUS
 10
68.7734958014
 20
256.4672938567
 11
68.307480373
 21
256.4259568414
  0
LINE
  8
0
 62
7
  6
CONTINUOUS
 10
84.1058764229
 20
258.1828080795
 11
84.6362898424
 21
258.2181345368
  0
LINE
  8
0
 62
7
  6
CONTINUOUS
 10
84.9243181071
 20
261.4965271846
 11
84.39390469
 21
261.4612007183
  0
LINE
  8
0
 62
7
  6
CONTINUOUS
 10
124.4776633759
 20
259.8438940349
 11
124.0101065616
 21
259.8275912657
  0
LINE
  8
0
 62
7
  6
CONTINUOUS
 10
84.4954437755
 20
258.7310632368
 11
84.0654819588
 21
258.7233199665
  0
LINE
  8
0
 62
7
  6
CONTINUOUS
 10
84.5347507372
 20
260.9482720902
 11
84.9647125539
 21
260.9560153605
  0
LINE
  8
0
 62
7
  6
CONTINUOUS
 10
125.1766117279
 20
257.4033864223
 11
124.5203180478
 21
257.4753096264
  0
LINE
  8
0
 62
7
  6
CONTINUOUS
 10
119.7641371762
 20
261.1686942784
 11
120.2894902612
 21
261.0875430537
  0
LINE
  8
0
 62
7
  6
CONTINUOUS
 10
120.5719346112
 20
261.5501551293
 11
119.8512139841
 21
261.7036731311
  0
LINE
  8
0
 62
7
  6
CONTINUOUS
 10
124.1855076589
 20
255.2831731936
 11
123.6686325924
 21
255.4073567304
  0
LINE
  8
0
 62
7
  6
CONTINUOUS
 10
124.3467809055
 20
259.3179144513
 11
124.8636559721
 21
259.1937309145
  0
LINE
  8
0
 62
7
  6
CONTINUOUS
 10
112.3646493878
 20
258.846493249
 11
116.3820694152
 21
257.7412901338
  0
LINE
  8
0
 62
7
  6
CONTINUOUS
 10
116.5513769969
 20
258.3567242201
 11
113.1365695139
 21
259.2961469945
  0
LINE
  8
0
 62
7
  6
CONTINUOUS
 10
113.5498024793
 20
263.154531925
 11
117.0650484514
 21
262.1874782506
  0
LINE
  8
0
 62
7
  6
CONTINUOUS
 10
117.7083121416
 20
262.5621904886
 11
113.6908921143
 21
263.6673936038
  0
LINE
  8
0
 62
7
  6
CONTINUOUS
 10
134.011263576
 20
252.1152553722
 11
133.6942515734
 21
252.2073258653
  0
LINE
  8
0
 62
7
  6
CONTINUOUS
 10
125.1832753083
 20
259.6314845247
 11
124.4776633759
 21
259.8438940349
  0
LINE
  8
0
 62
7
  6
CONTINUOUS
 10
117.1746055695
 20
257.4765782496
 11
120.6911140111
 21
256.1740160129
  0
LINE
  8
0
 62
7
  6
CONTINUOUS
 10
120.8758746159
 20
256.6728115469
 11
118.1408184567
 21
257.6859133004
  0
LINE
  8
0
 62
7
  6
CONTINUOUS
 10
118.6025657159
 20
261.031722762
 11
119.0909666851
 21
260.8508124444
  0
LINE
  8
0
 62
7
  6
CONTINUOUS
 10
120.2894902612
 20
261.0875430537
 11
120.6802164024
 21
260.9428128121
  0
LINE
  8
0
 62
7
  6
CONTINUOUS
 10
120.9626518094
 20
261.4054282003
 11
120.5719346112
 21
261.5501551293
  0
LINE
  8
0
 62
7
  6
CONTINUOUS
 10
133.2428494291
 20
251.7441719627
 11
133.7305261775
 21
251.5326234475
  0
LINE
  8
0
 62
7
  6
CONTINUOUS
 10
122.7828199058
 20
255.2342728956
 11
123.5377414511
 21
254.881381118
  0
LINE
  8
0
 62
7
  6
CONTINUOUS
 10
123.6686325924
 20
255.4073567304
 11
123.1024392736
 21
255.6720265733
  0
LINE
  8
0
 62
7
  6
CONTINUOUS
 10
122.4290819779
 20
256.691384308
 11
121.957257092
 21
256.9119411643
  0
LINE
  8
0
 62
7
  6
CONTINUOUS
 10
123.9626522328
 20
257.266264257
 11
124.3401173252
 21
257.0898163489
  0
LINE
  8
0
 62
7
  6
CONTINUOUS
 10
124.5203180478
 20
257.4753096264
 11
124.1428529554
 21
257.6517575345
  0
LINE
  8
0
 62
7
  6
CONTINUOUS
 10
123.1778715911
 20
259.2771656054
 11
123.6497051164
 21
259.0566047107
  0
LINE
  8
0
 62
7
  6
CONTINUOUS
 10
124.8636559721
 20
259.1937309145
 11
125.2411210644
 21
259.0172830064
  0
LINE
  8
0
 62
7
  6
CONTINUOUS
 10
125.3720035347
 20
259.5432625899
 11
125.1832753083
 21
259.6314845247
  0
LINE
  8
0
 62
7
  6
CONTINUOUS
 10
140.2288452993
 20
246.3101537501
 11
140.5252034216
 21
246.1647390025
  0
LINE
  8
0
 62
7
  6
CONTINUOUS
 10
141.5062216682
 20
247.5903961643
 11
141.8025797905
 21
247.4449814167
  0
LINE
  8
0
 62
7
  6
CONTINUOUS
 10
121.5117844339
 20
261.0885754013
 11
120.9626518094
 21
261.4054282003
  0
LINE
  8
0
 62
7
  6
CONTINUOUS
 10
120.6802164024
 20
260.9428128121
 11
121.1316652558
 21
260.6621434017
  0
LINE
  8
0
 62
7
  6
CONTINUOUS
 10
125.9875151058
 20
259.138106441
 11
125.3720035347
 21
259.5432625899
  0
LINE
  8
0
 62
7
  6
CONTINUOUS
 10
139.089145557
 20
243.8405834441
 11
139.5329803344
 21
243.5480222067
  0
LINE
  8
0
 62
7
  6
CONTINUOUS
 10
140.9746439915
 20
246.4677042108
 11
140.5308024697
 21
246.7602721907
  0
LINE
  8
0
 62
7
  6
CONTINUOUS
 10
142.2520203604
 20
247.7479466251
 11
141.8081788386
 21
248.040514605
  0
LINE
  8
0
 62
7
  6
CONTINUOUS
 10
124.3401173252
 20
257.0898163489
 11
124.8612604633
 21
256.7287731867
  0
LINE
  8
0
 62
7
  6
CONTINUOUS
 10
129.91361053
 20
251.3477950918
 11
130.4256125801
 21
250.9893555562
  0
LINE
  8
0
 62
7
  6
CONTINUOUS
 10
131.7068432789
 20
252.8194905696
 11
133.2428494291
 21
251.7441719627
  0
LINE
  8
0
 62
7
  6
CONTINUOUS
 10
133.6942515734
 20
252.2073258653
 11
132.072909144
 21
253.342386218
  0
LINE
  8
0
 62
7
  6
CONTINUOUS
 10
132.9880739778
 20
254.6496255831
 11
134.6094164072
 21
253.5145652304
  0
LINE
  8
0
 62
7
  6
CONTINUOUS
 10
134.8291350156
 20
254.0100533498
 11
132.7811268153
 21
255.4438114924
  0
LINE
  8
0
 62
7
  6
CONTINUOUS
 10
123.1024392736
 20
255.6720265733
 11
122.6756559289
 21
255.9889607874
  0
LINE
  8
0
 62
7
  6
CONTINUOUS
 10
125.2411210644
 20
259.0172830064
 11
125.6678957696
 21
258.7003528308
  0
LINE
  8
0
 62
7
  6
CONTINUOUS
 10
133.7380949644
 20
248.6342096588
 11
134.2169273835
 21
248.2325325317
  0
LINE
  8
0
 62
7
  6
CONTINUOUS
 10
136.451481108
 20
246.3580372288
 11
136.9303135271
 21
245.9563601017
  0
LINE
  8
0
 62
7
  6
CONTINUOUS
 10
135.3565983276
 20
248.9427864206
 11
136.9527039557
 21
247.6038647066
  0
LINE
  8
0
 62
7
  6
CONTINUOUS
 10
137.1463783837
 20
247.9968264605
 11
135.7098811265
 21
249.2018578418
  0
LINE
  8
0
 62
7
  6
CONTINUOUS
 10
138.8668416576
 20
250.8581605029
 11
138.2284008676
 21
251.3937279627
  0
LINE
  8
0
 62
7
  6
CONTINUOUS
 10
138.7204505603
 20
244.2084530529
 11
139.089145557
 21
243.8405834441
  0
LINE
  8
0
 62
7
  6
CONTINUOUS
 10
139.5385861795
 20
244.1435487052
 11
139.0224077833
 21
244.6585715463
  0
LINE
  8
0
 62
7
  6
CONTINUOUS
 10
140.5252034216
 20
246.1647390025
 11
141.0413818179
 21
245.6497161613
  0
LINE
  8
0
 62
7
  6
CONTINUOUS
 10
141.3433389882
 20
246.099834602
 11
140.9746439915
 21
246.4677042108
  0
LINE
  8
0
 62
7
  6
CONTINUOUS
 10
142.3840911879
 20
245.963092281
 11
142.7527929357
 21
245.5952159362
  0
LINE
  8
0
 62
7
  6
CONTINUOUS
 10
141.8025797905
 20
247.4449814167
 11
142.245016487
 21
247.0035351917
  0
LINE
  8
0
 62
7
  6
CONTINUOUS
 10
142.5469736573
 20
247.4536536324
 11
142.2520203604
 21
247.7479466251
  0
LINE
  8
0
 62
7
  6
CONTINUOUS
 10
135.1947898089
 20
253.6242062851
 11
134.8291350156
 21
254.0100533498
  0
LINE
  8
0
 62
7
  6
CONTINUOUS
 10
125.5668723958
 20
256.5163636765
 11
125.1851392318
 21
256.92967121
  0
LINE
  8
0
 62
7
  6
CONTINUOUS
 10
121.8286063435
 20
260.744326974
 11
121.5117844339
 21
261.0885754013
  0
LINE
  8
0
 62
7
  6
CONTINUOUS
 10
126.2748798369
 20
258.7689118941
 11
125.9875151058
 21
259.138106441
  0
LINE
  8
0
 62
7
  6
CONTINUOUS
 10
134.6094164072
 20
253.5145652304
 11
134.8044064547
 21
253.2481961878
  0
LINE
  8
0
 62
7
  6
CONTINUOUS
 10
138.4268885931
 20
244.6516377692
 11
138.7204505603
 21
244.2084530529
  0
LINE
  8
0
 62
7
  6
CONTINUOUS
 10
141.636894211
 20
245.6566566282
 11
141.3433389882
 21
246.099834602
  0
LINE
  8
0
 62
7
  6
CONTINUOUS
 10
142.8405356311
 20
247.0104689227
 11
142.5469736573
 21
247.4536536324
  0
LINE
  8
0
 62
7
  6
CONTINUOUS
 10
141.0413818179
 20
245.6497161613
 11
141.1874603921
 21
245.3536846839
  0
LINE
  8
0
 62
7
  6
CONTINUOUS
 10
142.245016487
 20
247.0035351917
 11
142.3910950612
 21
246.7075037143
  0
LINE
  8
0
 62
7
  6
CONTINUOUS
 10
170.5449443629
 20
208.4741805371
 11
170.3993296363
 21
210.6227482238
  0
LINE
  8
0
 62
7
  6
CONTINUOUS
 10
168.9215600633
 20
189.2094632064
 11
169.3609417615
 21
191.3176592306
  0
LINE
  8
0
 62
7
  6
CONTINUOUS
 10
162.1615039466
 20
171.0968611925
 11
163.153304134
 21
173.008373458
  0
LINE
  8
0
 62
7
  6
CONTINUOUS
 10
150.7660000588
 20
155.4793325289
 11
152.2366817568
 21
157.0524320477
  0
LINE
  8
0
 62
7
  6
CONTINUOUS
 10
135.5799675056
 20
143.5148381514
 11
137.420487088
 21
144.6328875331
  0
LINE
  8
0
 62
7
  6
CONTINUOUS
 10
91.1029495775
 20
275.232697784
 11
88.9080104099
 21
274.931943675
  0
LINE
  8
0
 62
7
  6
CONTINUOUS
 10
110.4334701495
 20
274.9233681386
 11
108.3002714456
 21
275.2183427859
  0
LINE
  8
0
 62
7
  6
CONTINUOUS
 10
128.9639156093
 20
269.4109003175
 11
126.9893722951
 21
270.27039171
  0
LINE
  8
0
 62
7
  6
CONTINUOUS
 10
145.3203469405
 20
259.1040159909
 11
143.6508614383
 21
260.4642971791
  0
LINE
  8
0
 62
7
  6
CONTINUOUS
 10
158.2900173032
 20
244.7669186174
 11
157.0493735378
 21
246.527131616
  0
LINE
  8
0
 62
7
  6
CONTINUOUS
 10
166.911291092
 20
227.4626316146
 11
166.1914765377
 21
229.4922655127
  0
LINE
  8
2_FEATURE
 62
7
  6
CONTINUOUS
 10
28.7430418026
 20
124.4180327869
 11
28.7430418026
 21
45.0180327869
  0
LINE
  8
2_FEATURE
 62
7
  6
CONTINUOUS
 10
32.3712670338
 20
124.4180327869
 11
32.3712670338
 21
45.0180327869
  0
LINE
  8
2_FEATURE
 62
7
  6
CONTINUOUS
 10
40.9576775888
 20
124.4180327869
 11
40.9576775888
 21
45.0180327869
  0
LINE
  8
2_FEATURE
 62
7
  6
CONTINUOUS
 10
53.8656344564
 20
124.4180327869
 11
53.8656344564
 21
45.0180327869
  0
LINE
  8
2_FEATURE
 62
7
  6
CONTINUOUS
 10
28.7430423589
 20
45.0180327869
 11
88.9080104099
 21
45.0180327869
  0
LINE
  8
0
 62
7
  6
CONTINUOUS
 10
88.9080104099
 20
45.0180327869
 11
170.5454949841
 21
45.0180327869
  0
LINE
  8
2_FEATURE
 62
7
  6
CONTINUOUS
 10
70.1380777754
 20
124.4180327869
 11
70.1380777754
 21
45.0180327869
  0
LINE
  8
DEFAULT_1
 62
2
  6
CENTER
 10
99.6427814393
 20
127.5639344262
 11
99.6427814393
 21
86.7181327869
  0
LINE
  8
0
 62
2
  6
CONTINUOUS
 10
99.6427814393
 20
85.5980327869
 11
99.6427814393
 21
83.8380327869
  0
LINE
  8
DEFAULT_1
 62
2
  6
CENTER
 10
99.6427814393
 20
34.0819672131
 11
99.6427814393
 21
82.7179327869
  0
LINE
  8
DEFAULT_1
 62
2
  6
CENTER
 10
176.5721311475
 20
84.7180327869
 11
101.6428814393
 21
84.7180327869
  0
LINE
  8
0
 62
2
  6
CONTINUOUS
 10
100.5227814393
 20
84.7180327869
 11
98.7627814393
 21
84.7180327869
  0
LINE
  8
DEFAULT_1
 62
2
  6
CENTER
 10
24.6639344262
 20
84.7180327869
 11
97.6426814393
 21
84.7180327869
  0
LINE
  8
0
 62
7
  6
CONTINUOUS
 10
129.198726121
 20
124.4180327869
 11
129.198726121
 21
45.0180327869
  0
LINE
  8
2_FEATURE
 62
7
  6
CONTINUOUS
 10
28.7430423589
 20
124.4180327869
 11
88.9080104099
 21
124.4180327869
  0
LINE
  8
0
 62
7
  6
CONTINUOUS
 10
88.9080104099
 20
124.4180327869
 11
170.5454949841
 21
124.4180327869
  0
LINE
  8
0
 62
7
  6
CONTINUOUS
 10
145.4630085433
 20
124.4180327869
 11
145.4630085433
 21
45.0180327869
  0
LINE
  8
0
 62
7
  6
CONTINUOUS
 10
158.3596103406
 20
124.4180327869
 11
158.3596103406
 21
45.0180327869
  0
LINE
  8
0
 62
7
  6
CONTINUOUS
 10
166.9323135728
 20
124.4180327869
 11
166.9323135728
 21
45.0180327869
  0
LINE
  8
0
 62
7
  6
CONTINUOUS
 10
170.5454955577
 20
124.4180327869
 11
170.5454955577
 21
45.0180327869
  0
ARC
  8
2_FEATURE
 62
7
  6
CONTINUOUS
 10
92.0314834684
 20
136.0515152
 40
5.082
 50
19.852173913
 51
83.677655209
  0
ARC
  8
2_FEATURE
 62
7
  6
CONTINUOUS
 10
88.3859495739
 20
136.5539916911
 40
5.082
 50
80.626692617
 51
144.452173913
  0
ARC
  8
2_FEATURE
 62
7
  6
CONTINUOUS
 10
73.782032327
 20
140.651495186
 40
5.082
 50
4.202173913
 51
68.027655209
  0
ARC
  8
2_FEATURE
 62
7
  6
CONTINUOUS
 10
70.4071955798
 20
142.1187637128
 40
5.082
 50
64.9766926171
 51
128.802173913
  0
ARC
  8
2_FEATURE
 62
7
  6
CONTINUOUS
 10
57.4500252251
 20
150.0039187679
 40
5.082
 50
348.552173913
 51
52.377655209
  0
ARC
  8
2_FEATURE
 62
7
  6
CONTINUOUS
 10
54.5961127388
 20
152.3271887739
 40
5.082
 50
49.3266926171
 51
113.152173913
  0
ARC
  8
2_FEATURE
 62
7
  6
CONTINUOUS
 10
44.2463980692
 20
163.4153509347
 40
5.082
 50
332.902173913
 51
36.727655209
  0
ARC
  8
2_FEATURE
 62
7
  6
CONTINUOUS
 10
42.1250130523
 20
166.4223636733
 40
5.082
 50
33.6766926171
 51
97.502173913
  0
ARC
  8
2_FEATURE
 62
7
  6
CONTINUOUS
 10
35.1501331804
 20
179.8914016723
 40
5.082
 50
317.252173913
 51
21.077655209
  0
ARC
  8
2_FEATURE
 62
7
  6
CONTINUOUS
 10
33.9185656262
 20
183.3592023239
 40
5.082
 50
18.0266926171
 51
81.852173913
  0
ARC
  8
2_FEATURE
 62
7
  6
CONTINUOUS
 10
30.8356726956
 20
198.2104549655
 40
5.082
 50
301.602173913
 51
5.427655209
  0
ARC
  8
2_FEATURE
 62
7
  6
CONTINUOUS
 10
30.5852371231
 20
201.8819236122
 40
5.082
 50
2.3766926171
 51
66.202173913
  0
ARC
  8
0
 62
4
  6
CONTINUOUS
 10
92.2343081349
 20
169.5180858497
 40
3.2
 50
225.0
 51
266.4096221093
  0
ARC
  8
0
 62
4
  6
CONTINUOUS
 10
64.4127158381
 20
197.3396781466
 40
3.2
 50
183.5903778907
 51
225.0
  0
ARC
  8
0
 62
4
  6
CONTINUOUS
 10
58.025277379
 20
196.9388915063
 40
3.2
 50
3.5903778907
 51
45.0
  0
ARC
  8
0
 62
4
  6
CONTINUOUS
 10
56.6110638166
 20
198.3531050687
 40
3.2
 50
45.0
 51
87.7455692247
  0
ARC
  8
0
 62
4
  6
CONTINUOUS
 10
99.6427814393
 20
161.9681911892
 40
3.2
 50
182.2544307753
 51
357.7455692247
  0
ARC
  8
0
 62
4
  6
CONTINUOUS
 10
93.247735057
 20
161.7164338283
 40
3.2
 50
2.2544307753
 51
45.0
  0
ARC
  8
0
 62
4
  6
CONTINUOUS
 10
91.8335214946
 20
163.1306473906
 40
3.2
 50
45.0
 51
86.4096221093
  0
ARC
  8
2_FEATURE
 62
7
  6
CONTINUOUS
 10
98.5439763854
 20
134.1567027659
 40
0.4
 50
199.852173913
 51
269.1082233134
  0
ARC
  8
2_FEATURE
 62
7
  6
CONTINUOUS
 10
81.6036940163
 20
136.4916402235
 40
0.4
 50
255.1961245126
 51
324.452173913
  0
ARC
  8
2_FEATURE
 62
7
  6
CONTINUOUS
 10
79.5419459524
 20
137.0701165154
 40
0.4
 50
184.202173913
 51
253.4582233134
  0
ARC
  8
2_FEATURE
 62
7
  6
CONTINUOUS
 10
63.859555087
 20
143.8883066284
 40
0.4
 50
239.5461245126
 51
308.8021739131
  0
ARC
  8
2_FEATURE
 62
7
  6
CONTINUOUS
 10
62.0302910312
 20
145.0015150159
 40
0.4
 50
168.552173913
 51
237.8082233135
  0
ARC
  8
2_FEATURE
 62
7
  6
CONTINUOUS
 10
48.7685618103
 20
155.7974233956
 40
0.4
 50
223.8961245127
 51
293.1521739131
  0
ARC
  8
2_FEATURE
 62
7
  6
CONTINUOUS
 10
47.307412461
 20
157.3628250944
 40
0.4
 50
152.9021739131
 51
222.1582233134
  0
ARC
  8
2_FEATURE
 62
7
  6
CONTINUOUS
 10
37.4496351806
 20
171.3359896166
 40
0.4
 50
208.2461245126
 51
277.5021739131
  0
ARC
  8
2_FEATURE
 62
7
  6
CONTINUOUS
 10
36.4649373883
 20
173.2375179906
 40
0.4
 50
137.252173913
 51
206.5082233134
  0
ARC
  8
2_FEATURE
 62
7
  6
CONTINUOUS
 10
30.742016486
 20
189.3518990219
 40
0.4
 50
192.5961245127
 51
261.852173913
  0
ARC
  8
2_FEATURE
 62
7
  6
CONTINUOUS
 10
30.3067806227
 20
191.4485653384
 40
0.4
 50
121.6021739131
 51
190.8582233134
  0
ARC
  8
2_FEATURE
 62
7
  6
CONTINUOUS
 10
31.6229120866
 20
217.0142454603
 40
5.082
 50
285.952173913
 51
349.777655209
  0
ARC
  8
2_FEATURE
 62
7
  6
CONTINUOUS
 10
32.3721770297
 20
220.6171612302
 40
5.082
 50
346.7266926171
 51
50.552173913
  0
ARC
  8
2_FEATURE
 62
7
  6
CONTINUOUS
 10
37.4534815254
 20
234.9085669857
 40
5.082
 50
270.302173913
 51
334.127655209
  0
ARC
  8
2_FEATURE
 62
7
  6
CONTINUOUS
 10
39.1468927698
 20
238.1757918567
 40
5.082
 50
331.0766926171
 51
34.902173913
  0
ARC
  8
0
 62
4
  6
CONTINUOUS
 10
56.8628211775
 20
204.7481514509
 40
3.2
 50
92.2544307753
 51
267.7455692247
  0
ARC
  8
0
 62
4
  6
CONTINUOUS
 10
56.6110638166
 20
211.1431978332
 40
3.2
 50
272.2544307753
 51
315.0
  0
ARC
  8
0
 62
4
  6
CONTINUOUS
 10
58.025277379
 20
212.5574113956
 40
3.2
 50
315.0
 51
356.4096221093
  0
ARC
  8
2_FEATURE
 62
7
  6
CONTINUOUS
 10
29.1430418026
 20
208.509362847
 40
0.4
 50
176.9461245127
 51
246.202173913
  0
ARC
  8
2_FEATURE
 62
7
  6
CONTINUOUS
 10
29.2895384111
 20
210.6457098795
 40
0.4
 50
105.9521739131
 51
175.2082233134
  0
ARC
  8
2_FEATURE
 62
7
  6
CONTINUOUS
 10
32.7712670338
 20
227.3879518283
 40
0.4
 50
161.2961245127
 51
230.5521739131
  0
ARC
  8
2_FEATURE
 62
7
  6
CONTINUOUS
 10
33.4886341299
 20
229.4055802254
 40
0.4
 50
90.3021739131
 51
159.5582233134
  0
ARC
  8
2_FEATURE
 62
7
  6
CONTINUOUS
 10
47.8950737124
 20
250.5666459048
 40
5.082
 50
254.652173913
 51
318.477655209
  0
ARC
  8
2_FEATURE
 62
7
  6
CONTINUOUS
 10
50.4070733601
 20
253.2559316408
 40
5.082
 50
315.4266926171
 51
19.252173913
  0
ARC
  8
2_FEATURE
 62
7
  6
CONTINUOUS
 10
62.1734972807
 20
262.8275146847
 40
5.082
 50
239.002173913
 51
302.827655209
  0
ARC
  8
2_FEATURE
 62
7
  6
CONTINUOUS
 10
41.3576775888
 20
244.5879138641
 40
0.4
 50
145.6461245126
 51
214.902173913
  0
ARC
  8
2_FEATURE
 62
7
  6
CONTINUOUS
 10
42.5927260224
 20
246.3372266623
 40
0.4
 50
74.6521739131
 51
143.9082233134
  0
ARC
  8
2_FEATURE
 62
7
  6
CONTINUOUS
 10
54.2656344564
 20
258.8339585697
 40
0.4
 50
129.9961245127
 51
199.2521739131
  0
ARC
  8
2_FEATURE
 62
7
  6
CONTINUOUS
 10
55.926791619
 20
260.185253053
 40
0.4
 50
59.002173913
 51
128.2582233134
  0
ARC
  8
0
 62
7
  6
CONTINUOUS
 10
99.6427814393
 20
204.7481514509
 40
64.035
 50
88.426692617
 51
91.477655209
  0
ARC
  8
0
 62
7
  6
CONTINUOUS
 10
99.6427814393
 20
204.7481514509
 40
64.035
 50
72.776692617
 51
75.827655209
  0
ARC
  8
0
 62
7
  6
CONTINUOUS
 10
99.6427814393
 20
204.7481514509
 40
64.035
 50
57.126692617
 51
60.177655209
  0
ARC
  8
0
 62
7
  6
CONTINUOUS
 10
99.6427814393
 20
204.7481514509
 40
64.035
 50
41.476692617
 51
44.527655209
  0
ARC
  8
0
 62
7
  6
CONTINUOUS
 10
99.6427814393
 20
204.7481514509
 40
64.035
 50
25.826692617
 51
28.877655209
  0
ARC
  8
0
 62
7
  6
CONTINUOUS
 10
99.6427814393
 20
204.7481514509
 40
64.035
 50
10.176692617
 51
13.227655209
  0
ARC
  8
0
 62
7
  6
CONTINUOUS
 10
99.6427814393
 20
204.7481514509
 40
64.035
 50
354.526692617
 51
357.577655209
  0
ARC
  8
0
 62
7
  6
CONTINUOUS
 10
99.6427814393
 20
204.7481514509
 40
64.035
 50
338.876692617
 51
341.927655209
  0
ARC
  8
0
 62
7
  6
CONTINUOUS
 10
99.6427814393
 20
204.7481514509
 40
64.035
 50
323.226692617
 51
326.277655209
  0
ARC
  8
0
 62
7
  6
CONTINUOUS
 10
99.6427814393
 20
204.7481514509
 40
64.035
 50
307.576692617
 51
310.627655209
  0
ARC
  8
0
 62
7
  6
CONTINUOUS
 10
99.6427814393
 20
204.7481514509
 40
64.035
 50
291.926692617
 51
294.977655209
  0
ARC
  8
2_FEATURE
 62
7
  6
CONTINUOUS
 10
99.6427814393
 20
204.7481514509
 40
64.035
 50
276.276692617
 51
279.327655209
  0
ARC
  8
2_FEATURE
 62
7
  6
CONTINUOUS
 10
99.6427814393
 20
204.7481514509
 40
64.035
 50
260.626692617
 51
263.677655209
  0
ARC
  8
2_FEATURE
 62
7
  6
CONTINUOUS
 10
99.6427814393
 20
204.7481514509
 40
64.035
 50
244.976692617
 51
248.027655209
  0
ARC
  8
2_FEATURE
 62
7
  6
CONTINUOUS
 10
99.6427814393
 20
204.7481514509
 40
64.035
 50
229.326692617
 51
232.377655209
  0
ARC
  8
2_FEATURE
 62
7
  6
CONTINUOUS
 10
99.6427814393
 20
204.7481514509
 40
64.035
 50
213.676692617
 51
216.727655209
  0
ARC
  8
2_FEATURE
 62
7
  6
CONTINUOUS
 10
99.6427814393
 20
204.7481514509
 40
64.035
 50
198.026692617
 51
201.077655209
  0
ARC
  8
2_FEATURE
 62
7
  6
CONTINUOUS
 10
99.6427814393
 20
204.7481514509
 40
64.035
 50
182.376692617
 51
185.427655209
  0
ARC
  8
2_FEATURE
 62
7
  6
CONTINUOUS
 10
99.6427814393
 20
204.7481514509
 40
64.035
 50
166.726692617
 51
169.777655209
  0
ARC
  8
2_FEATURE
 62
7
  6
CONTINUOUS
 10
99.6427814393
 20
204.7481514509
 40
64.035
 50
151.076692617
 51
154.127655209
  0
ARC
  8
2_FEATURE
 62
7
  6
CONTINUOUS
 10
99.6427814393
 20
204.7481514509
 40
64.035
 50
135.426692617
 51
138.477655209
  0
ARC
  8
2_FEATURE
 62
7
  6
CONTINUOUS
 10
99.6427814393
 20
204.7481514509
 40
64.035
 50
119.776692617
 51
122.827655209
  0
ARC
  8
2_FEATURE
 62
7
  6
CONTINUOUS
 10
99.6427814393
 20
204.7481514509
 40
64.035
 50
104.126692617
 51
107.177655209
  0
CIRCLE
  8
0
 62
4
  6
CONTINUOUS
 10
99.6427814393
 20
204.7481514509
 40
9.525
  0
ARC
  8
0
 62
4
  6
CONTINUOUS
 10
64.4127158381
 20
212.1566247553
 40
3.2
 50
135.0
 51
176.4096221093
  0
ARC
  8
0
 62
7
  6
CONTINUOUS
 10
97.860455154
 20
273.8421671253
 40
5.082
 50
207.652173913
 51
271.477655209
  0
ARC
  8
2_FEATURE
 62
7
  6
CONTINUOUS
 10
65.3178332347
 20
264.73946432
 40
5.082
 50
299.7766926171
 51
3.602173913
  0
ARC
  8
2_FEATURE
 62
7
  6
CONTINUOUS
 10
79.2300791792
 20
270.7820917805
 40
5.082
 50
223.352173913
 51
287.177655209
  0
ARC
  8
2_FEATURE
 62
7
  6
CONTINUOUS
 10
82.7736147967
 20
271.7749438983
 40
5.082
 50
284.1266926171
 51
347.952173913
  0
ARC
  8
0
 62
4
  6
CONTINUOUS
 10
92.2343081349
 20
239.9782170521
 40
3.2
 50
93.5903778907
 51
135.0
  0
ARC
  8
0
 62
4
  6
CONTINUOUS
 10
91.8335214946
 20
246.3656555113
 40
3.2
 50
273.5903778907
 51
315.0
  0
ARC
  8
0
 62
4
  6
CONTINUOUS
 10
93.247735057
 20
247.7798690736
 40
3.2
 50
315.0
 51
357.7455692247
  0
ARC
  8
0
 62
4
  6
CONTINUOUS
 10
99.6427814393
 20
247.5281117127
 40
3.2
 50
2.2544307753
 51
177.7455692247
  0
CIRCLE
  8
0
 62
7
  6
CONTINUOUS
 10
99.6427814393
 20
263.7831514509
 40
1.7320508076
  0
ARC
  8
0
 62
7
  6
CONTINUOUS
 10
91.1510613063
 20
274.8356017483
 40
0.4
 50
27.6521739131
 51
96.9082233134
  0
ARC
  8
2_FEATURE
 62
7
  6
CONTINUOUS
 10
70.5380777754
 20
269.0698136235
 40
0.4
 50
114.3461245127
 51
183.602173913
  0
ARC
  8
2_FEATURE
 62
7
  6
CONTINUOUS
 10
72.5021772465
 20
269.9228981252
 40
0.4
 50
43.3521739131
 51
112.6082233134
  0
ARC
  8
2_FEATURE
 62
7
  6
CONTINUOUS
 10
88.9684879931
 20
274.5365420286
 40
0.4
 50
98.6961245127
 51
167.952173913
  0
ARC
  8
0
 62
7
  6
CONTINUOUS
 10
168.6980200796
 20
201.8269008062
 40
5.082
 50
113.752173913
 51
177.577655209
  0
ARC
  8
0
 62
7
  6
CONTINUOUS
 10
168.4446592314
 20
198.1556328671
 40
5.082
 50
174.5266926171
 51
238.352173913
  0
ARC
  8
0
 62
7
  6
CONTINUOUS
 10
165.3499340885
 20
183.3068413292
 40
5.082
 50
98.102173913
 51
161.927655209
  0
ARC
  8
0
 62
7
  6
CONTINUOUS
 10
164.1156038487
 20
179.8400230676
 40
5.082
 50
158.8766926171
 51
222.702173913
  0
ARC
  8
0
 62
7
  6
CONTINUOUS
 10
157.1299943219
 20
166.3765467935
 40
5.082
 50
82.452173913
 51
146.277655209
  0
ARC
  8
0
 62
7
  6
CONTINUOUS
 10
155.0062140487
 20
163.371225288
 40
5.082
 50
143.2266926171
 51
207.052173913
  0
ARC
  8
0
 62
7
  6
CONTINUOUS
 10
144.6476678313
 20
152.2913130994
 40
5.082
 50
66.802173913
 51
130.627655209
  0
ARC
  8
0
 62
7
  6
CONTINUOUS
 10
141.7919051143
 20
149.9703177732
 40
5.082
 50
127.5766926171
 51
191.402173913
  0
ARC
  8
0
 62
7
  6
CONTINUOUS
 10
128.8284561335
 20
142.0954892438
 40
5.082
 50
51.152173913
 51
114.977655209
  0
ARC
  8
0
 62
7
  6
CONTINUOUS
 10
125.4524513664
 20
140.6309101874
 40
5.082
 50
111.9266926171
 51
175.752173913
  0
ARC
  8
2_FEATURE
 62
7
  6
CONTINUOUS
 10
110.8452739437
 20
136.545044112
 40
5.082
 50
35.502173913
 51
99.327655209
  0
ARC
  8
2_FEATURE
 62
7
  6
CONTINUOUS
 10
107.1993408428
 20
136.0454724713
 40
5.082
 50
96.276692617
 51
160.102173913
  0
ARC
  8
0
 62
4
  6
CONTINUOUS
 10
142.6744990619
 20
198.3531050687
 40
3.2
 50
92.2544307753
 51
135.0
  0
ARC
  8
0
 62
4
  6
CONTINUOUS
 10
141.2602854996
 20
196.9388915063
 40
3.2
 50
135.0
 51
176.4096221093
  0
ARC
  8
0
 62
4
  6
CONTINUOUS
 10
134.8728470405
 20
197.3396781466
 40
3.2
 50
315.0
 51
356.4096221093
  0
ARC
  8
0
 62
4
  6
CONTINUOUS
 10
107.0512547436
 20
169.5180858497
 40
3.2
 50
273.5903778907
 51
315.0
  0
ARC
  8
0
 62
4
  6
CONTINUOUS
 10
107.4520413839
 20
163.1306473906
 40
3.2
 50
93.5903778907
 51
135.0
  0
ARC
  8
0
 62
4
  6
CONTINUOUS
 10
106.0378278215
 20
161.7164338283
 40
3.2
 50
135.0
 51
177.7455692247
  0
ARC
  8
0
 62
7
  6
CONTINUOUS
 10
168.9681633935
 20
191.3933239755
 40
0.4
 50
349.0961245126
 51
58.352173913
  0
ARC
  8
0
 62
7
  6
CONTINUOUS
 10
168.5312570851
 20
189.297005112
 40
0.4
 50
278.102173913
 51
347.3582233134
  0
ARC
  8
0
 62
7
  6
CONTINUOUS
 10
162.7954983723
 20
173.1871891087
 40
0.4
 50
333.4461245127
 51
42.7021739131
  0
ARC
  8
0
 62
7
  6
CONTINUOUS
 10
161.8092857916
 20
171.2864459264
 40
0.4
 50
262.452173913
 51
331.7082233134
  0
ARC
  8
0
 62
7
  6
CONTINUOUS
 10
151.940378093
 20
157.3211403261
 40
0.4
 50
317.7961245127
 51
27.052173913
  0
ARC
  8
0
 62
7
  6
CONTINUOUS
 10
150.4779819258
 20
155.7569033397
 40
0.4
 50
246.802173913
 51
316.0582233134
  0
ARC
  8
0
 62
7
  6
CONTINUOUS
 10
137.2076549435
 20
144.9715650763
 40
0.4
 50
302.1461245127
 51
11.402173913
  0
ARC
  8
0
 62
7
  6
CONTINUOUS
 10
135.3775044855
 20
143.8598145644
 40
0.4
 50
231.1521739131
 51
300.4082233135
  0
ARC
  8
0
 62
7
  6
CONTINUOUS
 10
119.6896859961
 20
137.0541220415
 40
0.4
 50
286.4961245127
 51
355.7521739131
  0
ARC
  8
2_FEATURE
 62
7
  6
CONTINUOUS
 10
117.6274776679
 20
136.4772886941
 40
0.4
 50
215.5021739131
 51
284.7582233134
  0
ARC
  8
2_FEATURE
 62
7
  6
CONTINUOUS
 10
100.6853402432
 20
134.1558496671
 40
0.4
 50
270.8461245127
 51
340.1021739131
  0
ARC
  8
0
 62
7
  6
CONTINUOUS
 10
101.5404538719
 20
273.8390953462
 40
5.082
 50
268.4266926171
 51
332.252173913
  0
ARC
  8
0
 62
7
  6
CONTINUOUS
 10
116.5653483791
 20
271.7614815963
 40
5.082
 50
192.002173913
 51
255.827655209
  0
ARC
  8
0
 62
7
  6
CONTINUOUS
 10
120.1080917863
 20
270.7658063729
 40
5.082
 50
252.7766926171
 51
316.602173913
  0
ARC
  8
0
 62
7
  6
CONTINUOUS
 10
134.015518666
 20
264.7120958221
 40
5.082
 50
176.352173913
 51
240.177655209
  0
ARC
  8
0
 62
7
  6
CONTINUOUS
 10
137.1583302174
 20
262.7976414476
 40
5.082
 50
237.1266926171
 51
300.952173913
  0
ARC
  8
0
 62
7
  6
CONTINUOUS
 10
148.9171239507
 20
253.2166861829
 40
5.082
 50
160.702173913
 51
224.527655209
  0
ARC
  8
0
 62
7
  6
CONTINUOUS
 10
151.4269800302
 20
250.5253997878
 40
5.082
 50
221.4766926171
 51
285.302173913
  0
ARC
  8
0
 62
7
  6
CONTINUOUS
 10
160.1652854029
 20
238.1275792916
 40
5.082
 50
145.052173913
 51
208.877655209
  0
ARC
  8
0
 62
7
  6
CONTINUOUS
 10
161.8560928482
 20
234.8590061804
 40
5.082
 50
205.8266926171
 51
269.652173913
  0
ARC
  8
0
 62
7
  6
CONTINUOUS
 10
166.9260086152
 20
220.5635562763
 40
5.082
 50
129.402173913
 51
193.227655209
  0
ARC
  8
0
 62
7
  6
CONTINUOUS
 10
167.6724025869
 20
216.9600446502
 40
5.082
 50
190.1766926171
 51
254.002173913
  0
ARC
  8
0
 62
4
  6
CONTINUOUS
 10
106.0378278215
 20
247.7798690736
 40
3.2
 50
182.2544307753
 51
225.0
  0
ARC
  8
0
 62
4
  6
CONTINUOUS
 10
107.4520413839
 20
246.3656555113
 40
3.2
 50
225.0
 51
266.4096221093
  0
ARC
  8
0
 62
4
  6
CONTINUOUS
 10
107.0512547436
 20
239.9782170521
 40
3.2
 50
45.0
 51
86.4096221093
  0
ARC
  8
0
 62
4
  6
CONTINUOUS
 10
134.8728470405
 20
212.1566247553
 40
3.2
 50
3.5903778907
 51
45.0
  0
ARC
  8
0
 62
4
  6
CONTINUOUS
 10
141.2602854996
 20
212.5574113956
 40
3.2
 50
183.5903778907
 51
225.0
  0
ARC
  8
0
 62
4
  6
CONTINUOUS
 10
142.6744990619
 20
211.1431978332
 40
3.2
 50
225.0
 51
267.7455692247
  0
ARC
  8
0
 62
4
  6
CONTINUOUS
 10
142.422741701
 20
204.7481514509
 40
3.2
 50
272.2544307753
 51
87.7455692247
  0
ARC
  8
0
 62
7
  6
CONTINUOUS
 10
108.251496854
 20
274.8213276235
 40
0.4
 50
82.9961245127
 51
152.2521739131
  0
ARC
  8
0
 62
7
  6
CONTINUOUS
 10
110.372677537
 20
274.5280148051
 40
0.4
 50
12.002173913
 51
81.2582233134
  0
ARC
  8
0
 62
7
  6
CONTINUOUS
 10
126.8353069946
 20
269.9012523282
 40
0.4
 50
67.3461245126
 51
136.602173913
  0
ARC
  8
0
 62
7
  6
CONTINUOUS
 10
128.798726121
 20
269.0466031408
 40
0.4
 50
356.352173913
 51
65.6082233134
  0
ARC
  8
0
 62
7
  6
CONTINUOUS
 10
143.4029285932
 20
260.1504034003
 40
0.4
 50
51.6961245127
 51
120.952173913
  0
ARC
  8
0
 62
7
  6
CONTINUOUS
 10
145.0630085433
 20
258.7977857681
 40
0.4
 50
340.7021739131
 51
49.9582233134
  0
ARC
  8
0
 62
7
  6
CONTINUOUS
 10
156.7259561176
 20
246.2917570798
 40
0.4
 50
36.0461245126
 51
105.3021739131
  0
ARC
  8
0
 62
7
  6
CONTINUOUS
 10
157.9596103406
 20
244.5414607742
 40
0.4
 50
325.0521739131
 51
34.3082233134
  0
ARC
  8
0
 62
7
  6
CONTINUOUS
 10
165.8165543117
 20
229.3528620532
 40
0.4
 50
20.3961245127
 51
89.652173913
  0
ARC
  8
0
 62
7
  6
CONTINUOUS
 10
166.5323135728
 20
227.3346627123
 40
0.4
 50
309.402173913
 51
18.6582233134
  0
ARC
  8
0
 62
7
  6
CONTINUOUS
 10
170.0007011957
 20
210.589651904
 40
0.4
 50
4.7461245127
 51
74.002173913
  0
ARC
  8
0
 62
7
  6
CONTINUOUS
 10
170.1454955577
 20
208.453188824
 40
0.4
 50
293.7521739131
 51
3.0082233134
  0
ENDSEC
  0
EOF
