  0
SECTION
  2
HEADER
  9
$EXTMAX
 10
210.0
 20
297.0
 30
0.0
  9
$EXTMIN
 10
0.0
 20
0.0
 30
0.0
  9
$LIMMIN
 10
0.0
 20
0.0
  9
$LIMMAX
 10
210.0
 20
297.0
  9
$VIEWCTR
 10
105.0
 20
148.5
  9
$VIEWSIZE
 40
297.0
  9
$CLAYER
  8
0
  9
$LTSCALE
 40
19.36
  9
$CELTYPE
  6
BYLAYER
  9
$DIMSCALE
 40
1.0
  9
$DIMASZ
 40
3.5
  9
$DIMEXO
 40
1.0
  9
$DIMDLI
 40
13.376
  9
$DIMEXE
 40
2.0
  9
$DIMCEN
 40
3.168
  9
$DIMLFAC
 40
1.0
  9
$DIMBLK
  1
_FILLED
  9
$DIMTXT
 40
3.5
  9
$PDMODE
 70
3
  9
$PDSIZE
 40
0.3125
  9
$TILEMODE
 70
1
  0
ENDSEC
  0
SECTION
  2
TABLES
  0
TABLE
  2
LTYPE
 70
6
  0
LTYPE
  2
BYBLOCK
 70
0
  3

 72
65
 73
0
 40
0.0
  0
LTYPE
  2
BYLAYER
 70
0
  3

 72
65
 73
0
 40
0.0
  0
LTYPE
  2
CONTINUOUS
 70
64
  3
Solid line
 72
65
 73
0
 40
0.0
  0
LTYPE
  2
CENTER
 70
64
  3
____ _ ____ _ ____ _ ____ _ ____ _ ____ _ ____
 72
65
 73
4
 40
0.6
 49
0.375
 49
-0.075
 49
0.075
 49
-0.075
  0
LTYPE
  2
HIDDEN
 70
64
  3
- - - - - - - - - - - - - - - - - - - -
 72
65
 73
2
 40
0.2
 49
0.1
 49
-0.1
  0
LTYPE
  2
PHANTOM
 70
64
  3
_____ _ _ _____ _ _ _____ _ _ _____
 72
65
 73
6
 40
0.8
 49
0.45
 49
-0.05
 49
0.1
 49
-0.05
 49
0.1
 49
-0.05
  0
LTYPE
  2
DOT
 70
64
  3
. . . . . . . . . . . . . . . . . . . .
 72
65
 73
2
 40
0.2
 49
0.1
 49
-0.1
  0
LTYPE
  2
DASHED
 70
64
  3
- - - - - - - - - - - - - - - - - - - -
 72
65
 73
2
 40
0.2
 49
0.1
 49
-0.1
  0
ENDTAB
  0
TABLE
  2
LAYER
 70
36
  0
LAYER
  2
0
 70
0
 62
7
  6
CONTINUOUS
  0
LAYER
  2
DEFAULT_1
 70
0
 62
7
  6
CENTER
  0
LAYER
  2
DEFAULT_2
 70
0
 62
8
  6
HIDDEN
  0
LAYER
  2
DEFAULT_3
 70
0
 62
7
  6
PHANTOM
  0
LAYER
  2
CURVE
 70
0
 62
7
  6
CONTINUOUS
  0
LAYER
  2
NOTES
 70
0
 62
7
  6
CONTINUOUS
  0
LAYER
  2
PLANES
 70
0
 62
7
  6
CONTINUOUS
  0
LAYER
  2
QUILT
 70
0
 62
7
  6
CONTINUOUS
  0
LAYER
  2
SURFACE
 70
0
 62
7
  6
CONTINUOUS
  0
ENDTAB
  0
TABLE
  2
STYLE
 70
1
  0
STYLE
  2
STANDARD
 70
0
 40
0.0
 41
0.8
 50
0.0
 71
0
 42
0.2
  3
txt
  4

  0
STYLE
  2
TEXTSTYLE_1
 70
0
 40
0.0
 41
0.8
 50
0.0
 71
0
 42
0.2
  3
gdt
  4

  0
STYLE
  2
TEXTSTYLE_2
 70
0
 40
0.0
 41
0.6
 50
0.0
 71
0
 42
0.2
  3
txt
  4

  0
STYLE
  2
TEXTSTYLE_3
 70
0
 40
0.0
 41
1.0
 50
0.0
 71
0
 42
0.2
  3
ftb_____.ttf
  4

  0
STYLE
  2
TEXTSTYLE_4
 70
0
 40
0.0
 41
1.0
 50
0.0
 71
0
 42
0.2
  3
fti_____.ttf
  4

  0
STYLE
  2
TEXTSTYLE_5
 70
0
 40
0.0
 41
0.8
 50
0.0
 71
0
 42
0.2
  3
txt
  4

  0
ENDTAB
  0
ENDSEC
  0
SECTION
  2
BLOCKS
  0
BLOCK
  8
0
 62
2
  6
CONTINUOUS
  2
SYMBOL_11_BL1
 70
64
 10
173.3924355793
 20
35.4837666925
  0
TEXT
  8
0
 62
7
  6
CONTINUOUS
 10
164.4507205878
 20
30.5765230696
  7
TEXTSTYLE_4
 40
1.0655737705
  1
The brand for plastic modular belts and chains
 41
1.0
 72
0
  0
LINE
  8
0
 62
7
  6
CONTINUOUS
 10
149.3705039683
 20
36.0575371843
 11
149.3705039683
 21
33.9263896433
  0
LINE
  8
0
 62
7
  6
CONTINUOUS
 10
149.6595664615
 20
30.9354583476
 11
149.6595664615
 21
31.0322494069
  0
LINE
  8
0
 62
7
  6
CONTINUOUS
 10
149.3705039683
 20
30.9999857205
 11
149.4283164701
 21
30.8064036019
  0
LINE
  8
0
 62
7
  6
CONTINUOUS
 10
150.7639465913
 20
33.8444224302
 11
150.7639465913
 21
36.0575371843
  0
LINE
  8
0
 62
7
  6
CONTINUOUS
 10
151.6830039132
 20
32.0001601351
 11
151.6830039132
 21
30.4837666925
  0
LINE
  8
0
 62
7
  6
CONTINUOUS
 10
151.9720664683
 20
30.4837666925
 11
151.9720664683
 21
31.2258315706
  0
LINE
  8
0
 62
7
  6
CONTINUOUS
 10
151.9720664683
 20
31.3548863163
 11
151.9720664683
 21
32.0001601351
  0
LINE
  8
0
 62
7
  6
CONTINUOUS
 10
149.4283164701
 20
31.1935678842
 11
149.3705039683
 21
30.9999857205
  0
LINE
  8
0
 62
7
  6
CONTINUOUS
 10
149.7751914546
 20
30.7741399155
 11
149.6595664615
 21
30.9354583476
  0
LINE
  8
0
 62
7
  6
CONTINUOUS
 10
150.8736290235
 20
31.2903589434
 11
150.9314414683
 21
31.1935678842
  0
LINE
  8
0
 62
7
  6
CONTINUOUS
 10
151.2205040235
 20
31.1935678842
 11
151.1626914132
 21
31.3226226299
  0
LINE
  8
0
 62
7
  6
CONTINUOUS
 10
152.6491924929
 20
36.0575371843
 11
152.6491924929
 21
34.2542584958
  0
LINE
  8
0
 62
7
  6
CONTINUOUS
 10
152.6491924929
 20
32.9427830859
 11
152.6491924929
 21
32.287045381
  0
LINE
  8
0
 62
7
  6
CONTINUOUS
 10
153.0126914683
 20
31.1290405113
 11
153.0126914683
 21
30.4837666925
  0
LINE
  8
0
 62
7
  6
CONTINUOUS
 10
153.3017538581
 20
30.4837666925
 11
153.3017538581
 21
31.1290405113
  0
LINE
  8
0
 62
7
  6
CONTINUOUS
 10
149.6595664615
 20
31.0322494069
 11
149.7173789683
 21
31.1613041978
  0
LINE
  8
0
 62
7
  6
CONTINUOUS
 10
149.4283164701
 20
30.8064036019
 11
149.5439414683
 21
30.6773488336
  0
LINE
  8
0
 62
7
  6
CONTINUOUS
 10
152.9548788581
 20
31.258095257
 11
153.0126914683
 21
31.1290405113
  0
LINE
  8
0
 62
7
  6
CONTINUOUS
 10
153.7642540786
 20
30.7741399155
 11
153.8220663581
 21
30.6450851472
  0
LINE
  8
0
 62
7
  6
CONTINUOUS
 10
153.3017538581
 20
31.1290405113
 11
153.2439415786
 21
31.2903589434
  0
LINE
  8
0
 62
7
  6
CONTINUOUS
 10
153.7642540786
 20
31.3226226299
 11
153.7642540786
 21
31.258095257
  0
LINE
  8
0
 62
7
  6
CONTINUOUS
 10
153.7642540786
 20
30.8709309748
 11
153.7642540786
 21
30.7741399155
  0
LINE
  8
0
 62
7
  6
CONTINUOUS
 10
154.0426351159
 20
32.287045381
 11
154.0426351159
 21
36.0575371843
  0
LINE
  8
0
 62
7
  6
CONTINUOUS
 10
154.0533164683
 20
30.7418762065
 11
154.0533164683
 21
30.8064036019
  0
LINE
  8
0
 62
7
  6
CONTINUOUS
 10
154.3705039683
 20
36.0575371843
 11
154.3705039683
 21
32.287045381
  0
LINE
  8
0
 62
7
  6
CONTINUOUS
 10
151.1626914132
 20
30.6773488336
 11
151.2205040235
 21
30.8064036019
  0
LINE
  8
0
 62
7
  6
CONTINUOUS
 10
155.5564416889
 20
30.5805577631
 11
155.4986287478
 21
30.7418762065
  0
LINE
  8
0
 62
7
  6
CONTINUOUS
 10
155.2095666889
 20
31.258095257
 11
155.2095666889
 21
31.1613041978
  0
LINE
  8
0
 62
7
  6
CONTINUOUS
 10
155.2095666889
 20
31.0322494069
 11
155.2095666889
 21
30.8386672883
  0
LINE
  8
0
 62
7
  6
CONTINUOUS
 10
155.4986287478
 20
30.7418762065
 11
155.4986287478
 21
31.258095257
  0
LINE
  8
0
 62
7
  6
CONTINUOUS
 10
155.7639465913
 20
32.287045381
 11
155.7639465913
 21
34.0903240696
  0
LINE
  8
0
 62
7
  6
CONTINUOUS
 10
155.7639465913
 20
35.4017994794
 11
155.7639465913
 21
36.0575371843
  0
LINE
  8
0
 62
7
  6
CONTINUOUS
 10
156.0767541889
 20
32.0001601351
 11
156.0767541889
 21
31.838841703
  0
LINE
  8
0
 62
7
  6
CONTINUOUS
 10
156.0767541889
 20
31.5162047484
 11
156.0767541889
 21
30.4837666925
  0
LINE
  8
0
 62
7
  6
CONTINUOUS
 10
156.3658162478
 20
30.4837666925
 11
156.3658162478
 21
31.5162047484
  0
LINE
  8
0
 62
7
  6
CONTINUOUS
 10
156.3658162478
 20
31.838841703
 11
156.3658162478
 21
32.0001601351
  0
LINE
  8
0
 62
7
  6
CONTINUOUS
 10
150.9314414683
 20
30.8064036019
 11
150.8736290235
 21
30.7096125201
  0
LINE
  8
0
 62
7
  6
CONTINUOUS
 10
153.2439415786
 20
31.2903589434
 11
153.1861289683
 21
31.3548863163
  0
LINE
  8
0
 62
7
  6
CONTINUOUS
 10
154.1111290786
 20
30.6773488336
 11
154.0533164683
 21
30.7418762065
  0
LINE
  8
0
 62
7
  6
CONTINUOUS
 10
155.2673789683
 20
30.548294071
 11
155.3251912478
 21
30.4837666925
  0
LINE
  8
0
 62
7
  6
CONTINUOUS
 10
155.2095666889
 20
30.6450851472
 11
155.2673789683
 21
30.548294071
  0
LINE
  8
0
 62
7
  6
CONTINUOUS
 10
155.6142539683
 20
30.4837666925
 11
155.5564416889
 21
30.5805577631
  0
LINE
  8
0
 62
7
  6
CONTINUOUS
 10
155.4986287478
 20
31.258095257
 11
155.4408164683
 21
31.3548863163
  0
LINE
  8
0
 62
7
  6
CONTINUOUS
 10
156.8283164683
 20
31.5162047484
 11
156.8283164683
 21
30.4837666925
  0
LINE
  8
0
 62
7
  6
CONTINUOUS
 10
157.1173791889
 20
30.4837666925
 11
157.1173791889
 21
31.2258315706
  0
LINE
  8
0
 62
7
  6
CONTINUOUS
 10
157.1173791889
 20
31.3548863163
 11
157.1173791889
 21
31.5162047484
  0
LINE
  8
0
 62
7
  6
CONTINUOUS
 10
157.6491924929
 20
34.5001601351
 11
157.6491924929
 21
32.287045381
  0
LINE
  8
0
 62
7
  6
CONTINUOUS
 10
149.5439414683
 20
31.3226226299
 11
149.4283164701
 21
31.1935678842
  0
LINE
  8
0
 62
7
  6
CONTINUOUS
 10
149.7173789683
 20
31.1613041978
 11
149.7751914546
 21
31.2258315706
  0
LINE
  8
0
 62
7
  6
CONTINUOUS
 10
149.5439414683
 20
30.6773488336
 11
149.6595664615
 21
30.6128214495
  0
LINE
  8
0
 62
7
  6
CONTINUOUS
 10
149.9486289546
 20
30.6773488336
 11
149.7751914546
 21
30.7741399155
  0
LINE
  8
0
 62
7
  6
CONTINUOUS
 10
155.1517537478
 20
31.3226226299
 11
155.2095666889
 21
31.258095257
  0
LINE
  8
0
 62
7
  6
CONTINUOUS
 10
158.1001912478
 20
31.258095257
 11
158.1580041889
 21
31.0967768249
  0
LINE
  8
0
 62
7
  6
CONTINUOUS
 10
158.4470662478
 20
31.0967768249
 11
158.3892539683
 21
31.258095257
  0
LINE
  8
0
 62
7
  6
CONTINUOUS
 10
158.1580041889
 20
31.0967768249
 11
158.1580041889
 21
30.4837666925
  0
LINE
  8
0
 62
7
  6
CONTINUOUS
 10
158.4470662478
 20
30.4837666925
 11
158.4470662478
 21
31.0967768249
  0
LINE
  8
0
 62
7
  6
CONTINUOUS
 10
158.9095664683
 20
31.3226226299
 11
158.9095664683
 21
31.258095257
  0
LINE
  8
0
 62
7
  6
CONTINUOUS
 10
159.0426351159
 20
32.287045381
 11
159.0426351159
 21
34.418192922
  0
LINE
  8
0
 62
7
  6
CONTINUOUS
 10
159.3705039683
 20
36.0575371843
 11
159.3705039683
 21
32.287045381
  0
LINE
  8
0
 62
7
  6
CONTINUOUS
 10
154.0533164683
 20
30.8064036019
 11
154.1111290786
 21
30.9031946612
  0
LINE
  8
0
 62
7
  6
CONTINUOUS
 10
149.6595664615
 20
30.6128214495
 11
149.8330039821
 21
30.548294071
  0
LINE
  8
0
 62
7
  6
CONTINUOUS
 10
151.1626914132
 20
31.3226226299
 11
150.9892539132
 21
31.4194136891
  0
LINE
  8
0
 62
7
  6
CONTINUOUS
 10
153.8220663581
 20
30.6450851472
 11
153.9955038581
 21
30.548294071
  0
LINE
  8
0
 62
7
  6
CONTINUOUS
 10
152.8392539683
 20
31.3226226299
 11
152.9548788581
 21
31.258095257
  0
LINE
  8
0
 62
7
  6
CONTINUOUS
 10
153.1861289683
 20
31.3548863163
 11
153.0705040786
 21
31.4194136891
  0
LINE
  8
0
 62
7
  6
CONTINUOUS
 10
158.9095664683
 20
30.7418762065
 11
159.0251916889
 21
30.6128214495
  0
LINE
  8
0
 62
7
  6
CONTINUOUS
 10
159.2564414683
 20
30.6773488336
 11
159.1986291889
 21
30.7418762065
  0
LINE
  8
0
 62
7
  6
CONTINUOUS
 10
158.9095664683
 20
31.258095257
 11
159.0251916889
 21
31.1290405113
  0
LINE
  8
0
 62
7
  6
CONTINUOUS
 10
158.3892539683
 20
31.258095257
 11
158.3314416889
 21
31.3548863163
  0
LINE
  8
0
 62
7
  6
CONTINUOUS
 10
160.7595660273
 20
30.6773488336
 11
160.7595660273
 21
30.7418762065
  0
LINE
  8
0
 62
7
  6
CONTINUOUS
 10
160.7639465913
 20
32.287045381
 11
160.7639465913
 21
36.0575371843
  0
LINE
  8
0
 62
7
  6
CONTINUOUS
 10
153.8220663581
 20
31.3871500027
 11
153.7642540786
 21
31.3226226299
  0
LINE
  8
0
 62
7
  6
CONTINUOUS
 10
150.7001914408
 20
31.3548863163
 11
150.8736290235
 21
31.2903589434
  0
LINE
  8
0
 62
7
  6
CONTINUOUS
 10
155.4408164683
 20
31.3548863163
 11
155.3251912478
 21
31.4194136891
  0
LINE
  8
0
 62
7
  6
CONTINUOUS
 10
159.2564414683
 20
31.1935678842
 11
159.1986291889
 21
31.258095257
  0
LINE
  8
0
 62
7
  6
CONTINUOUS
 10
160.4126916889
 20
30.8064036019
 11
160.4705039683
 21
30.7418762065
  0
LINE
  8
0
 62
7
  6
CONTINUOUS
 10
160.7595660273
 20
30.7418762065
 11
160.6439414683
 21
30.8709309748
  0
LINE
  8
0
 62
7
  6
CONTINUOUS
 10
160.4126916889
 20
31.3226226299
 11
160.4705039683
 21
31.258095257
  0
LINE
  8
0
 62
7
  6
CONTINUOUS
 10
160.7595660273
 20
31.258095257
 11
160.6439414683
 21
31.3871500027
  0
LINE
  8
0
 62
7
  6
CONTINUOUS
 10
154.0533164683
 20
31.258095257
 11
154.1111290786
 21
31.3226226299
  0
LINE
  8
0
 62
7
  6
CONTINUOUS
 10
153.8798789683
 20
30.9999857205
 11
153.7642540786
 21
30.8709309748
  0
LINE
  8
0
 62
7
  6
CONTINUOUS
 10
155.2095666889
 20
30.8386672883
 11
155.1517537478
 21
30.7741399155
  0
LINE
  8
0
 62
7
  6
CONTINUOUS
 10
155.1517537478
 20
30.5805577631
 11
155.2095666889
 21
30.6450851472
  0
LINE
  8
0
 62
7
  6
CONTINUOUS
 10
153.9955038581
 20
30.548294071
 11
154.1111290786
 21
30.5160303817
  0
LINE
  8
0
 62
7
  6
CONTINUOUS
 10
150.9892539132
 20
31.4194136891
 11
150.7580039683
 21
31.483941062
  0
LINE
  8
0
 62
7
  6
CONTINUOUS
 10
154.3423788581
 20
30.6128214495
 11
154.1111290786
 21
30.6773488336
  0
LINE
  8
0
 62
7
  6
CONTINUOUS
 10
153.0705040786
 20
31.4194136891
 11
152.8970665786
 21
31.483941062
  0
LINE
  8
0
 62
7
  6
CONTINUOUS
 10
155.3251912478
 20
31.4194136891
 11
155.1517537478
 21
31.483941062
  0
LINE
  8
0
 62
7
  6
CONTINUOUS
 10
157.9845666889
 20
31.3226226299
 11
158.1001912478
 21
31.258095257
  0
LINE
  8
0
 62
7
  6
CONTINUOUS
 10
158.3314416889
 20
31.3548863163
 11
158.2158164683
 21
31.4194136891
  0
LINE
  8
0
 62
7
  6
CONTINUOUS
 10
149.8330039821
 20
30.548294071
 11
150.0064414821
 21
30.5160303817
  0
LINE
  8
0
 62
7
  6
CONTINUOUS
 10
150.2955039959
 20
30.6128214495
 11
149.9486289546
 21
30.6773488336
  0
LINE
  8
0
 62
7
  6
CONTINUOUS
 10
152.7236290786
 20
31.3548863163
 11
152.8392539683
 21
31.3226226299
  0
LINE
  8
0
 62
7
  6
CONTINUOUS
 10
155.0361291889
 20
31.3548863163
 11
155.1517537478
 21
31.3226226299
  0
LINE
  8
0
 62
7
  6
CONTINUOUS
 10
159.3720666889
 20
30.6450851472
 11
159.2564414683
 21
30.6773488336
  0
LINE
  8
0
 62
7
  6
CONTINUOUS
 10
157.8689414683
 20
31.3548863163
 11
157.9845666889
 21
31.3226226299
  0
LINE
  8
0
 62
7
  6
CONTINUOUS
 10
159.0251916889
 20
30.6128214495
 11
159.1986291889
 21
30.548294071
  0
LINE
  8
0
 62
7
  6
CONTINUOUS
 10
158.2158164683
 20
31.4194136891
 11
158.0423789683
 21
31.483941062
  0
LINE
  8
0
 62
7
  6
CONTINUOUS
 10
159.4298789683
 20
31.1290405113
 11
159.2564414683
 21
31.1935678842
  0
LINE
  8
0
 62
7
  6
CONTINUOUS
 10
160.2392541889
 20
30.8709309748
 11
160.4126916889
 21
30.8064036019
  0
LINE
  8
0
 62
7
  6
CONTINUOUS
 10
160.6439414683
 20
31.3871500027
 11
160.4705039683
 21
31.4516773756
  0
LINE
  8
0
 62
7
  6
CONTINUOUS
 10
159.0251916889
 20
31.1290405113
 11
159.2564414683
 21
31.0322494069
  0
LINE
  8
0
 62
7
  6
CONTINUOUS
 10
160.6439414683
 20
30.8709309748
 11
160.4126916889
 21
30.967722034
  0
LINE
  8
0
 62
7
  6
CONTINUOUS
 10
159.1986291889
 20
31.258095257
 11
159.2564414683
 21
31.3226226299
  0
LINE
  8
0
 62
7
  6
CONTINUOUS
 10
149.6595664615
 20
31.3871500027
 11
149.5439414683
 21
31.3226226299
  0
LINE
  8
0
 62
7
  6
CONTINUOUS
 10
149.7751914546
 20
31.2258315706
 11
149.9486289546
 21
31.3226226299
  0
LINE
  8
0
 62
7
  6
CONTINUOUS
 10
152.0876915235
 20
31.4194136891
 11
151.9720664683
 21
31.3548863163
  0
LINE
  8
0
 62
7
  6
CONTINUOUS
 10
151.9720664683
 20
31.2258315706
 11
152.0876915235
 21
31.2903589434
  0
LINE
  8
0
 62
7
  6
CONTINUOUS
 10
150.9892539132
 20
30.5805577631
 11
151.1626914132
 21
30.6773488336
  0
LINE
  8
0
 62
7
  6
CONTINUOUS
 10
150.0064414821
 20
30.5160303817
 11
150.3533164408
 21
30.4837666925
  0
LINE
  8
0
 62
7
  6
CONTINUOUS
 10
154.1111290786
 20
30.5160303817
 11
154.3423788581
 21
30.4837666925
  0
LINE
  8
0
 62
7
  6
CONTINUOUS
 10
152.4923789683
 20
31.3871500027
 11
152.7236290786
 21
31.3548863163
  0
LINE
  8
0
 62
7
  6
CONTINUOUS
 10
154.8048790786
 20
31.3871500027
 11
155.0361291889
 21
31.3548863163
  0
LINE
  8
0
 62
7
  6
CONTINUOUS
 10
159.2564414683
 20
31.0322494069
 11
160.2392541889
 21
30.8709309748
  0
LINE
  8
0
 62
7
  6
CONTINUOUS
 10
160.4126916889
 20
30.967722034
 11
159.4298789683
 21
31.1290405113
  0
LINE
  8
0
 62
7
  6
CONTINUOUS
 10
152.8970665786
 20
31.483941062
 11
152.7236290786
 21
31.5162047484
  0
LINE
  8
0
 62
7
  6
CONTINUOUS
 10
159.1986291889
 20
30.548294071
 11
159.3720666889
 21
30.5160303817
  0
LINE
  8
0
 62
7
  6
CONTINUOUS
 10
158.0423789683
 20
31.483941062
 11
157.8689414683
 21
31.5162047484
  0
LINE
  8
0
 62
7
  6
CONTINUOUS
 10
160.2970664683
 20
31.3548863163
 11
160.4126916889
 21
31.3226226299
  0
LINE
  8
0
 62
7
  6
CONTINUOUS
 10
160.4705039683
 20
30.7418762065
 11
160.4126916889
 21
30.6773488336
  0
LINE
  8
0
 62
7
  6
CONTINUOUS
 10
159.0251916889
 20
31.4194136891
 11
158.9095664683
 21
31.3226226299
  0
LINE
  8
0
 62
7
  6
CONTINUOUS
 10
153.9376915786
 20
31.4516773756
 11
153.8220663581
 21
31.3871500027
  0
LINE
  8
0
 62
7
  6
CONTINUOUS
 10
153.9955038581
 20
31.0645131385
 11
153.8798789683
 21
30.9999857205
  0
LINE
  8
0
 62
7
  6
CONTINUOUS
 10
154.1111290786
 20
30.9031946612
 11
154.2267539683
 21
30.967722034
  0
LINE
  8
0
 62
7
  6
CONTINUOUS
 10
151.6830039132
 20
30.4837666925
 11
151.9720664683
 21
30.4837666925
  0
LINE
  8
0
 62
7
  6
CONTINUOUS
 10
153.0126914683
 20
30.4837666925
 11
153.3017538581
 21
30.4837666925
  0
LINE
  8
0
 62
7
  6
CONTINUOUS
 10
154.3423788581
 20
30.4837666925
 11
154.6892538581
 21
30.4837666925
  0
LINE
  8
0
 62
7
  6
CONTINUOUS
 10
155.3251912478
 20
30.4837666925
 11
155.6142539683
 21
30.4837666925
  0
LINE
  8
0
 62
7
  6
CONTINUOUS
 10
156.0767541889
 20
30.4837666925
 11
156.3658162478
 21
30.4837666925
  0
LINE
  8
0
 62
7
  6
CONTINUOUS
 10
156.8283164683
 20
30.4837666925
 11
157.1173791889
 21
30.4837666925
  0
LINE
  8
0
 62
7
  6
CONTINUOUS
 10
158.1580041889
 20
30.4837666925
 11
158.4470662478
 21
30.4837666925
  0
LINE
  8
0
 62
7
  6
CONTINUOUS
 10
159.7189416889
 20
30.4837666925
 11
160.0658166889
 21
30.4837666925
  0
LINE
  8
0
 62
7
  6
CONTINUOUS
 10
160.0658166889
 20
30.6128214495
 11
159.7189416889
 21
30.6128214495
  0
LINE
  8
0
 62
7
  6
CONTINUOUS
 10
154.6892538581
 20
30.6128214495
 11
154.3423788581
 21
30.6128214495
  0
LINE
  8
0
 62
7
  6
CONTINUOUS
 10
159.1986291889
 20
30.7418762065
 11
158.9095664683
 21
30.7418762065
  0
LINE
  8
0
 62
7
  6
CONTINUOUS
 10
151.2205040235
 20
30.8064036019
 11
150.9314414683
 21
30.8064036019
  0
LINE
  8
0
 62
7
  6
CONTINUOUS
 10
150.2955039959
 20
31.3871500027
 11
150.7001914408
 21
31.3548863163
  0
LINE
  8
0
 62
7
  6
CONTINUOUS
 10
150.7580039683
 20
31.483941062
 11
150.3533164408
 21
31.5162047484
  0
LINE
  8
0
 62
7
  6
CONTINUOUS
 10
159.3720666889
 20
30.5160303817
 11
159.7189416889
 21
30.4837666925
  0
LINE
  8
0
 62
7
  6
CONTINUOUS
 10
159.7189416889
 20
30.6128214495
 11
159.3720666889
 21
30.6450851472
  0
LINE
  8
0
 62
7
  6
CONTINUOUS
 10
155.1517537478
 20
31.483941062
 11
154.8048790786
 21
31.5162047484
  0
LINE
  8
0
 62
7
  6
CONTINUOUS
 10
159.9501914683
 20
31.3871500027
 11
160.2970664683
 21
31.3548863163
  0
LINE
  8
0
 62
7
  6
CONTINUOUS
 10
160.2970664683
 20
31.483941062
 11
159.9501914683
 21
31.5162047484
  0
LINE
  8
0
 62
7
  6
CONTINUOUS
 10
157.6376916889
 20
31.3871500027
 11
157.8689414683
 21
31.3548863163
  0
LINE
  8
0
 62
7
  6
CONTINUOUS
 10
160.4705039683
 20
31.4516773756
 11
160.2970664683
 21
31.483941062
  0
LINE
  8
0
 62
7
  6
CONTINUOUS
 10
160.6439414683
 20
30.5805577631
 11
160.7595660273
 21
30.6773488336
  0
LINE
  8
0
 62
7
  6
CONTINUOUS
 10
155.1517537478
 20
30.7741399155
 11
154.9783162478
 21
30.6773488336
  0
LINE
  8
0
 62
7
  6
CONTINUOUS
 10
157.2330037478
 20
31.4194136891
 11
157.1173791889
 21
31.3548863163
  0
LINE
  8
0
 62
7
  6
CONTINUOUS
 10
157.1173791889
 20
31.2258315706
 11
157.2330037478
 21
31.2903589434
  0
LINE
  8
0
 62
7
  6
CONTINUOUS
 10
149.8330039821
 20
31.4516773756
 11
149.6595664615
 21
31.3871500027
  0
LINE
  8
0
 62
7
  6
CONTINUOUS
 10
152.2611288581
 20
31.483941062
 11
152.0876915235
 21
31.4194136891
  0
LINE
  8
0
 62
7
  6
CONTINUOUS
 10
152.0876915235
 20
31.2903589434
 11
152.2611288581
 21
31.3548863163
  0
LINE
  8
0
 62
7
  6
CONTINUOUS
 10
150.8736290235
 20
30.7096125201
 11
150.7001914408
 21
30.6450851472
  0
LINE
  8
0
 62
7
  6
CONTINUOUS
 10
160.2970664683
 20
30.6450851472
 11
160.0658166889
 21
30.6128214495
  0
LINE
  8
0
 62
7
  6
CONTINUOUS
 10
154.6892538581
 20
30.4837666925
 11
154.9783162478
 21
30.5160303817
  0
LINE
  8
0
 62
7
  6
CONTINUOUS
 10
160.0658166889
 20
30.4837666925
 11
160.4126916889
 21
30.5160303817
  0
LINE
  8
0
 62
7
  6
CONTINUOUS
 10
150.3533164408
 20
30.4837666925
 11
150.7580039683
 21
30.5160303817
  0
LINE
  8
0
 62
7
  6
CONTINUOUS
 10
150.7001914408
 20
30.6450851472
 11
150.2955039959
 21
30.6128214495
  0
LINE
  8
0
 62
7
  6
CONTINUOUS
 10
154.5736289683
 20
31.0322494069
 11
155.2095666889
 21
31.0322494069
  0
LINE
  8
0
 62
7
  6
CONTINUOUS
 10
155.2095666889
 20
31.1613041978
 11
154.5736289683
 21
31.1613041978
  0
LINE
  8
0
 62
7
  6
CONTINUOUS
 10
150.9314414683
 20
31.1935678842
 11
151.2205040235
 21
31.1935678842
  0
LINE
  8
0
 62
7
  6
CONTINUOUS
 10
153.7642540786
 20
31.258095257
 11
154.0533164683
 21
31.258095257
  0
LINE
  8
0
 62
7
  6
CONTINUOUS
 10
160.4705039683
 20
31.258095257
 11
160.7595660273
 21
31.258095257
  0
LINE
  8
0
 62
7
  6
CONTINUOUS
 10
154.4580040786
 20
31.3871500027
 11
154.8048790786
 21
31.3871500027
  0
LINE
  8
0
 62
7
  6
CONTINUOUS
 10
159.6033164683
 20
31.3871500027
 11
159.9501914683
 21
31.3871500027
  0
LINE
  8
0
 62
7
  6
CONTINUOUS
 10
159.9501914683
 20
31.5162047484
 11
159.6033164683
 21
31.5162047484
  0
LINE
  8
0
 62
7
  6
CONTINUOUS
 10
157.8689414683
 20
31.5162047484
 11
157.6376916889
 21
31.5162047484
  0
LINE
  8
0
 62
7
  6
CONTINUOUS
 10
157.1173791889
 20
31.5162047484
 11
156.8283164683
 21
31.5162047484
  0
LINE
  8
0
 62
7
  6
CONTINUOUS
 10
156.3658162478
 20
31.5162047484
 11
156.0767541889
 21
31.5162047484
  0
LINE
  8
0
 62
7
  6
CONTINUOUS
 10
154.8048790786
 20
31.5162047484
 11
154.4580040786
 21
31.5162047484
  0
LINE
  8
0
 62
7
  6
CONTINUOUS
 10
152.7236290786
 20
31.5162047484
 11
152.4923789683
 21
31.5162047484
  0
LINE
  8
0
 62
7
  6
CONTINUOUS
 10
156.0767541889
 20
31.838841703
 11
156.3658162478
 21
31.838841703
  0
LINE
  8
0
 62
7
  6
CONTINUOUS
 10
156.3658162478
 20
32.0001601351
 11
156.0767541889
 21
32.0001601351
  0
LINE
  8
0
 62
7
  6
CONTINUOUS
 10
151.9720664683
 20
32.0001601351
 11
151.6830039132
 21
32.0001601351
  0
LINE
  8
0
 62
7
  6
CONTINUOUS
 10
151.0098482306
 20
32.287045381
 11
151.4224195792
 21
32.287045381
  0
LINE
  8
0
 62
7
  6
CONTINUOUS
 10
152.6491924929
 20
32.287045381
 11
154.0426351159
 21
32.287045381
  0
LINE
  8
0
 62
7
  6
CONTINUOUS
 10
154.3705039683
 20
32.287045381
 11
155.7639465913
 21
32.287045381
  0
LINE
  8
0
 62
7
  6
CONTINUOUS
 10
157.6491924929
 20
32.287045381
 11
159.0426351159
 21
32.287045381
  0
LINE
  8
0
 62
7
  6
CONTINUOUS
 10
159.3705039683
 20
32.287045381
 11
160.7639465913
 21
32.287045381
  0
LINE
  8
0
 62
7
  6
CONTINUOUS
 10
157.4064412478
 20
31.483941062
 11
157.2330037478
 21
31.4194136891
  0
LINE
  8
0
 62
7
  6
CONTINUOUS
 10
154.9783162478
 20
30.5160303817
 11
155.1517537478
 21
30.5805577631
  0
LINE
  8
0
 62
7
  6
CONTINUOUS
 10
160.4126916889
 20
30.5160303817
 11
160.6439414683
 21
30.5805577631
  0
LINE
  8
0
 62
7
  6
CONTINUOUS
 10
160.4126916889
 20
30.6773488336
 11
160.2970664683
 21
30.6450851472
  0
LINE
  8
0
 62
7
  6
CONTINUOUS
 10
159.3720666889
 20
31.3548863163
 11
159.6033164683
 21
31.3871500027
  0
LINE
  8
0
 62
7
  6
CONTINUOUS
 10
157.4064412478
 20
31.3548863163
 11
157.6376916889
 21
31.3871500027
  0
LINE
  8
0
 62
7
  6
CONTINUOUS
 10
154.3423788581
 20
30.9999857205
 11
154.5736289683
 21
31.0322494069
  0
LINE
  8
0
 62
7
  6
CONTINUOUS
 10
157.6376916889
 20
31.5162047484
 11
157.4064412478
 21
31.483941062
  0
LINE
  8
0
 62
7
  6
CONTINUOUS
 10
154.2267539683
 20
31.3548863163
 11
154.4580040786
 21
31.3871500027
  0
LINE
  8
0
 62
7
  6
CONTINUOUS
 10
159.6033164683
 20
31.5162047484
 11
159.2564414683
 21
31.483941062
  0
LINE
  8
0
 62
7
  6
CONTINUOUS
 10
154.5736289683
 20
31.1613041978
 11
154.2267539683
 21
31.1290405113
  0
LINE
  8
0
 62
7
  6
CONTINUOUS
 10
150.3533164408
 20
31.5162047484
 11
150.0064414821
 21
31.483941062
  0
LINE
  8
0
 62
7
  6
CONTINUOUS
 10
154.4580040786
 20
31.5162047484
 11
154.0533164683
 21
31.483941062
  0
LINE
  8
0
 62
7
  6
CONTINUOUS
 10
151.8295203618
 20
33.4345863646
 11
151.1737826569
 21
33.4345863646
  0
LINE
  8
0
 62
7
  6
CONTINUOUS
 10
157.2330037478
 20
31.2903589434
 11
157.4064412478
 21
31.3548863163
  0
LINE
  8
0
 62
7
  6
CONTINUOUS
 10
159.2564414683
 20
31.3226226299
 11
159.3720666889
 21
31.3548863163
  0
LINE
  8
0
 62
7
  6
CONTINUOUS
 10
159.2564414683
 20
31.483941062
 11
159.0251916889
 21
31.4194136891
  0
LINE
  8
0
 62
7
  6
CONTINUOUS
 10
154.9783162478
 20
30.6773488336
 11
154.6892538581
 21
30.6128214495
  0
LINE
  8
0
 62
7
  6
CONTINUOUS
 10
152.2611288581
 20
31.3548863163
 11
152.4923789683
 21
31.3871500027
  0
LINE
  8
0
 62
7
  6
CONTINUOUS
 10
152.4923789683
 20
31.5162047484
 11
152.2611288581
 21
31.483941062
  0
LINE
  8
0
 62
7
  6
CONTINUOUS
 10
150.0642539683
 20
31.3548863163
 11
150.2955039959
 21
31.3871500027
  0
LINE
  8
0
 62
7
  6
CONTINUOUS
 10
156.5836187224
 20
34.9099962007
 11
157.2393564274
 21
34.9099962007
  0
LINE
  8
0
 62
7
  6
CONTINUOUS
 10
154.2267539683
 20
30.967722034
 11
154.3423788581
 21
30.9999857205
  0
LINE
  8
0
 62
7
  6
CONTINUOUS
 10
154.2267539683
 20
31.1290405113
 11
153.9955038581
 21
31.0645131385
  0
LINE
  8
0
 62
7
  6
CONTINUOUS
 10
154.1111290786
 20
31.3226226299
 11
154.2267539683
 21
31.3548863163
  0
LINE
  8
0
 62
7
  6
CONTINUOUS
 10
150.7580039683
 20
30.5160303817
 11
150.9892539132
 21
30.5805577631
  0
LINE
  8
0
 62
7
  6
CONTINUOUS
 10
154.0533164683
 20
31.483941062
 11
153.9376915786
 21
31.4516773756
  0
LINE
  8
0
 62
7
  6
CONTINUOUS
 10
150.0064414821
 20
31.483941062
 11
149.8330039821
 21
31.4516773756
  0
LINE
  8
0
 62
7
  6
CONTINUOUS
 10
160.7639465913
 20
36.0575371843
 11
159.3705039683
 21
36.0575371843
  0
LINE
  8
0
 62
7
  6
CONTINUOUS
 10
157.4032908536
 20
36.0575371843
 11
156.990719505
 21
36.0575371843
  0
LINE
  8
0
 62
7
  6
CONTINUOUS
 10
155.7639465913
 20
36.0575371843
 11
154.3705039683
 21
36.0575371843
  0
LINE
  8
0
 62
7
  6
CONTINUOUS
 10
154.0426351159
 20
36.0575371843
 11
152.6491924929
 21
36.0575371843
  0
LINE
  8
0
 62
7
  6
CONTINUOUS
 10
150.7639465913
 20
36.0575371843
 11
149.3705039683
 21
36.0575371843
  0
LINE
  8
0
 62
7
  6
CONTINUOUS
 10
149.9486289546
 20
31.3226226299
 11
150.0642539683
 21
31.3548863163
  0
CIRCLE
  8
0
 62
7
  6
CONTINUOUS
 10
160.0672252798
 20
38.3936027581
 40
2.0901639344
  0
ARC
  8
0
 62
7
  6
CONTINUOUS
 10
151.0098482306
 20
33.9263896433
 40
1.6393442623
 50
180.0
 51
270.0
  0
ARC
  8
0
 62
7
  6
CONTINUOUS
 10
157.4032908536
 20
34.418192922
 40
1.6393442623
 50
0.0
 51
90.0
  0
ARC
  8
0
 62
7
  6
CONTINUOUS
 10
151.4224195792
 20
33.7624552171
 40
1.4754098361
 50
270.0
 51
326.2510114041
  0
ARC
  8
0
 62
7
  6
CONTINUOUS
 10
156.990719505
 20
34.5821273482
 40
1.4754098361
 50
90.0
 51
146.2510114041
  0
ARC
  8
0
 62
7
  6
CONTINUOUS
 10
151.8295203618
 20
34.2542584958
 40
0.8196721311
 50
270.0
 51
360.0
  0
ARC
  8
0
 62
7
  6
CONTINUOUS
 10
156.5836187224
 20
34.0903240696
 40
0.8196721311
 50
90.0
 51
180.0
  0
ARC
  8
0
 62
7
  6
CONTINUOUS
 10
151.1737826569
 20
33.8444224302
 40
0.4098360656
 50
180.0
 51
270.0
  0
ARC
  8
0
 62
7
  6
CONTINUOUS
 10
157.2393564274
 20
34.5001601351
 40
0.4098360656
 50
0.0
 51
90.0
  0
SOLID
  8
0
 62
7
  6
CONTINUOUS
 10
156.0767541889
 20
31.8388420633
 11
156.0767541889
 21
32.0001605469
 12
156.3658162478
 22
31.8388420633
 13
156.3658162478
 23
32.0001605469
  0
SOLID
  8
0
 62
7
  6
CONTINUOUS
 10
150.3533164408
 20
31.5162050961
 11
150.7580039683
 21
31.4839409236
 12
150.0064414821
 22
31.4839409236
 13
150.0064414821
 23
31.4839409236
  0
SOLID
  8
0
 62
7
  6
CONTINUOUS
 10
149.8330039821
 20
31.4516780059
 11
150.0064414821
 21
31.4839409236
 12
150.7580039683
 22
31.4839409236
 13
150.7580039683
 23
31.4839409236
  0
SOLID
  8
0
 62
7
  6
CONTINUOUS
 10
150.7580039683
 20
31.4839409236
 11
150.9892539132
 21
31.4194137026
 12
149.8330039821
 22
31.4516780059
 13
149.8330039821
 23
31.4516780059
  0
SOLID
  8
0
 62
7
  6
CONTINUOUS
 10
149.6595664615
 20
31.3871495108
 11
149.8330039821
 21
31.4516780059
 12
150.9892539132
 22
31.4194137026
 13
150.9892539132
 23
31.4194137026
  0
SOLID
  8
0
 62
7
  6
CONTINUOUS
 10
149.6595664615
 20
31.3871495108
 11
150.9892539132
 21
31.4194137026
 12
150.2955039959
 22
31.3871495108
 13
150.2955039959
 23
31.3871495108
  0
SOLID
  8
0
 62
7
  6
CONTINUOUS
 10
150.2955039959
 20
31.3871495108
 11
150.9892539132
 21
31.4194137026
 12
150.7001914408
 22
31.3548866125
 13
150.7001914408
 23
31.3548866125
  0
SOLID
  8
0
 62
7
  6
CONTINUOUS
 10
150.9892539132
 20
31.4194137026
 11
151.1626914132
 21
31.3226223092
 12
150.7001914408
 22
31.3548866125
 13
150.7001914408
 23
31.3548866125
  0
SOLID
  8
0
 62
7
  6
CONTINUOUS
 10
150.8736290235
 20
31.2903595223
 11
150.7001914408
 21
31.3548866125
 12
151.1626914132
 22
31.3226223092
 13
151.1626914132
 23
31.3226223092
  0
SOLID
  8
0
 62
7
  6
CONTINUOUS
 10
150.8736290235
 20
31.2903595223
 11
151.1626914132
 21
31.3226223092
 12
150.9314414683
 22
31.1935679757
 13
150.9314414683
 23
31.1935679757
  0
SOLID
  8
0
 62
7
  6
CONTINUOUS
 10
151.1626914132
 20
31.3226223092
 11
151.2205040235
 21
31.1935679757
 12
150.9314414683
 22
31.1935679757
 13
150.9314414683
 23
31.1935679757
  0
SOLID
  8
0
 62
7
  6
CONTINUOUS
 10
152.2611288581
 20
31.4839414344
 11
152.4923789683
 21
31.5162057377
 12
152.7236290786
 22
31.5162057377
 13
152.7236290786
 23
31.5162057377
  0
SOLID
  8
0
 62
7
  6
CONTINUOUS
 10
152.7236290786
 20
31.5162057377
 11
152.8970665786
 21
31.4839414344
 12
152.2611288581
 22
31.4839414344
 13
152.2611288581
 23
31.4839414344
  0
SOLID
  8
0
 62
7
  6
CONTINUOUS
 10
152.0876915235
 20
31.4194143443
 11
152.2611288581
 21
31.4839414344
 12
152.8970665786
 22
31.4839414344
 13
152.8970665786
 23
31.4839414344
  0
SOLID
  8
0
 62
7
  6
CONTINUOUS
 10
152.8970665786
 20
31.4839414344
 11
153.0705040786
 21
31.4194143443
 12
152.0876915235
 22
31.4194143443
 13
152.0876915235
 23
31.4194143443
  0
SOLID
  8
0
 62
7
  6
CONTINUOUS
 10
153.0705040786
 20
31.4194143443
 11
152.4923789683
 21
31.3871493993
 12
152.0876915235
 22
31.4194143443
 13
152.0876915235
 23
31.4194143443
  0
SOLID
  8
0
 62
7
  6
CONTINUOUS
 10
151.9720664683
 20
31.3548872541
 11
152.0876915235
 21
31.4194143443
 12
152.4923789683
 22
31.3871493993
 13
152.4923789683
 23
31.3871493993
  0
SOLID
  8
0
 62
7
  6
CONTINUOUS
 10
152.4923789683
 20
31.3871493993
 11
152.2611288581
 21
31.3548872541
 12
151.9720664683
 22
31.3548872541
 13
151.9720664683
 23
31.3548872541
  0
SOLID
  8
0
 62
7
  6
CONTINUOUS
 10
152.4923789683
 20
31.3871493993
 11
153.0705040786
 21
31.4194143443
 12
152.7236290786
 22
31.3548872541
 13
152.7236290786
 23
31.3548872541
  0
SOLID
  8
0
 62
7
  6
CONTINUOUS
 10
153.0705040786
 20
31.4194143443
 11
153.1861289683
 21
31.3548872541
 12
152.7236290786
 22
31.3548872541
 13
152.7236290786
 23
31.3548872541
  0
SOLID
  8
0
 62
7
  6
CONTINUOUS
 10
152.8392539683
 20
31.3226223092
 11
152.7236290786
 21
31.3548872541
 12
153.1861289683
 22
31.3548872541
 13
153.1861289683
 23
31.3548872541
  0
SOLID
  8
0
 62
7
  6
CONTINUOUS
 10
153.1861289683
 20
31.3548872541
 11
153.2439415786
 21
31.2903601639
 12
152.8392539683
 22
31.3226223092
 13
152.8392539683
 23
31.3226223092
  0
SOLID
  8
0
 62
7
  6
CONTINUOUS
 10
152.9548788581
 20
31.258095219
 11
152.8392539683
 21
31.3226223092
 12
153.2439415786
 22
31.2903601639
 13
153.2439415786
 23
31.2903601639
  0
SOLID
  8
0
 62
7
  6
CONTINUOUS
 10
152.9548788581
 20
31.258095219
 11
153.2439415786
 21
31.2903601639
 12
153.0126914683
 22
31.1290416803
 13
153.0126914683
 23
31.1290416803
  0
SOLID
  8
0
 62
7
  6
CONTINUOUS
 10
153.2439415786
 20
31.2903601639
 11
153.3017538581
 21
31.1290416803
 12
153.0126914683
 22
31.1290416803
 13
153.0126914683
 23
31.1290416803
  0
SOLID
  8
0
 62
7
  6
CONTINUOUS
 10
152.2611288581
 20
31.3548872541
 11
152.0876915235
 21
31.2903601639
 12
151.9720664683
 22
31.3548872541
 13
151.9720664683
 23
31.3548872541
  0
SOLID
  8
0
 62
7
  6
CONTINUOUS
 10
152.0876915235
 20
31.2903601639
 11
151.9720664683
 21
31.2258309157
 12
151.9720664683
 22
31.3548872541
 13
151.9720664683
 23
31.3548872541
  0
SOLID
  8
0
 62
7
  6
CONTINUOUS
 10
151.9720664683
 20
31.2258309157
 11
151.6830039132
 21
30.4837677459
 12
151.9720664683
 22
31.3548872541
 13
151.9720664683
 23
31.3548872541
  0
SOLID
  8
0
 62
7
  6
CONTINUOUS
 10
151.9720664683
 20
31.3548872541
 11
151.6830039132
 21
30.4837677459
 12
151.9720664683
 22
32.0001611885
 13
151.9720664683
 23
32.0001611885
  0
SOLID
  8
0
 62
7
  6
CONTINUOUS
 10
151.6830039132
 20
30.4837677459
 11
151.6830039132
 21
32.0001611885
 12
151.9720664683
 22
32.0001611885
 13
151.9720664683
 23
32.0001611885
  0
SOLID
  8
0
 62
7
  6
CONTINUOUS
 10
151.9720664683
 20
31.2258309157
 11
151.9720664683
 21
30.4837677459
 12
151.6830039132
 22
30.4837677459
 13
151.6830039132
 23
30.4837677459
  0
SOLID
  8
0
 62
7
  6
CONTINUOUS
 10
153.0126914683
 20
30.4837677459
 11
153.0126914683
 21
31.1290416803
 12
153.3017538581
 22
31.1290416803
 13
153.3017538581
 23
31.1290416803
  0
SOLID
  8
0
 62
7
  6
CONTINUOUS
 10
153.3017538581
 20
31.1290416803
 11
153.3017538581
 21
30.4837677459
 12
153.0126914683
 22
30.4837677459
 13
153.0126914683
 23
30.4837677459
  0
SOLID
  8
0
 62
7
  6
CONTINUOUS
 10
154.0533164683
 20
31.4839408139
 11
154.4580040786
 21
31.5162048066
 12
154.8048790786
 22
31.5162048066
 13
154.8048790786
 23
31.5162048066
  0
SOLID
  8
0
 62
7
  6
CONTINUOUS
 10
154.8048790786
 20
31.5162048066
 11
155.1517537478
 21
31.4839408139
 12
154.0533164683
 22
31.4839408139
 13
154.0533164683
 23
31.4839408139
  0
SOLID
  8
0
 62
7
  6
CONTINUOUS
 10
153.9376915786
 20
31.4516780059
 11
154.0533164683
 21
31.4839408139
 12
155.1517537478
 22
31.4839408139
 13
155.1517537478
 23
31.4839408139
  0
SOLID
  8
0
 62
7
  6
CONTINUOUS
 10
155.1517537478
 20
31.4839408139
 11
155.3251912478
 21
31.4194137026
 12
153.9376915786
 22
31.4516780059
 13
153.9376915786
 23
31.4516780059
  0
SOLID
  8
0
 62
7
  6
CONTINUOUS
 10
153.8220663581
 20
31.38714961
 11
153.9376915786
 21
31.4516780059
 12
155.3251912478
 22
31.4194137026
 13
155.3251912478
 23
31.4194137026
  0
SOLID
  8
0
 62
7
  6
CONTINUOUS
 10
153.8220663581
 20
31.38714961
 11
155.3251912478
 21
31.4194137026
 12
154.4580040786
 22
31.38714961
 13
154.4580040786
 23
31.38714961
  0
SOLID
  8
0
 62
7
  6
CONTINUOUS
 10
154.4580040786
 20
31.38714961
 11
155.3251912478
 21
31.4194137026
 12
154.8048790786
 22
31.38714961
 13
154.8048790786
 23
31.38714961
  0
SOLID
  8
0
 62
7
  6
CONTINUOUS
 10
154.8048790786
 20
31.38714961
 11
155.3251912478
 21
31.4194137026
 12
155.0361291889
 22
31.3548863916
 13
155.0361291889
 23
31.3548863916
  0
SOLID
  8
0
 62
7
  6
CONTINUOUS
 10
155.3251912478
 20
31.4194137026
 11
155.4408164683
 21
31.3548863916
 12
155.0361291889
 22
31.3548863916
 13
155.0361291889
 23
31.3548863916
  0
SOLID
  8
0
 62
7
  6
CONTINUOUS
 10
153.7642540786
 20
31.3226223989
 11
153.8220663581
 21
31.38714961
 12
154.4580040786
 22
31.38714961
 13
154.4580040786
 23
31.38714961
  0
SOLID
  8
0
 62
7
  6
CONTINUOUS
 10
155.1517537478
 20
31.3226223989
 11
155.0361291889
 21
31.3548863916
 12
155.4408164683
 22
31.3548863916
 13
155.4408164683
 23
31.3548863916
  0
SOLID
  8
0
 62
7
  6
CONTINUOUS
 10
155.1517537478
 20
31.3226223989
 11
155.4408164683
 21
31.3548863916
 12
155.2095666889
 22
31.2580951877
 13
155.2095666889
 23
31.2580951877
  0
SOLID
  8
0
 62
7
  6
CONTINUOUS
 10
155.4408164683
 20
31.3548863916
 11
155.4986287478
 21
31.2580951877
 12
155.2095666889
 22
31.2580951877
 13
155.2095666889
 23
31.2580951877
  0
SOLID
  8
0
 62
7
  6
CONTINUOUS
 10
155.2095666889
 20
31.1613038256
 11
155.2095666889
 21
31.2580951877
 12
155.4986287478
 22
31.2580951877
 13
155.4986287478
 23
31.2580951877
  0
SOLID
  8
0
 62
7
  6
CONTINUOUS
 10
155.2095666889
 20
31.1613038256
 11
155.4986287478
 21
31.2580951877
 12
155.2095666889
 22
31.0322496452
 13
155.2095666889
 23
31.0322496452
  0
SOLID
  8
0
 62
7
  6
CONTINUOUS
 10
155.2095666889
 20
31.0322496452
 11
155.4986287478
 21
31.2580951877
 12
155.2095666889
 22
30.8386672883
 13
155.2095666889
 23
30.8386672883
  0
SOLID
  8
0
 62
7
  6
CONTINUOUS
 10
155.4986287478
 20
31.2580951877
 11
155.4986287478
 21
30.7418754649
 12
155.2095666889
 22
30.8386672883
 13
155.2095666889
 23
30.8386672883
  0
SOLID
  8
0
 62
7
  6
CONTINUOUS
 10
157.4064412478
 20
31.4839405154
 11
157.6376916889
 21
31.5162052351
 12
157.8689414683
 22
31.5162052351
 13
157.8689414683
 23
31.5162052351
  0
SOLID
  8
0
 62
7
  6
CONTINUOUS
 10
157.8689414683
 20
31.5162052351
 11
158.0423789683
 21
31.4839405154
 12
157.4064412478
 22
31.4839405154
 13
157.4064412478
 23
31.4839405154
  0
SOLID
  8
0
 62
7
  6
CONTINUOUS
 10
157.2330037478
 20
31.4194141734
 11
157.4064412478
 21
31.4839405154
 12
158.0423789683
 22
31.4839405154
 13
158.0423789683
 23
31.4839405154
  0
SOLID
  8
0
 62
7
  6
CONTINUOUS
 10
158.0423789683
 20
31.4839405154
 11
158.2158164683
 21
31.4194141734
 12
157.2330037478
 22
31.4194141734
 13
157.2330037478
 23
31.4194141734
  0
SOLID
  8
0
 62
7
  6
CONTINUOUS
 10
158.2158164683
 20
31.4194141734
 11
157.6376916889
 21
31.3871493993
 12
157.2330037478
 22
31.4194141734
 13
157.2330037478
 23
31.4194141734
  0
SOLID
  8
0
 62
7
  6
CONTINUOUS
 10
157.1173791889
 20
31.3548867989
 11
157.2330037478
 21
31.4194141734
 12
157.6376916889
 22
31.3871493993
 13
157.6376916889
 23
31.3871493993
  0
SOLID
  8
0
 62
7
  6
CONTINUOUS
 10
157.6376916889
 20
31.3871493993
 11
157.4064412478
 21
31.3548867989
 12
157.1173791889
 22
31.3548867989
 13
157.1173791889
 23
31.3548867989
  0
SOLID
  8
0
 62
7
  6
CONTINUOUS
 10
157.6376916889
 20
31.3871493993
 11
158.2158164683
 21
31.4194141734
 12
157.8689414683
 22
31.3548867989
 13
157.8689414683
 23
31.3548867989
  0
SOLID
  8
0
 62
7
  6
CONTINUOUS
 10
158.2158164683
 20
31.4194141734
 11
158.3314416889
 21
31.3548867989
 12
157.8689414683
 22
31.3548867989
 13
157.8689414683
 23
31.3548867989
  0
SOLID
  8
0
 62
7
  6
CONTINUOUS
 10
157.9845666889
 20
31.3226223092
 11
157.8689414683
 21
31.3548867989
 12
158.3314416889
 22
31.3548867989
 13
158.3314416889
 23
31.3548867989
  0
SOLID
  8
0
 62
7
  6
CONTINUOUS
 10
157.9845666889
 20
31.3226223092
 11
158.3314416889
 21
31.3548867989
 12
158.1001912478
 22
31.2580947047
 13
158.1001912478
 23
31.2580947047
  0
SOLID
  8
0
 62
7
  6
CONTINUOUS
 10
158.3314416889
 20
31.3548867989
 11
158.3892539683
 21
31.2580947047
 12
158.1001912478
 22
31.2580947047
 13
158.1001912478
 23
31.2580947047
  0
SOLID
  8
0
 62
7
  6
CONTINUOUS
 10
158.1580041889
 20
31.0967762685
 11
158.1001912478
 21
31.2580947047
 12
158.3892539683
 22
31.2580947047
 13
158.3892539683
 23
31.2580947047
  0
SOLID
  8
0
 62
7
  6
CONTINUOUS
 10
158.3892539683
 20
31.2580947047
 11
158.4470662478
 21
31.0967762685
 12
158.1580041889
 22
31.0967762685
 13
158.1580041889
 23
31.0967762685
  0
SOLID
  8
0
 62
7
  6
CONTINUOUS
 10
157.4064412478
 20
31.3548867989
 11
157.2330037478
 21
31.2903595223
 12
157.1173791889
 22
31.3548867989
 13
157.1173791889
 23
31.3548867989
  0
SOLID
  8
0
 62
7
  6
CONTINUOUS
 10
157.2330037478
 20
31.2903595223
 11
157.1173791889
 21
31.2258309157
 12
157.1173791889
 22
31.3548867989
 13
157.1173791889
 23
31.3548867989
  0
SOLID
  8
0
 62
7
  6
CONTINUOUS
 10
157.1173791889
 20
31.2258309157
 11
156.8283164683
 21
30.4837672433
 12
157.1173791889
 22
31.3548867989
 13
157.1173791889
 23
31.3548867989
  0
SOLID
  8
0
 62
7
  6
CONTINUOUS
 10
157.1173791889
 20
31.3548867989
 11
156.8283164683
 21
30.4837672433
 12
157.1173791889
 22
31.5162052351
 13
157.1173791889
 23
31.5162052351
  0
SOLID
  8
0
 62
7
  6
CONTINUOUS
 10
156.8283164683
 20
30.4837672433
 11
156.8283164683
 21
31.5162052351
 12
157.1173791889
 22
31.5162052351
 13
157.1173791889
 23
31.5162052351
  0
SOLID
  8
0
 62
7
  6
CONTINUOUS
 10
157.1173791889
 20
31.2258309157
 11
157.1173791889
 21
30.4837672433
 12
156.8283164683
 22
30.4837672433
 13
156.8283164683
 23
30.4837672433
  0
SOLID
  8
0
 62
7
  6
CONTINUOUS
 10
158.1580041889
 20
30.4837672433
 11
158.1580041889
 21
31.0967762685
 12
158.4470662478
 22
31.0967762685
 13
158.4470662478
 23
31.0967762685
  0
SOLID
  8
0
 62
7
  6
CONTINUOUS
 10
158.4470662478
 20
31.0967762685
 11
158.4470662478
 21
30.4837672433
 12
158.1580041889
 22
30.4837672433
 13
158.1580041889
 23
30.4837672433
  0
SOLID
  8
0
 62
7
  6
CONTINUOUS
 10
159.2564414683
 20
31.4839408138
 11
159.6033164683
 21
31.5162050633
 12
159.9501914683
 22
31.5162050633
 13
159.9501914683
 23
31.5162050633
  0
SOLID
  8
0
 62
7
  6
CONTINUOUS
 10
159.9501914683
 20
31.5162050633
 11
160.2970664683
 21
31.4839408138
 12
159.2564414683
 22
31.4839408138
 13
159.2564414683
 23
31.4839408138
  0
SOLID
  8
0
 62
7
  6
CONTINUOUS
 10
159.0251916889
 20
31.4194137026
 11
159.2564414683
 21
31.4839408138
 12
160.2970664683
 22
31.4839408138
 13
160.2970664683
 23
31.4839408138
  0
SOLID
  8
0
 62
7
  6
CONTINUOUS
 10
159.0251916889
 20
31.4194137026
 11
160.2970664683
 21
31.4839407928
 12
160.4705039683
 22
31.4516780059
 13
160.4705039683
 23
31.4516780059
  0
SOLID
  8
0
 62
7
  6
CONTINUOUS
 10
159.0251916889
 20
31.4194137026
 11
160.4705039683
 21
31.4516780059
 12
159.6033164683
 22
31.3871494664
 13
159.6033164683
 23
31.3871494664
  0
SOLID
  8
0
 62
7
  6
CONTINUOUS
 10
159.6033164683
 20
31.3871494664
 11
160.4705039683
 21
31.4516780059
 12
159.9501914683
 22
31.3871494664
 13
159.9501914683
 23
31.3871494664
  0
SOLID
  8
0
 62
7
  6
CONTINUOUS
 10
160.4705039683
 20
31.4516780059
 11
160.6439414683
 21
31.3871494664
 12
159.9501914683
 22
31.3871494664
 13
159.9501914683
 23
31.3871494664
  0
SOLID
  8
0
 62
7
  6
CONTINUOUS
 10
160.2970664683
 20
31.3548866125
 11
159.9501914683
 21
31.3871494664
 12
160.6439414683
 22
31.3871494664
 13
160.6439414683
 23
31.3871494664
  0
SOLID
  8
0
 62
7
  6
CONTINUOUS
 10
158.9095664683
 20
31.3226222241
 11
159.0251916889
 21
31.4194137026
 12
159.6033164683
 22
31.3871494664
 13
159.6033164683
 23
31.3871494664
  0
SOLID
  8
0
 62
7
  6
CONTINUOUS
 10
160.2970664683
 20
31.3548866125
 11
160.6439414683
 21
31.3871494664
 12
160.4126916889
 22
31.3226222241
 13
160.4126916889
 23
31.3226222241
  0
SOLID
  8
0
 62
7
  6
CONTINUOUS
 10
160.4126916889
 20
31.3226222241
 11
160.6439414683
 21
31.3871494664
 12
160.4705039683
 22
31.2580952077
 13
160.4705039683
 23
31.2580952077
  0
SOLID
  8
0
 62
7
  6
CONTINUOUS
 10
160.6439414683
 20
31.3871494664
 11
160.7595660273
 21
31.2580952077
 12
160.4705039683
 22
31.2580952077
 13
160.4705039683
 23
31.2580952077
  0
SOLID
  8
0
 62
7
  6
CONTINUOUS
 10
150.0642539683
 20
31.3548866125
 11
149.5439414683
 21
31.3226222809
 12
150.2955039959
 22
31.3871493065
 13
150.2955039959
 23
31.3871493065
  0
SOLID
  8
0
 62
7
  6
CONTINUOUS
 10
149.5439414683
 20
31.3226222809
 11
149.6595664615
 21
31.3871493065
 12
150.2955039959
 22
31.3871493065
 13
150.2955039959
 23
31.3871493065
  0
SOLID
  8
0
 62
7
  6
CONTINUOUS
 10
150.0642539683
 20
31.3548866125
 11
149.9486289546
 21
31.3226222809
 12
149.5439414683
 22
31.3226222809
 13
149.5439414683
 23
31.3226222809
  0
SOLID
  8
0
 62
7
  6
CONTINUOUS
 10
149.4283164701
 20
31.1935681288
 11
149.5439414683
 21
31.3226222809
 12
149.9486289546
 22
31.3226222809
 13
149.9486289546
 23
31.3226222809
  0
SOLID
  8
0
 62
7
  6
CONTINUOUS
 10
153.7642540786
 20
31.3226222809
 11
154.4580040786
 21
31.3871493993
 12
154.2267539683
 22
31.3548866125
 13
154.2267539683
 23
31.3548866125
  0
SOLID
  8
0
 62
7
  6
CONTINUOUS
 10
154.2267539683
 20
31.3548866125
 11
154.1111290786
 21
31.3226222809
 12
153.7642540786
 22
31.3226222809
 13
153.7642540786
 23
31.3226222809
  0
SOLID
  8
0
 62
7
  6
CONTINUOUS
 10
153.7642540786
 20
31.2580951907
 11
153.7642540786
 21
31.3226222809
 12
154.1111290786
 22
31.3226222809
 13
154.1111290786
 23
31.3226222809
  0
SOLID
  8
0
 62
7
  6
CONTINUOUS
 10
154.1111290786
 20
31.3226222809
 11
154.0533164683
 21
31.2580951907
 12
153.7642540786
 22
31.2580951907
 13
153.7642540786
 23
31.2580951907
  0
SOLID
  8
0
 62
7
  6
CONTINUOUS
 10
158.9095664683
 20
31.32262241
 11
159.6033164683
 21
31.3871493993
 12
159.3720666889
 22
31.3548866125
 13
159.3720666889
 23
31.3548866125
  0
SOLID
  8
0
 62
7
  6
CONTINUOUS
 10
159.3720666889
 20
31.3548866125
 11
159.2564414683
 21
31.32262241
 12
158.9095664683
 22
31.32262241
 13
158.9095664683
 23
31.32262241
  0
SOLID
  8
0
 62
7
  6
CONTINUOUS
 10
158.9095664683
 20
31.2580953198
 11
158.9095664683
 21
31.32262241
 12
159.2564414683
 22
31.32262241
 13
159.2564414683
 23
31.32262241
  0
SOLID
  8
0
 62
7
  6
CONTINUOUS
 10
159.2564414683
 20
31.32262241
 11
159.1986291889
 21
31.2580953198
 12
158.9095664683
 22
31.2580953198
 13
158.9095664683
 23
31.2580953198
  0
SOLID
  8
0
 62
7
  6
CONTINUOUS
 10
159.0251916889
 20
31.1290410387
 11
158.9095664683
 21
31.2580953198
 12
159.1986291889
 22
31.2580953198
 13
159.1986291889
 23
31.2580953198
  0
SOLID
  8
0
 62
7
  6
CONTINUOUS
 10
149.4283164701
 20
31.1935681288
 11
149.9486289546
 21
31.3226223092
 12
149.7751914546
 22
31.2258309157
 13
149.7751914546
 23
31.2258309157
  0
SOLID
  8
0
 62
7
  6
CONTINUOUS
 10
149.7751914546
 20
31.2258309157
 11
149.7173789683
 21
31.1613038256
 12
149.4283164701
 22
31.1935681288
 13
149.4283164701
 23
31.1935681288
  0
SOLID
  8
0
 62
7
  6
CONTINUOUS
 10
149.3705039683
 20
30.999985342
 11
149.4283164701
 21
31.1935681288
 12
149.7173789683
 22
31.1613038256
 13
149.7173789683
 23
31.1613038256
  0
SOLID
  8
0
 62
7
  6
CONTINUOUS
 10
154.2267539683
 20
31.1290410387
 11
154.5736289683
 21
31.1613037812
 12
155.2095666889
 22
31.1613037812
 13
155.2095666889
 23
31.1613037812
  0
SOLID
  8
0
 62
7
  6
CONTINUOUS
 10
154.2267539683
 20
31.1290410387
 11
155.2095666889
 21
31.1613037812
 12
153.9955038581
 22
31.0645131385
 13
153.9955038581
 23
31.0645131385
  0
SOLID
  8
0
 62
7
  6
CONTINUOUS
 10
153.9955038581
 20
31.0645131385
 11
155.2095666889
 21
31.1613037812
 12
154.5736289683
 22
31.0322496008
 13
154.5736289683
 23
31.0322496008
  0
SOLID
  8
0
 62
7
  6
CONTINUOUS
 10
155.2095666889
 20
31.1613037812
 11
155.2095666889
 21
31.0322496008
 12
154.5736289683
 22
31.0322496008
 13
154.5736289683
 23
31.0322496008
  0
SOLID
  8
0
 62
7
  6
CONTINUOUS
 10
159.0251916889
 20
31.1290409764
 11
159.1986291889
 21
31.258095219
 12
159.2564414683
 22
31.1935681288
 13
159.2564414683
 23
31.1935681288
  0
SOLID
  8
0
 62
7
  6
CONTINUOUS
 10
159.2564414683
 20
31.1935681288
 11
159.4298789683
 21
31.1290409764
 12
159.0251916889
 22
31.1290409764
 13
159.0251916889
 23
31.1290409764
  0
SOLID
  8
0
 62
7
  6
CONTINUOUS
 10
159.2564414683
 20
31.0322496452
 11
159.0251916889
 21
31.1290409764
 12
159.4298789683
 22
31.1290409764
 13
159.4298789683
 23
31.1290409764
  0
SOLID
  8
0
 62
7
  6
CONTINUOUS
 10
159.4298789683
 20
31.1290409764
 11
160.4126916889
 21
30.9677225551
 12
159.2564414683
 22
31.0322496452
 13
159.2564414683
 23
31.0322496452
  0
SOLID
  8
0
 62
7
  6
CONTINUOUS
 10
160.2392541889
 20
30.8709310886
 11
159.2564414683
 21
31.0322496452
 12
160.4126916889
 22
30.9677225551
 13
160.4126916889
 23
30.9677225551
  0
SOLID
  8
0
 62
7
  6
CONTINUOUS
 10
160.4126916889
 20
30.9677225551
 11
160.6439414683
 21
30.8709310886
 12
160.2392541889
 22
30.8709310886
 13
160.2392541889
 23
30.8709310886
  0
SOLID
  8
0
 62
7
  6
CONTINUOUS
 10
160.4126916889
 20
30.8064040715
 11
160.2392541889
 21
30.8709310886
 12
160.6439414683
 22
30.8709310886
 13
160.6439414683
 23
30.8709310886
  0
SOLID
  8
0
 62
7
  6
CONTINUOUS
 10
160.4126916889
 20
30.8064040715
 11
160.6439414683
 21
30.8709310886
 12
160.4705039683
 22
30.7418753703
 13
160.4705039683
 23
30.7418753703
  0
SOLID
  8
0
 62
7
  6
CONTINUOUS
 10
160.6439414683
 20
30.8709310886
 11
160.7595660273
 21
30.7418753703
 12
160.4705039683
 22
30.7418753703
 13
160.4705039683
 23
30.7418753703
  0
SOLID
  8
0
 62
7
  6
CONTINUOUS
 10
160.4126916889
 20
30.6773482855
 11
160.4705039683
 21
30.7418753703
 12
160.7595660273
 22
30.7418753703
 13
160.7595660273
 23
30.7418753703
  0
SOLID
  8
0
 62
7
  6
CONTINUOUS
 10
160.7595660273
 20
30.7418753703
 11
160.7595660273
 21
30.6773482855
 12
160.4126916889
 22
30.6773482855
 13
160.4126916889
 23
30.6773482855
  0
SOLID
  8
0
 62
7
  6
CONTINUOUS
 10
160.2970664683
 20
30.6450855879
 11
160.4126916889
 21
30.6773482855
 12
160.7595660273
 22
30.6773482855
 13
160.7595660273
 23
30.6773482855
  0
SOLID
  8
0
 62
7
  6
CONTINUOUS
 10
160.2970664683
 20
30.6450855879
 11
160.7595660273
 21
30.6773482855
 12
160.0658166889
 22
30.6128212008
 13
160.0658166889
 23
30.6128212008
  0
SOLID
  8
0
 62
7
  6
CONTINUOUS
 10
160.7595660273
 20
30.6773482855
 11
160.6439414683
 21
30.5805584977
 12
160.0658166889
 22
30.6128212008
 13
160.0658166889
 23
30.6128212008
  0
SOLID
  8
0
 62
7
  6
CONTINUOUS
 10
160.6439414683
 20
30.5805584977
 11
159.1986291889
 21
30.5482941944
 12
160.0658166889
 22
30.6128212008
 13
160.0658166889
 23
30.6128212008
  0
SOLID
  8
0
 62
7
  6
CONTINUOUS
 10
160.0658166889
 20
30.6128212008
 11
159.1986291889
 21
30.5482941944
 12
159.7189416889
 22
30.6128212008
 13
159.7189416889
 23
30.6128212008
  0
SOLID
  8
0
 62
7
  6
CONTINUOUS
 10
159.1986291889
 20
30.5482941944
 11
159.0251916889
 21
30.6128212008
 12
159.7189416889
 22
30.6128212008
 13
159.7189416889
 23
30.6128212008
  0
SOLID
  8
0
 62
7
  6
CONTINUOUS
 10
159.1986291889
 20
30.5482941944
 11
160.6439414683
 21
30.5805584977
 12
159.3720666889
 22
30.5160301864
 13
159.3720666889
 23
30.5160301864
  0
SOLID
  8
0
 62
7
  6
CONTINUOUS
 10
160.6439414683
 20
30.5805584977
 11
160.4126916889
 21
30.5160301864
 12
159.3720666889
 22
30.5160301864
 13
159.3720666889
 23
30.5160301864
  0
SOLID
  8
0
 62
7
  6
CONTINUOUS
 10
159.7189416889
 20
30.4837670312
 11
159.3720666889
 21
30.5160301864
 12
160.4126916889
 22
30.5160301864
 13
160.4126916889
 23
30.5160301864
  0
SOLID
  8
0
 62
7
  6
CONTINUOUS
 10
160.4126916889
 20
30.5160301864
 11
160.0658166889
 21
30.4837670312
 12
159.7189416889
 22
30.4837670312
 13
159.7189416889
 23
30.4837670312
  0
SOLID
  8
0
 62
7
  6
CONTINUOUS
 10
149.3705039683
 20
30.999985342
 11
149.7173789683
 21
31.1613038256
 12
149.6595664615
 22
31.0322496452
 13
149.6595664615
 23
31.0322496452
  0
SOLID
  8
0
 62
7
  6
CONTINUOUS
 10
149.6595664615
 20
31.0322496452
 11
149.6595664615
 21
30.9354583476
 12
149.3705039683
 22
30.999985342
 13
149.3705039683
 23
30.999985342
  0
SOLID
  8
0
 62
7
  6
CONTINUOUS
 10
149.4283164701
 20
30.8064040715
 11
149.3705039683
 21
30.999985342
 12
149.6595664615
 22
30.9354583476
 13
149.6595664615
 23
30.9354583476
  0
SOLID
  8
0
 62
7
  6
CONTINUOUS
 10
149.6595664615
 20
30.9354583476
 11
149.7751914546
 21
30.7741397682
 12
149.4283164701
 22
30.8064040715
 13
149.4283164701
 23
30.8064040715
  0
SOLID
  8
0
 62
7
  6
CONTINUOUS
 10
149.5439414683
 20
30.6773485435
 11
149.4283164701
 21
30.8064040715
 12
149.7751914546
 22
30.7741397682
 13
149.7751914546
 23
30.7741397682
  0
SOLID
  8
0
 62
7
  6
CONTINUOUS
 10
149.7751914546
 20
30.7741397682
 11
149.9486289546
 21
30.6773485435
 12
149.5439414683
 22
30.6773485435
 13
149.5439414683
 23
30.6773485435
  0
SOLID
  8
0
 62
7
  6
CONTINUOUS
 10
149.6595664615
 20
30.6128213107
 11
149.5439414683
 21
30.6773485435
 12
149.9486289546
 22
30.6773485435
 13
149.9486289546
 23
30.6773485435
  0
SOLID
  8
0
 62
7
  6
CONTINUOUS
 10
149.9486289546
 20
30.6773485435
 11
150.2955039959
 21
30.6128213107
 12
149.6595664615
 22
30.6128213107
 13
149.6595664615
 23
30.6128213107
  0
SOLID
  8
0
 62
7
  6
CONTINUOUS
 10
149.8330039821
 20
30.5482941944
 11
149.6595664615
 21
30.6128213107
 12
150.2955039959
 22
30.6128213107
 13
150.2955039959
 23
30.6128213107
  0
SOLID
  8
0
 62
7
  6
CONTINUOUS
 10
153.8798789683
 20
30.9999852815
 11
153.9955038581
 21
31.0645131385
 12
154.5736289683
 22
31.0322496452
 13
154.5736289683
 23
31.0322496452
  0
SOLID
  8
0
 62
7
  6
CONTINUOUS
 10
154.5736289683
 20
31.0322496452
 11
154.3423788581
 21
30.9999852815
 12
153.8798789683
 22
30.9999852815
 13
153.8798789683
 23
30.9999852815
  0
SOLID
  8
0
 62
7
  6
CONTINUOUS
 10
153.7642540786
 20
30.8709311616
 11
153.8798789683
 21
30.9999852815
 12
154.3423788581
 22
30.9999852815
 13
154.3423788581
 23
30.9999852815
  0
SOLID
  8
0
 62
7
  6
CONTINUOUS
 10
154.1111290786
 20
30.9031946612
 11
153.7642540786
 21
30.8709311616
 12
154.2267539683
 22
30.9677225551
 13
154.2267539683
 23
30.9677225551
  0
SOLID
  8
0
 62
7
  6
CONTINUOUS
 10
153.7642540786
 20
30.8709311616
 11
154.3423788581
 21
30.999985342
 12
154.2267539683
 22
30.9677225551
 13
154.2267539683
 23
30.9677225551
  0
SOLID
  8
0
 62
7
  6
CONTINUOUS
 10
154.1111290786
 20
30.9031946612
 11
154.0533164683
 21
30.8064040715
 12
153.7642540786
 22
30.8709311616
 13
153.7642540786
 23
30.8709311616
  0
SOLID
  8
0
 62
7
  6
CONTINUOUS
 10
153.7642540786
 20
30.7741397682
 11
153.7642540786
 21
30.8709311616
 12
154.0533164683
 22
30.8064040715
 13
154.0533164683
 23
30.8064040715
  0
SOLID
  8
0
 62
7
  6
CONTINUOUS
 10
154.0533164683
 20
30.8064040715
 11
154.0533164683
 21
30.7418754649
 12
153.7642540786
 22
30.7741397682
 13
153.7642540786
 23
30.7741397682
  0
SOLID
  8
0
 62
7
  6
CONTINUOUS
 10
153.8220663581
 20
30.6450855879
 11
153.7642540786
 21
30.7741397682
 12
154.0533164683
 22
30.7418754649
 13
154.0533164683
 23
30.7418754649
  0
SOLID
  8
0
 62
7
  6
CONTINUOUS
 10
155.2095666889
 20
30.8386672883
 11
155.4986287478
 21
30.7418754649
 12
155.1517537478
 22
30.7741397682
 13
155.1517537478
 23
30.7741397682
  0
SOLID
  8
0
 62
7
  6
CONTINUOUS
 10
154.9783162478
 20
30.6773483748
 11
155.1517537478
 21
30.7741397682
 12
155.4986287478
 22
30.7418754649
 13
155.4986287478
 23
30.7418754649
  0
SOLID
  8
0
 62
7
  6
CONTINUOUS
 10
154.9783162478
 20
30.6773483748
 11
155.4986287478
 21
30.7418754649
 12
155.2095666889
 22
30.6450855879
 13
155.2095666889
 23
30.6450855879
  0
SOLID
  8
0
 62
7
  6
CONTINUOUS
 10
155.4986287478
 20
30.7418754649
 11
155.5564416889
 21
30.5805584977
 12
155.2095666889
 22
30.6450855879
 13
155.2095666889
 23
30.6450855879
  0
SOLID
  8
0
 62
7
  6
CONTINUOUS
 10
155.2673789683
 20
30.5482941944
 11
155.2095666889
 21
30.6450855879
 12
155.5564416889
 22
30.5805584977
 13
155.5564416889
 23
30.5805584977
  0
SOLID
  8
0
 62
7
  6
CONTINUOUS
 10
155.2673789683
 20
30.5482941944
 11
155.5564416889
 21
30.5805584977
 12
155.3251912478
 22
30.4837669548
 13
155.3251912478
 23
30.4837669548
  0
SOLID
  8
0
 62
7
  6
CONTINUOUS
 10
155.5564416889
 20
30.5805584977
 11
155.6142539683
 21
30.4837669548
 12
155.3251912478
 22
30.4837669548
 13
155.3251912478
 23
30.4837669548
  0
SOLID
  8
0
 62
7
  6
CONTINUOUS
 10
150.8736290235
 20
30.7096125201
 11
150.9314414683
 21
30.8064039377
 12
151.2205040235
 22
30.8064039377
 13
151.2205040235
 23
30.8064039377
  0
SOLID
  8
0
 62
7
  6
CONTINUOUS
 10
151.2205040235
 20
30.8064039377
 11
151.1626914132
 21
30.6773483748
 12
150.8736290235
 22
30.7096125201
 13
150.8736290235
 23
30.7096125201
  0
SOLID
  8
0
 62
7
  6
CONTINUOUS
 10
150.7001914408
 20
30.6450855879
 11
150.8736290235
 21
30.7096125201
 12
151.1626914132
 22
30.6773483748
 13
151.1626914132
 23
30.6773483748
  0
SOLID
  8
0
 62
7
  6
CONTINUOUS
 10
150.7001914408
 20
30.6450855879
 11
151.1626914132
 21
30.6773483748
 12
150.2955039959
 22
30.6128212846
 13
150.2955039959
 23
30.6128212846
  0
SOLID
  8
0
 62
7
  6
CONTINUOUS
 10
151.1626914132
 20
30.6773483748
 11
150.9892539132
 21
30.5805584977
 12
150.2955039959
 22
30.6128212846
 13
150.2955039959
 23
30.6128212846
  0
SOLID
  8
0
 62
7
  6
CONTINUOUS
 10
149.8330039821
 20
30.5482941944
 11
150.2955039959
 21
30.6128212846
 12
150.9892539132
 22
30.5805584977
 13
150.9892539132
 23
30.5805584977
  0
SOLID
  8
0
 62
7
  6
CONTINUOUS
 10
149.8330039821
 20
30.5482941944
 11
150.9892539132
 21
30.5805584977
 12
150.0064414821
 22
30.5160300219
 13
150.0064414821
 23
30.5160300219
  0
SOLID
  8
0
 62
7
  6
CONTINUOUS
 10
150.9892539132
 20
30.5805584977
 11
150.7580039683
 21
30.5160300219
 12
150.0064414821
 22
30.5160300219
 13
150.0064414821
 23
30.5160300219
  0
SOLID
  8
0
 62
7
  6
CONTINUOUS
 10
150.3533164408
 20
30.4837671043
 11
150.0064414821
 21
30.5160300219
 12
150.7580039683
 22
30.5160300219
 13
150.7580039683
 23
30.5160300219
  0
SOLID
  8
0
 62
7
  6
CONTINUOUS
 10
153.8220663581
 20
30.6450855879
 11
154.0533164683
 21
30.7418754649
 12
154.1111290786
 22
30.6773483748
 13
154.1111290786
 23
30.6773483748
  0
SOLID
  8
0
 62
7
  6
CONTINUOUS
 10
154.1111290786
 20
30.6773483748
 11
154.3423788581
 21
30.6128212846
 12
153.8220663581
 22
30.6450855879
 13
153.8220663581
 23
30.6450855879
  0
SOLID
  8
0
 62
7
  6
CONTINUOUS
 10
153.9955038581
 20
30.5482941944
 11
153.8220663581
 21
30.6450855879
 12
154.3423788581
 22
30.6128212846
 13
154.3423788581
 23
30.6128212846
  0
SOLID
  8
0
 62
7
  6
CONTINUOUS
 10
154.6892538581
 20
30.6128213209
 11
154.9783162478
 21
30.6773483748
 12
155.2095666889
 22
30.6450855879
 13
155.2095666889
 23
30.6450855879
  0
SOLID
  8
0
 62
7
  6
CONTINUOUS
 10
155.2095666889
 20
30.6450855879
 11
155.1517537478
 21
30.5805584977
 12
154.6892538581
 22
30.6128213209
 13
154.6892538581
 23
30.6128213209
  0
SOLID
  8
0
 62
7
  6
CONTINUOUS
 10
155.1517537478
 20
30.5805584977
 11
153.9955038581
 21
30.5482941944
 12
154.6892538581
 22
30.6128213209
 13
154.6892538581
 23
30.6128213209
  0
SOLID
  8
0
 62
7
  6
CONTINUOUS
 10
153.9955038581
 20
30.5482941944
 11
154.3423788581
 21
30.6128213209
 12
154.6892538581
 22
30.6128213209
 13
154.6892538581
 23
30.6128213209
  0
SOLID
  8
0
 62
7
  6
CONTINUOUS
 10
153.9955038581
 20
30.5482941944
 11
155.1517537478
 21
30.5805584977
 12
154.1111290786
 22
30.5160299113
 13
154.1111290786
 23
30.5160299113
  0
SOLID
  8
0
 62
7
  6
CONTINUOUS
 10
155.1517537478
 20
30.5805584977
 11
154.9783162478
 21
30.5160299113
 12
154.1111290786
 22
30.5160299113
 13
154.1111290786
 23
30.5160299113
  0
SOLID
  8
0
 62
7
  6
CONTINUOUS
 10
154.3423788581
 20
30.483767076
 11
154.1111290786
 21
30.5160299113
 12
154.9783162478
 22
30.5160299113
 13
154.9783162478
 23
30.5160299113
  0
SOLID
  8
0
 62
7
  6
CONTINUOUS
 10
154.9783162478
 20
30.5160299113
 11
154.6892538581
 21
30.483767076
 12
154.3423788581
 22
30.483767076
 13
154.3423788581
 23
30.483767076
  0
SOLID
  8
0
 62
7
  6
CONTINUOUS
 10
159.3720666889
 20
30.6450855879
 11
159.0251916889
 21
30.6128213209
 12
159.2564414683
 22
30.6773483748
 13
159.2564414683
 23
30.6773483748
  0
SOLID
  8
0
 62
7
  6
CONTINUOUS
 10
159.2564414683
 20
30.6773483748
 11
159.0251916889
 21
30.6128213209
 12
159.1986291889
 22
30.7418755012
 13
159.1986291889
 23
30.7418755012
  0
SOLID
  8
0
 62
7
  6
CONTINUOUS
 10
159.0251916889
 20
30.6128213209
 11
158.9095664683
 21
30.7418755012
 12
159.1986291889
 22
30.7418755012
 13
159.1986291889
 23
30.7418755012
  0
SOLID
  8
0
 62
7
  6
CONTINUOUS
 10
159.3720666889
 20
30.6450855879
 11
159.7189416889
 21
30.6128213209
 12
159.0251916889
 22
30.6128213209
 13
159.0251916889
 23
30.6128213209
  0
SOLID
  8
0
 62
7
  6
CONTINUOUS
 10
156.0767541889
 20
30.4837671043
 11
156.0767541889
 21
31.5162050961
 12
156.3658162478
 22
30.4837671043
 13
156.3658162478
 23
31.5162050961
  0
ENDBLK
  8
0
  6
BYBLOCK
 62
0
  0
BLOCK
  8
0
 62
2
  6
CONTINUOUS
  2
SYMBOL_3_BL0
 70
64
 10
31.7740840678
 20
19.9150776578
  0
TEXT
  8
0
 62
7
  6
CONTINUOUS
 10
18.0387879101
 20
19.2884917655
  7
TEXTSTYLE_3
 40
2.7338706658
  1
Ammeraal Beltech
 41
1.0
 51
15.0
 72
0
  0
TEXT
  8
0
 62
7
  6
CONTINUOUS
 10
28.8395887358
 20
17.0149550926
  7
TEXTSTYLE_4
 40
1.0935482663
  1
Innovation & Service in Belting
 41
1.0
 72
0
  0
LINE
  8
0
 62
7
  6
CONTINUOUS
 10
12.0142472588
 20
20.055085074
 11
12.7923992521
 21
23.7160023717
  0
LINE
  8
0
 62
7
  6
CONTINUOUS
 10
22.8875675419
 20
27.3793962833
 11
13.2802169951
 21
24.257778862
  0
LINE
  8
0
 62
7
  6
CONTINUOUS
 10
12.2395305911
 20
19.361734271
 11
19.7466058522
 21
12.602333345
  0
LINE
  8
0
 62
7
  6
CONTINUOUS
 10
12.5020650018
 20
20.5968615644
 11
23.310334367
 21
24.1086811633
  0
LINE
  8
0
 62
7
  6
CONTINUOUS
 10
23.3061292298
 20
13.7588925996
 11
14.860669561
 21
21.3632186413
  0
LINE
  8
0
 62
7
  6
CONTINUOUS
 10
23.8259519496
 20
26.5344711676
 11
22.8493924124
 21
21.9401197651
  0
LINE
  8
0
 62
7
  6
CONTINUOUS
 10
22.1495904647
 20
18.6478104513
 11
21.4631422532
 21
15.4183255269
  0
LINE
  8
0
 62
7
  6
CONTINUOUS
 10
24.5070480481
 20
14.1490947773
 11
25.4632795838
 21
18.6478104513
  0
LINE
  8
0
 62
7
  6
CONTINUOUS
 10
26.1630815315
 20
21.9401197651
 11
26.6073233338
 21
24.0301131245
  0
LINE
  8
0
 62
7
  6
CONTINUOUS
 10
20.4597069275
 20
12.4507590323
 11
24.0192303051
 21
13.6073182869
  0
LINE
  8
0
 62
7
  6
CONTINUOUS
 10
23.6006686173
 20
27.2278219706
 11
26.3820400015
 21
24.7234639276
  0
ARC
  8
0
 62
7
  6
CONTINUOUS
 10
13.5055003274
 20
23.564428059
 40
0.7290321776
 50
108.0
 51
168.0
  0
ARC
  8
0
 62
7
  6
CONTINUOUS
 10
23.1128508743
 20
26.6860454803
 40
0.7290321776
 50
348.0
 51
108.0
  0
ARC
  8
0
 62
7
  6
CONTINUOUS
 10
25.8942222585
 20
24.1816874372
 40
0.7290321776
 50
348.0
 51
48.0
  0
ARC
  8
0
 62
7
  6
CONTINUOUS
 10
20.2344235952
 20
13.1441098354
 40
0.7290321776
 50
228.0
 51
288.0
  0
ARC
  8
0
 62
7
  6
CONTINUOUS
 10
12.7273483341
 20
19.9035107613
 40
0.7290321776
 50
108.0
 51
228.0
  0
ARC
  8
0
 62
7
  6
CONTINUOUS
 10
23.7939469728
 20
14.30066909
 40
0.7290321776
 50
228.0
 51
348.0
  0
ENDBLK
  8
0
  6
BYBLOCK
 62
0
  0
ENDSEC
  0
SECTION
  2
ENTITIES
  0
TEXT
  8
0
 62
5
  6
CONTINUOUS
 10
96.0
 20
25.636
  7
TEXTSTYLE_2
 40
2.8
  1
Scale :
 41
0.6
 51
0.000019
 72
0
  0
TEXT
  8
0
 62
5
  6
CONTINUOUS
 10
116.0
 20
25.636
  7
TEXTSTYLE_2
 40
2.8
  1
Chain type:
 41
0.6
 51
0.000019
 72
0
  0
INSERT
  8
0
 62
2
  6
CONTINUOUS
  2
SYMBOL_3_BL0
 10
31.7740840678
 20
19.9150776578
  0
INSERT
  8
0
 62
2
  6
CONTINUOUS
  2
SYMBOL_11_BL1
 10
173.3924355793
 20
35.4837666925
  0
LINE
  8
0
 62
2
  6
CONTINUOUS
 10
10.0
 20
30.0
 11
200.0
 21
30.0
  0
LINE
  8
0
 62
2
  6
CONTINUOUS
 10
10.0
 20
30.0
 11
10.0
 21
10.0
  0
LINE
  8
0
 62
2
  6
CONTINUOUS
 10
10.0
 20
10.0
 11
200.0
 21
10.0
  0
LINE
  8
0
 62
2
  6
CONTINUOUS
 10
95.0
 20
30.0
 11
95.0
 21
10.0
  0
LINE
  8
0
 62
2
  6
CONTINUOUS
 10
115.0
 20
30.0
 11
115.0
 21
10.0
  0
LINE
  8
0
 62
2
  6
CONTINUOUS
 10
200.0
 20
30.0
 11
200.0
 21
10.0
  0
TEXT
  8
NOTES
 62
5
  6
CONTINUOUS
 10
98.0
 20
13.75
  7
STANDARD
 40
5.0
  1
1:1
 41
0.8
 72
0
  0
TEXT
  8
NOTES
 62
5
  6
CONTINUOUS
 10
118.0
 20
13.75
  7
TEXTSTYLE_5
 40
7.0
  1
uni 879 K250 TAB
 41
0.7072916667
 72
0
  0
LINE
  8
0
 62
7
  6
CONTINUOUS
 10
210.0
 20
0.0
 11
0.0
 21
0.0
  0
LINE
  8
0
 62
7
  6
CONTINUOUS
 10
10.0
 20
10.0
 11
200.0
 21
10.0
  0
LINE
  8
0
 62
7
  6
CONTINUOUS
 10
10.0
 20
30.0
 11
200.0
 21
30.0
  0
LINE
  8
0
 62
7
  6
CONTINUOUS
 10
0.0
 20
0.0
 11
0.0
 21
297.0
  0
LINE
  8
0
 62
7
  6
CONTINUOUS
 10
10.0
 20
10.0
 11
10.0
 21
287.0
  0
LINE
  8
0
 62
7
  6
CONTINUOUS
 10
200.0
 20
287.0
 11
200.0
 21
10.0
  0
LINE
  8
0
 62
7
  6
CONTINUOUS
 10
210.0
 20
0.0
 11
210.0
 21
297.0
  0
LINE
  8
0
 62
7
  6
CONTINUOUS
 10
10.0
 20
287.0
 11
200.0
 21
287.0
  0
LINE
  8
0
 62
7
  6
CONTINUOUS
 10
0.0
 20
297.0
 11
210.0
 21
297.0
  0
LINE
  8
SURFACE
 62
7
  6
CONTINUOUS
 10
62.2319390971
 20
100.7002069622
 11
92.6360987552
 21
100.7002069622
  0
LINE
  8
SURFACE
 62
7
  6
CONTINUOUS
 10
44.8353445667
 20
120.6722042034
 11
44.9094511954
 21
120.5186283179
  0
LINE
  8
SURFACE
 62
7
  6
CONTINUOUS
 10
44.8161165986
 20
120.8095301912
 11
44.8353445667
 21
120.6722042034
  0
LINE
  8
0
 62
7
  6
CONTINUOUS
 10
44.816116591
 20
143.8408811351
 11
44.816116591
 21
120.8095327893
  0
POLYLINE
  8
SURFACE
 62
7
  6
CONTINUOUS
 66
1
 70
0
  0
VERTEX
  8
SURFACE
 62
7
  6
CONTINUOUS
 10
97.2772982199
 20
111.37265341
  0
VERTEX
  8
SURFACE
 62
7
  6
CONTINUOUS
 10
97.2249784026
 20
111.3608357003
  0
VERTEX
  8
SURFACE
 62
7
  6
CONTINUOUS
 10
97.1799781343
 20
111.3614298596
  0
VERTEX
  8
SURFACE
 62
7
  6
CONTINUOUS
 10
97.1417008749
 20
111.3697524342
  0
VERTEX
  8
SURFACE
 62
7
  6
CONTINUOUS
 10
97.1086966366
 20
111.3839568513
  0
VERTEX
  8
SURFACE
 62
7
  6
CONTINUOUS
 10
97.0812499002
 20
111.4032050671
  0
VERTEX
  8
SURFACE
 62
7
  6
CONTINUOUS
 10
97.0593896585
 20
111.4279332914
  0
VERTEX
  8
SURFACE
 62
7
  6
CONTINUOUS
 10
97.0438883443
 20
111.4609189589
  0
VERTEX
  8
SURFACE
 62
7
  6
CONTINUOUS
 10
97.0387747237
 20
111.4980515547
  0
SEQEND
  0
LINE
  8
SURFACE
 62
7
  6
CONTINUOUS
 10
44.9094511954
 20
120.5186283179
 11
44.9650098021
 21
120.4535457437
  0
POLYLINE
  8
SURFACE
 62
7
  6
CONTINUOUS
 66
1
 70
0
  0
VERTEX
  8
SURFACE
 62
7
  6
CONTINUOUS
 10
44.9650098021
 20
120.4535457437
  0
VERTEX
  8
SURFACE
 62
7
  6
CONTINUOUS
 10
45.1050382588
 20
120.3562672833
  0
VERTEX
  8
SURFACE
 62
7
  6
CONTINUOUS
 10
45.2695900581
 20
120.3116981434
  0
SEQEND
  0
LINE
  8
SURFACE
 62
7
  6
CONTINUOUS
 10
96.136116591
 20
110.8752069622
 11
96.916116591
 21
110.8752069622
  0
LINE
  8
DEFAULT_1
 62
7
  6
CENTER
 10
52.316116591
 20
98.3719878465
 11
52.316116591
 21
166.2784260779
  0
LINE
  8
SURFACE
 62
7
  6
CONTINUOUS
 10
57.8671543798
 20
119.1687848336
 11
59.2433550028
 21
103.4387397339
  0
LINE
  8
0
 62
7
  6
CONTINUOUS
 10
57.8671543798
 20
145.4816290908
 11
59.2433550028
 21
161.2116741904
  0
LINE
  8
SURFACE
 62
7
  6
CONTINUOUS
 10
45.2695900581
 20
120.3116981434
 11
53.0943691911
 21
119.6271096131
  0
LINE
  8
SURFACE
 62
7
  6
CONTINUOUS
 10
89.5637234595
 20
119.1252069622
 11
86.2235341875
 21
119.1252069622
  0
LINE
  8
SURFACE
 62
7
  6
CONTINUOUS
 10
53.1379470625
 20
119.6252069622
 11
57.3690570308
 21
119.6252069622
  0
LINE
  8
SURFACE
 62
7
  6
CONTINUOUS
 10
53.0943691911
 20
119.6271096131
 11
53.1379470625
 21
119.6252069622
  0
LINE
  8
SURFACE
 62
7
  6
CONTINUOUS
 10
89.6683103508
 20
119.1206405999
 11
89.5637234595
 21
119.1252069622
  0
LINE
  8
SURFACE
 62
7
  6
CONTINUOUS
 10
97.0032723338
 20
118.478914579
 11
89.6683103508
 21
119.1206405999
  0
LINE
  8
DEFAULT_1
 62
7
  6
CENTER
 10
71.366116591
 20
136.7252069622
 11
71.366116591
 21
134.3253069622
  0
LINE
  8
0
 62
2
  6
CONTINUOUS
 10
71.366116591
 20
133.2052069622
 11
71.366116591
 21
131.4452069622
  0
LINE
  8
DEFAULT_1
 62
7
  6
CENTER
 10
71.366116591
 20
127.9252069622
 11
71.366116591
 21
130.3251069622
  0
LINE
  8
DEFAULT_1
 62
7
  6
CENTER
 10
75.766116591
 20
132.3252069622
 11
73.366216591
 21
132.3252069622
  0
LINE
  8
0
 62
2
  6
CONTINUOUS
 10
72.246116591
 20
132.3252069622
 11
70.486116591
 21
132.3252069622
  0
LINE
  8
DEFAULT_1
 62
7
  6
CENTER
 10
66.966116591
 20
132.3252069622
 11
69.366016591
 21
132.3252069622
  0
LINE
  8
0
 62
7
  6
CONTINUOUS
 10
97.0032723338
 20
146.1714993454
 11
89.6683103508
 21
145.5297733245
  0
LINE
  8
SURFACE
 62
7
  6
CONTINUOUS
 10
85.7235341875
 20
145.0252069622
 11
85.7235341875
 21
119.6252069622
  0
LINE
  8
0
 62
7
  6
CONTINUOUS
 10
85.7235341875
 20
145.0252069622
 11
85.7235341875
 21
119.6252069622
  0
LINE
  8
0
 62
7
  6
CONTINUOUS
 10
45.2695903079
 20
144.3387158048
 11
53.0943691911
 21
145.0233043112
  0
LINE
  8
0
 62
7
  6
CONTINUOUS
 10
89.6683103508
 20
145.5297733245
 11
89.5637234595
 21
145.5252069622
  0
LINE
  8
0
 62
7
  6
CONTINUOUS
 10
53.0943691911
 20
145.0233043112
 11
53.1379470625
 21
145.0252069622
  0
LINE
  8
0
 62
7
  6
CONTINUOUS
 10
53.1379470625
 20
145.0252069622
 11
57.3690570308
 21
145.0252069622
  0
LINE
  8
0
 62
7
  6
CONTINUOUS
 10
89.5637234595
 20
145.5252069622
 11
86.2235341875
 21
145.5252069622
  0
POLYLINE
  8
0
 62
7
  6
CONTINUOUS
 66
1
 70
0
  0
VERTEX
  8
0
 62
7
  6
CONTINUOUS
 10
97.916116591
 20
147.1676940563
  0
VERTEX
  8
0
 62
7
  6
CONTINUOUS
 10
97.8133293802
 20
146.9542932339
  0
VERTEX
  8
0
 62
7
  6
CONTINUOUS
 10
97.6853846175
 20
146.8450641765
  0
VERTEX
  8
0
 62
7
  6
CONTINUOUS
 10
97.2805987315
 20
146.626408702
  0
SEQEND
  0
POLYLINE
  8
SURFACE
 62
7
  6
CONTINUOUS
 66
1
 70
0
  0
VERTEX
  8
SURFACE
 62
7
  6
CONTINUOUS
 10
97.916116591
 20
117.4827198681
  0
VERTEX
  8
SURFACE
 62
7
  6
CONTINUOUS
 10
97.8133293802
 20
117.6961206905
  0
VERTEX
  8
SURFACE
 62
7
  6
CONTINUOUS
 10
97.6853846175
 20
117.8053497479
  0
VERTEX
  8
SURFACE
 62
7
  6
CONTINUOUS
 10
97.2805987315
 20
118.0240052224
  0
SEQEND
  0
LINE
  8
DEFAULT_1
 62
7
  6
CENTER
 10
90.416116591
 20
98.3719878465
 11
90.416116591
 21
166.2784260779
  0
POLYLINE
  8
0
 62
7
  6
CONTINUOUS
 66
1
 70
0
  0
VERTEX
  8
0
 62
7
  6
CONTINUOUS
 10
45.2695903079
 20
144.3387158048
  0
VERTEX
  8
0
 62
7
  6
CONTINUOUS
 10
45.1055729738
 20
144.2943952681
  0
VERTEX
  8
0
 62
7
  6
CONTINUOUS
 10
44.9658521858
 20
144.1976970654
  0
VERTEX
  8
0
 62
7
  6
CONTINUOUS
 10
44.9103131837
 20
144.1329868708
  0
VERTEX
  8
0
 62
7
  6
CONTINUOUS
 10
44.8359179376
 20
143.9802014427
  0
VERTEX
  8
0
 62
7
  6
CONTINUOUS
 10
44.8161165986
 20
143.8408837333
  0
SEQEND
  0
LINE
  8
0
 62
7
  6
CONTINUOUS
 10
96.136116591
 20
153.7752069622
 11
96.916116591
 21
153.7752069622
  0
POLYLINE
  8
0
 62
7
  6
CONTINUOUS
 66
1
 70
0
  0
VERTEX
  8
0
 62
7
  6
CONTINUOUS
 10
97.0387747466
 20
146.7388741508
  0
VERTEX
  8
0
 62
7
  6
CONTINUOUS
 10
97.040300419
 20
146.7180081955
  0
VERTEX
  8
0
 62
7
  6
CONTINUOUS
 10
97.0522965945
 20
146.6811233533
  0
VERTEX
  8
0
 62
7
  6
CONTINUOUS
 10
97.0739744567
 20
146.6523787566
  0
VERTEX
  8
0
 62
7
  6
CONTINUOUS
 10
97.1024941348
 20
146.6312870018
  0
VERTEX
  8
0
 62
7
  6
CONTINUOUS
 10
97.1189635489
 20
146.623249408
  0
VERTEX
  8
0
 62
7
  6
CONTINUOUS
 10
97.1561316992
 20
146.6121574901
  0
VERTEX
  8
0
 62
7
  6
CONTINUOUS
 10
97.2001442196
 20
146.6086451978
  0
VERTEX
  8
0
 62
7
  6
CONTINUOUS
 10
97.2518930084
 20
146.6163117825
  0
VERTEX
  8
0
 62
7
  6
CONTINUOUS
 10
97.2805987315
 20
146.626408702
  0
SEQEND
  0
LINE
  8
0
 62
7
  6
CONTINUOUS
 10
95.636116591
 20
160.9501477091
 11
95.636116591
 21
154.2751967281
  0
LINE
  8
SURFACE
 62
7
  6
CONTINUOUS
 10
95.636116591
 20
103.7002662153
 11
95.636116591
 21
110.3752171962
  0
LINE
  8
SURFACE
 62
7
  6
CONTINUOUS
 10
97.0387747466
 20
117.9115397735
 11
97.0387747237
 21
111.4980515547
  0
LINE
  8
0
 62
7
  6
CONTINUOUS
 10
97.0387747466
 20
146.7388741508
 11
97.0387747237
 21
153.1523623697
  0
LINE
  8
SURFACE
 62
7
  6
CONTINUOUS
 10
97.916116591
 20
111.8752069622
 11
97.916116591
 21
117.4827198809
  0
LINE
  8
0
 62
7
  6
CONTINUOUS
 10
97.916116591
 20
147.1676940435
 11
97.916116591
 21
152.7752069622
  0
POLYLINE
  8
SURFACE
 62
7
  6
CONTINUOUS
 66
1
 70
0
  0
VERTEX
  8
SURFACE
 62
7
  6
CONTINUOUS
 10
97.0387747466
 20
117.9115397735
  0
VERTEX
  8
SURFACE
 62
7
  6
CONTINUOUS
 10
97.040300419
 20
117.9324057289
  0
VERTEX
  8
SURFACE
 62
7
  6
CONTINUOUS
 10
97.0522965945
 20
117.9692905711
  0
VERTEX
  8
SURFACE
 62
7
  6
CONTINUOUS
 10
97.0739744567
 20
117.9980351678
  0
VERTEX
  8
SURFACE
 62
7
  6
CONTINUOUS
 10
97.1024941348
 20
118.0191269226
  0
VERTEX
  8
SURFACE
 62
7
  6
CONTINUOUS
 10
97.1189635489
 20
118.0271645164
  0
VERTEX
  8
SURFACE
 62
7
  6
CONTINUOUS
 10
97.1561316992
 20
118.0382564343
  0
VERTEX
  8
SURFACE
 62
7
  6
CONTINUOUS
 10
97.2001442196
 20
118.0417687266
  0
VERTEX
  8
SURFACE
 62
7
  6
CONTINUOUS
 10
97.2518930084
 20
118.0341021418
  0
VERTEX
  8
SURFACE
 62
7
  6
CONTINUOUS
 10
97.2805987315
 20
118.0240052224
  0
SEQEND
  0
POLYLINE
  8
0
 62
7
  6
CONTINUOUS
 66
1
 70
0
  0
VERTEX
  8
0
 62
7
  6
CONTINUOUS
 10
97.2772982199
 20
153.2777605144
  0
VERTEX
  8
0
 62
7
  6
CONTINUOUS
 10
97.2249784026
 20
153.2895782241
  0
VERTEX
  8
0
 62
7
  6
CONTINUOUS
 10
97.1799781343
 20
153.2889840648
  0
VERTEX
  8
0
 62
7
  6
CONTINUOUS
 10
97.1417008749
 20
153.2806614902
  0
VERTEX
  8
0
 62
7
  6
CONTINUOUS
 10
97.1086966366
 20
153.2664570731
  0
VERTEX
  8
0
 62
7
  6
CONTINUOUS
 10
97.0812499002
 20
153.2472088573
  0
VERTEX
  8
0
 62
7
  6
CONTINUOUS
 10
97.0593896585
 20
153.222480633
  0
VERTEX
  8
0
 62
7
  6
CONTINUOUS
 10
97.0438883443
 20
153.1894949654
  0
VERTEX
  8
0
 62
7
  6
CONTINUOUS
 10
97.0387747237
 20
153.1523623697
  0
SEQEND
  0
POLYLINE
  8
SURFACE
 62
7
  6
CONTINUOUS
 66
1
 70
0
  0
VERTEX
  8
SURFACE
 62
7
  6
CONTINUOUS
 10
97.2772982199
 20
111.37265341
  0
VERTEX
  8
SURFACE
 62
7
  6
CONTINUOUS
 10
97.6840140772
 20
111.5660468297
  0
VERTEX
  8
SURFACE
 62
7
  6
CONTINUOUS
 10
97.8127476041
 20
111.6676037804
  0
VERTEX
  8
SURFACE
 62
7
  6
CONTINUOUS
 10
97.916116591
 20
111.8752069622
  0
SEQEND
  0
LINE
  8
0
 62
7
  6
CONTINUOUS
 10
62.2319390971
 20
163.9502069622
 11
92.636116591
 21
163.9502069622
  0
POLYLINE
  8
0
 62
7
  6
CONTINUOUS
 66
1
 70
0
  0
VERTEX
  8
0
 62
7
  6
CONTINUOUS
 10
97.2772982199
 20
153.2777605144
  0
VERTEX
  8
0
 62
7
  6
CONTINUOUS
 10
97.6840140772
 20
153.0843670946
  0
VERTEX
  8
0
 62
7
  6
CONTINUOUS
 10
97.8127476041
 20
152.982810144
  0
VERTEX
  8
0
 62
7
  6
CONTINUOUS
 10
97.916116591
 20
152.7752069622
  0
SEQEND
  0
LINE
  8
SURFACE
 62
7
  6
CONTINUOUS
 10
164.5478609839
 20
100.7002069622
 11
169.0278609839
 21
100.7002069622
  0
LINE
  8
SURFACE
 62
7
  6
CONTINUOUS
 10
149.6478609839
 20
101.5752069622
 11
151.6478609839
 21
101.5752069622
  0
LINE
  8
SURFACE
 62
7
  6
CONTINUOUS
 10
153.0605691317
 20
110.8752069622
 11
164.0478609839
 21
110.8752069622
  0
LINE
  8
SURFACE
 62
7
  6
CONTINUOUS
 10
153.0501219479
 20
116.5241280696
 11
149.6216840356
 21
116.4343512633
  0
POLYLINE
  8
0
 62
7
  6
CONTINUOUS
 66
1
 70
0
  0
VERTEX
  8
0
 62
7
  6
CONTINUOUS
 10
154.0356793008
 20
144.8957061557
  0
VERTEX
  8
0
 62
7
  6
CONTINUOUS
 10
154.0149222818
 20
144.8836391502
  0
VERTEX
  8
0
 62
7
  6
CONTINUOUS
 10
153.9945158954
 20
144.8711119227
  0
VERTEX
  8
0
 62
7
  6
CONTINUOUS
 10
153.974473441
 20
144.8581383153
  0
VERTEX
  8
0
 62
7
  6
CONTINUOUS
 10
153.9548076018
 20
144.8447326988
  0
VERTEX
  8
0
 62
7
  6
CONTINUOUS
 10
153.9355304238
 20
144.8309099431
  0
VERTEX
  8
0
 62
7
  6
CONTINUOUS
 10
153.9166532967
 20
144.8166853872
  0
VERTEX
  8
0
 62
7
  6
CONTINUOUS
 10
153.8981869361
 20
144.8020748083
  0
VERTEX
  8
0
 62
7
  6
CONTINUOUS
 10
153.8801413674
 20
144.7870943897
  0
VERTEX
  8
0
 62
7
  6
CONTINUOUS
 10
153.8625259117
 20
144.7717606894
  0
VERTEX
  8
0
 62
7
  6
CONTINUOUS
 10
153.8453491736
 20
144.7560906066
  0
VERTEX
  8
0
 62
7
  6
CONTINUOUS
 10
153.8286190297
 20
144.7401013493
  0
VERTEX
  8
0
 62
7
  6
CONTINUOUS
 10
153.8123426201
 20
144.7238104008
  0
VERTEX
  8
0
 62
7
  6
CONTINUOUS
 10
153.7965263411
 20
144.7072354863
  0
VERTEX
  8
0
 62
7
  6
CONTINUOUS
 10
153.7811758395
 20
144.6903945397
  0
VERTEX
  8
0
 62
7
  6
CONTINUOUS
 10
153.7662960092
 20
144.6733056698
  0
VERTEX
  8
0
 62
7
  6
CONTINUOUS
 10
153.7518909886
 20
144.6559871274
  0
VERTEX
  8
0
 62
7
  6
CONTINUOUS
 10
153.7379641611
 20
144.638457272
  0
VERTEX
  8
0
 62
7
  6
CONTINUOUS
 10
153.7245181561
 20
144.6207345393
  0
VERTEX
  8
0
 62
7
  6
CONTINUOUS
 10
153.7115548519
 20
144.6028374088
  0
VERTEX
  8
0
 62
7
  6
CONTINUOUS
 10
153.699075381
 20
144.5847843722
  0
VERTEX
  8
0
 62
7
  6
CONTINUOUS
 10
153.687080136
 20
144.5665939019
  0
VERTEX
  8
0
 62
7
  6
CONTINUOUS
 10
153.6755687777
 20
144.5482844211
  0
VERTEX
  8
0
 62
7
  6
CONTINUOUS
 10
153.6645402447
 20
144.5298742736
  0
VERTEX
  8
0
 62
7
  6
CONTINUOUS
 10
153.6539927636
 20
144.511381695
  0
VERTEX
  8
0
 62
7
  6
CONTINUOUS
 10
153.6439238623
 20
144.4928247849
  0
VERTEX
  8
0
 62
7
  6
CONTINUOUS
 10
153.6343303829
 20
144.4742214797
  0
VERTEX
  8
0
 62
7
  6
CONTINUOUS
 10
153.6252084968
 20
144.4555895273
  0
VERTEX
  8
0
 62
7
  6
CONTINUOUS
 10
153.6165537211
 20
144.4369464614
  0
VERTEX
  8
0
 62
7
  6
CONTINUOUS
 10
153.6083609357
 20
144.4183095783
  0
VERTEX
  8
0
 62
7
  6
CONTINUOUS
 10
153.6006244018
 20
144.3996959144
  0
VERTEX
  8
0
 62
7
  6
CONTINUOUS
 10
153.5933377813
 20
144.3811222249
  0
VERTEX
  8
0
 62
7
  6
CONTINUOUS
 10
153.5864941572
 20
144.3626049641
  0
VERTEX
  8
0
 62
7
  6
CONTINUOUS
 10
153.5800860551
 20
144.3441602663
  0
VERTEX
  8
0
 62
7
  6
CONTINUOUS
 10
153.5741054648
 20
144.3258039294
  0
VERTEX
  8
0
 62
7
  6
CONTINUOUS
 10
153.5685438636
 20
144.3075513983
  0
VERTEX
  8
0
 62
7
  6
CONTINUOUS
 10
153.5633922397
 20
144.289417751
  0
VERTEX
  8
0
 62
7
  6
CONTINUOUS
 10
153.5609672251
 20
144.2804001171
  0
VERTEX
  8
0
 62
7
  6
CONTINUOUS
 10
153.5564126591
 20
144.2624722325
  0
VERTEX
  8
0
 62
7
  6
CONTINUOUS
 10
153.5522438909
 20
144.2447007113
  0
VERTEX
  8
0
 62
7
  6
CONTINUOUS
 10
153.548451771
 20
144.2271063605
  0
VERTEX
  8
0
 62
7
  6
CONTINUOUS
 10
153.545026521
 20
144.2097110051
  0
VERTEX
  8
0
 62
7
  6
CONTINUOUS
 10
153.5419574304
 20
144.1925361359
  0
VERTEX
  8
0
 62
7
  6
CONTINUOUS
 10
153.5392329038
 20
144.1756028758
  0
VERTEX
  8
0
 62
7
  6
CONTINUOUS
 10
153.5368405102
 20
144.1589319502
  0
VERTEX
  8
0
 62
7
  6
CONTINUOUS
 10
153.5347670359
 20
144.1425436623
  0
VERTEX
  8
0
 62
7
  6
CONTINUOUS
 10
153.5329985415
 20
144.1264578907
  0
VERTEX
  8
0
 62
7
  6
CONTINUOUS
 10
153.5315215891
 20
144.1107077263
  0
VERTEX
  8
0
 62
7
  6
CONTINUOUS
 10
153.5303239698
 20
144.0953640758
  0
VERTEX
  8
0
 62
7
  6
CONTINUOUS
 10
153.5293901863
 20
144.0805037352
  0
VERTEX
  8
0
 62
7
  6
CONTINUOUS
 10
153.5287010346
 20
144.0662023811
  0
VERTEX
  8
0
 62
7
  6
CONTINUOUS
 10
153.5282350675
 20
144.0525717618
  0
VERTEX
  8
0
 62
7
  6
CONTINUOUS
 10
153.527974534
 20
144.0402902416
  0
VERTEX
  8
0
 62
7
  6
CONTINUOUS
 10
153.5278836248
 20
144.0319474235
  0
VERTEX
  8
0
 62
7
  6
CONTINUOUS
 10
153.5278688419
 20
144.0291793738
  0
SEQEND
  0
LINE
  8
SURFACE
 62
7
  6
CONTINUOUS
 10
154.5278577146
 20
119.6252069622
 11
169.0278609839
 21
119.6252069622
  0
LINE
  8
SURFACE
 62
7
  6
CONTINUOUS
 10
161.0128609839
 20
120.1095266419
 11
161.0428609839
 21
120.1095266419
  0
POLYLINE
  8
SURFACE
 62
7
  6
CONTINUOUS
 66
1
 70
0
  0
VERTEX
  8
SURFACE
 62
7
  6
CONTINUOUS
 10
161.0428609839
 20
120.1095266949
  0
VERTEX
  8
SURFACE
 62
7
  6
CONTINUOUS
 10
161.6325344837
 20
120.1058443254
  0
VERTEX
  8
SURFACE
 62
7
  6
CONTINUOUS
 10
162.1969668244
 20
120.0952062997
  0
VERTEX
  8
SURFACE
 62
7
  6
CONTINUOUS
 10
162.7017846411
 20
120.0792463465
  0
VERTEX
  8
SURFACE
 62
7
  6
CONTINUOUS
 10
163.1479279228
 20
120.0592990364
  0
VERTEX
  8
SURFACE
 62
7
  6
CONTINUOUS
 10
163.537960593
 20
120.0364297883
  0
VERTEX
  8
SURFACE
 62
7
  6
CONTINUOUS
 10
163.8743597484
 20
120.0115559268
  0
VERTEX
  8
SURFACE
 62
7
  6
CONTINUOUS
 10
164.1601846186
 20
119.9854535766
  0
VERTEX
  8
SURFACE
 62
7
  6
CONTINUOUS
 10
164.3989463688
 20
119.9587696871
  0
VERTEX
  8
SURFACE
 62
7
  6
CONTINUOUS
 10
164.5938850063
 20
119.932106636
  0
VERTEX
  8
SURFACE
 62
7
  6
CONTINUOUS
 10
164.7469133154
 20
119.9062632309
  0
VERTEX
  8
SURFACE
 62
7
  6
CONTINUOUS
 10
164.8575551621
 20
119.8827810103
  0
VERTEX
  8
SURFACE
 62
7
  6
CONTINUOUS
 10
164.923917251
 20
119.864615626
  0
VERTEX
  8
SURFACE
 62
7
  6
CONTINUOUS
 10
164.9409684218
 20
119.858673714
  0
SEQEND
  0
POLYLINE
  8
SURFACE
 62
7
  6
CONTINUOUS
 66
1
 70
0
  0
VERTEX
  8
SURFACE
 62
7
  6
CONTINUOUS
 10
154.5278577177
 20
119.6252087632
  0
VERTEX
  8
SURFACE
 62
7
  6
CONTINUOUS
 10
154.220126011
 20
119.6737349088
  0
VERTEX
  8
SURFACE
 62
7
  6
CONTINUOUS
 10
153.9407287864
 20
119.8157146002
  0
VERTEX
  8
SURFACE
 62
7
  6
CONTINUOUS
 10
153.7189402368
 20
120.0372869818
  0
VERTEX
  8
SURFACE
 62
7
  6
CONTINUOUS
 10
153.5768010281
 20
120.3161977375
  0
VERTEX
  8
SURFACE
 62
7
  6
CONTINUOUS
 10
153.5278633752
 20
120.623348128
  0
SEQEND
  0
LINE
  8
SURFACE
 62
7
  6
CONTINUOUS
 10
148.6478609839
 20
115.4346939383
 11
148.6478609839
 21
102.5752069622
  0
LINE
  8
0
 62
7
  6
CONTINUOUS
 10
148.6478609839
 20
149.2157199861
 11
148.6478609839
 21
162.0752069622
  0
POLYLINE
  8
0
 62
7
  6
CONTINUOUS
 66
1
 70
0
  0
VERTEX
  8
0
 62
7
  6
CONTINUOUS
 10
164.9417082037
 20
144.7920363461
  0
VERTEX
  8
0
 62
7
  6
CONTINUOUS
 10
164.9272711075
 20
144.7868880012
  0
VERTEX
  8
0
 62
7
  6
CONTINUOUS
 10
164.8630188652
 20
144.7689643171
  0
VERTEX
  8
0
 62
7
  6
CONTINUOUS
 10
164.7483552542
 20
144.7444240822
  0
VERTEX
  8
0
 62
7
  6
CONTINUOUS
 10
164.5812975099
 20
144.7164083974
  0
VERTEX
  8
0
 62
7
  6
CONTINUOUS
 10
164.359013029
 20
144.6867919642
  0
VERTEX
  8
0
 62
7
  6
CONTINUOUS
 10
164.0788159331
 20
144.6569721496
  0
VERTEX
  8
0
 62
7
  6
CONTINUOUS
 10
163.7387270017
 20
144.6281674249
  0
VERTEX
  8
0
 62
7
  6
CONTINUOUS
 10
163.3352697409
 20
144.6013943125
  0
VERTEX
  8
0
 62
7
  6
CONTINUOUS
 10
162.8635356505
 20
144.5777137526
  0
VERTEX
  8
0
 62
7
  6
CONTINUOUS
 10
162.3193570575
 20
144.5584887594
  0
VERTEX
  8
0
 62
7
  6
CONTINUOUS
 10
161.7008311485
 20
144.545477871
  0
VERTEX
  8
0
 62
7
  6
CONTINUOUS
 10
161.0428609839
 20
144.5408872295
  0
SEQEND
  0
POLYLINE
  8
SURFACE
 62
7
  6
CONTINUOUS
 66
1
 70
0
  0
VERTEX
  8
SURFACE
 62
7
  6
CONTINUOUS
 10
153.5279240488
 20
120.6139632103
  0
VERTEX
  8
SURFACE
 62
7
  6
CONTINUOUS
 10
153.5281090828
 20
120.6029183574
  0
VERTEX
  8
SURFACE
 62
7
  6
CONTINUOUS
 10
153.5284666705
 20
120.5903925455
  0
VERTEX
  8
SURFACE
 62
7
  6
CONTINUOUS
 10
153.529020862
 20
120.5770420369
  0
VERTEX
  8
SURFACE
 62
7
  6
CONTINUOUS
 10
153.5297927205
 20
120.563065062
  0
VERTEX
  8
SURFACE
 62
7
  6
CONTINUOUS
 10
153.5308023529
 20
120.5485493123
  0
VERTEX
  8
SURFACE
 62
7
  6
CONTINUOUS
 10
153.5320660306
 20
120.5335818514
  0
VERTEX
  8
SURFACE
 62
7
  6
CONTINUOUS
 10
153.5335956786
 20
120.5182504428
  0
VERTEX
  8
SURFACE
 62
7
  6
CONTINUOUS
 10
153.5354003193
 20
120.5026285451
  0
VERTEX
  8
SURFACE
 62
7
  6
CONTINUOUS
 10
153.5374918039
 20
120.4867404656
  0
VERTEX
  8
SURFACE
 62
7
  6
CONTINUOUS
 10
153.5398825558
 20
120.4706005202
  0
VERTEX
  8
SURFACE
 62
7
  6
CONTINUOUS
 10
153.5425845781
 20
120.4542234225
  0
VERTEX
  8
SURFACE
 62
7
  6
CONTINUOUS
 10
153.5456094171
 20
120.4376242785
  0
VERTEX
  8
SURFACE
 62
7
  6
CONTINUOUS
 10
153.5489681273
 20
120.4208185766
  0
VERTEX
  8
SURFACE
 62
7
  6
CONTINUOUS
 10
153.5526712378
 20
120.4038221745
  0
VERTEX
  8
SURFACE
 62
7
  6
CONTINUOUS
 10
153.556728719
 20
120.3866512837
  0
VERTEX
  8
SURFACE
 62
7
  6
CONTINUOUS
 10
153.5611499798
 20
120.3693223434
  0
VERTEX
  8
SURFACE
 62
7
  6
CONTINUOUS
 10
153.5659439746
 20
120.3518515541
  0
VERTEX
  8
SURFACE
 62
7
  6
CONTINUOUS
 10
153.5711191109
 20
120.3342552466
  0
VERTEX
  8
SURFACE
 62
7
  6
CONTINUOUS
 10
153.5766831824
 20
120.3165500432
  0
VERTEX
  8
SURFACE
 62
7
  6
CONTINUOUS
 10
153.5826433432
 20
120.2987528352
  0
VERTEX
  8
SURFACE
 62
7
  6
CONTINUOUS
 10
153.5890060842
 20
120.2808807596
  0
VERTEX
  8
SURFACE
 62
7
  6
CONTINUOUS
 10
153.595777211
 20
120.2629511733
  0
VERTEX
  8
SURFACE
 62
7
  6
CONTINUOUS
 10
153.6029618227
 20
120.2449816265
  0
VERTEX
  8
SURFACE
 62
7
  6
CONTINUOUS
 10
153.6105642936
 20
120.2269898338
  0
VERTEX
  8
SURFACE
 62
7
  6
CONTINUOUS
 10
153.6185882552
 20
120.2089936443
  0
VERTEX
  8
SURFACE
 62
7
  6
CONTINUOUS
 10
153.627036581
 20
120.1910110109
  0
VERTEX
  8
SURFACE
 62
7
  6
CONTINUOUS
 10
153.6359113732
 20
120.1730599573
  0
VERTEX
  8
SURFACE
 62
7
  6
CONTINUOUS
 10
153.6452139506
 20
120.155158545
  0
VERTEX
  8
SURFACE
 62
7
  6
CONTINUOUS
 10
153.6549448394
 20
120.1373248389
  0
VERTEX
  8
SURFACE
 62
7
  6
CONTINUOUS
 10
153.6651040651
 20
120.1195763599
  0
VERTEX
  8
SURFACE
 62
7
  6
CONTINUOUS
 10
153.6756935475
 20
120.1019262577
  0
VERTEX
  8
SURFACE
 62
7
  6
CONTINUOUS
 10
153.6867161906
 20
120.0843856581
  0
VERTEX
  8
SURFACE
 62
7
  6
CONTINUOUS
 10
153.698174669
 20
120.0669659227
  0
VERTEX
  8
SURFACE
 62
7
  6
CONTINUOUS
 10
153.7100714063
 20
120.0496786651
  0
VERTEX
  8
SURFACE
 62
7
  6
CONTINUOUS
 10
153.7224085632
 20
120.0325357482
  0
VERTEX
  8
SURFACE
 62
7
  6
CONTINUOUS
 10
153.7351880254
 20
120.0155492817
  0
VERTEX
  8
SURFACE
 62
7
  6
CONTINUOUS
 10
153.7484113908
 20
119.9987316192
  0
VERTEX
  8
SURFACE
 62
7
  6
CONTINUOUS
 10
153.7620799575
 20
119.9820953545
  0
VERTEX
  8
SURFACE
 62
7
  6
CONTINUOUS
 10
153.7761947104
 20
119.9656533177
  0
VERTEX
  8
SURFACE
 62
7
  6
CONTINUOUS
 10
153.7907563091
 20
119.9494185706
  0
VERTEX
  8
SURFACE
 62
7
  6
CONTINUOUS
 10
153.805765074
 20
119.9334044019
  0
VERTEX
  8
SURFACE
 62
7
  6
CONTINUOUS
 10
153.8212209738
 20
119.9176243215
  0
VERTEX
  8
SURFACE
 62
7
  6
CONTINUOUS
 10
153.8371236118
 20
119.9020920546
  0
VERTEX
  8
SURFACE
 62
7
  6
CONTINUOUS
 10
153.8534722126
 20
119.8868215352
  0
VERTEX
  8
SURFACE
 62
7
  6
CONTINUOUS
 10
153.8702656087
 20
119.8718268989
  0
VERTEX
  8
SURFACE
 62
7
  6
CONTINUOUS
 10
153.8875022268
 20
119.8571224751
  0
VERTEX
  8
SURFACE
 62
7
  6
CONTINUOUS
 10
153.9051800742
 20
119.8427227785
  0
VERTEX
  8
SURFACE
 62
7
  6
CONTINUOUS
 10
153.923296725
 20
119.8286425007
  0
VERTEX
  8
SURFACE
 62
7
  6
CONTINUOUS
 10
153.9418493066
 20
119.8148964999
  0
VERTEX
  8
SURFACE
 62
7
  6
CONTINUOUS
 10
153.9608344862
 20
119.8014997911
  0
VERTEX
  8
SURFACE
 62
7
  6
CONTINUOUS
 10
153.9802484564
 20
119.7884675353
  0
VERTEX
  8
SURFACE
 62
7
  6
CONTINUOUS
 10
154.0000869226
 20
119.7758150272
  0
VERTEX
  8
SURFACE
 62
7
  6
CONTINUOUS
 10
154.0203450885
 20
119.7635576839
  0
VERTEX
  8
SURFACE
 62
7
  6
CONTINUOUS
 10
154.0410176434
 20
119.7517110309
  0
VERTEX
  8
SURFACE
 62
7
  6
CONTINUOUS
 10
154.0620987485
 20
119.7402906889
  0
VERTEX
  8
SURFACE
 62
7
  6
CONTINUOUS
 10
154.0835820239
 20
119.7293123593
  0
VERTEX
  8
SURFACE
 62
7
  6
CONTINUOUS
 10
154.1054605354
 20
119.7187918086
  0
VERTEX
  8
SURFACE
 62
7
  6
CONTINUOUS
 10
154.1277267822
 20
119.7087448527
  0
VERTEX
  8
SURFACE
 62
7
  6
CONTINUOUS
 10
154.1503726842
 20
119.6991873398
  0
VERTEX
  8
SURFACE
 62
7
  6
CONTINUOUS
 10
154.1733895694
 20
119.6901351332
  0
VERTEX
  8
SURFACE
 62
7
  6
CONTINUOUS
 10
154.1967681627
 20
119.6816040923
  0
VERTEX
  8
SURFACE
 62
7
  6
CONTINUOUS
 10
154.2204985739
 20
119.6736100539
  0
VERTEX
  8
SURFACE
 62
7
  6
CONTINUOUS
 10
154.2445702867
 20
119.666168812
  0
VERTEX
  8
SURFACE
 62
7
  6
CONTINUOUS
 10
154.268972148
 20
119.6592960967
  0
VERTEX
  8
SURFACE
 62
7
  6
CONTINUOUS
 10
154.2936923577
 20
119.6530075528
  0
VERTEX
  8
SURFACE
 62
7
  6
CONTINUOUS
 10
154.318718459
 20
119.6473187171
  0
VERTEX
  8
SURFACE
 62
7
  6
CONTINUOUS
 10
154.3440373289
 20
119.6422449952
  0
VERTEX
  8
SURFACE
 62
7
  6
CONTINUOUS
 10
154.3696351704
 20
119.6378016369
  0
VERTEX
  8
SURFACE
 62
7
  6
CONTINUOUS
 10
154.3954975041
 20
119.6340037115
  0
VERTEX
  8
SURFACE
 62
7
  6
CONTINUOUS
 10
154.4216091611
 20
119.6308660819
  0
VERTEX
  8
SURFACE
 62
7
  6
CONTINUOUS
 10
154.4479542772
 20
119.6284033777
  0
VERTEX
  8
SURFACE
 62
7
  6
CONTINUOUS
 10
154.4745162887
 20
119.6266299677
  0
VERTEX
  8
SURFACE
 62
7
  6
CONTINUOUS
 10
154.5012779379
 20
119.6255599318
  0
VERTEX
  8
SURFACE
 62
7
  6
CONTINUOUS
 10
154.5278448937
 20
119.6252069622
  0
SEQEND
  0
LINE
  8
0
 62
7
  6
CONTINUOUS
 10
152.6478609839
 20
162.0752069622
 11
152.6478609839
 21
154.2752069622
  0
LINE
  8
SURFACE
 62
7
  6
CONTINUOUS
 10
152.6478609839
 20
110.3752069622
 11
152.6478609839
 21
102.5752069622
  0
LINE
  8
SURFACE
 62
7
  6
CONTINUOUS
 10
153.5278680491
 20
120.6214403059
 11
153.5279240488
 21
120.6139632103
  0
LINE
  8
SURFACE
 62
7
  6
CONTINUOUS
 10
153.5278609839
 20
113.5606642331
 11
153.5278609839
 21
124.3107949776
  0
LINE
  8
0
 62
7
  6
CONTINUOUS
 10
153.5278609839
 20
120.6989726765
 11
153.5278609839
 21
151.0897496913
  0
POLYLINE
  8
SURFACE
 62
7
  6
CONTINUOUS
 66
1
 70
0
  0
VERTEX
  8
SURFACE
 62
7
  6
CONTINUOUS
 10
153.5278458693
 20
116.8953916099
  0
VERTEX
  8
SURFACE
 62
7
  6
CONTINUOUS
 10
153.5263552405
 20
116.8828882119
  0
VERTEX
  8
SURFACE
 62
7
  6
CONTINUOUS
 10
153.5078228694
 20
116.8197379356
  0
VERTEX
  8
SURFACE
 62
7
  6
CONTINUOUS
 10
153.4507022429
 20
116.720826666
  0
VERTEX
  8
SURFACE
 62
7
  6
CONTINUOUS
 10
153.3485052554
 20
116.6213752023
  0
VERTEX
  8
SURFACE
 62
7
  6
CONTINUOUS
 10
153.2049495255
 20
116.5493096982
  0
VERTEX
  8
SURFACE
 62
7
  6
CONTINUOUS
 10
153.0499797972
 20
116.5241274267
  0
SEQEND
  0
LINE
  8
0
 62
7
  6
CONTINUOUS
 10
153.5267990161
 20
147.7646452174
 11
153.5278580205
 21
147.7555744392
  0
LINE
  8
DEFAULT_1
 62
7
  6
CENTER
 10
142.6478609839
 20
132.3252069622
 11
172.5278609839
 21
132.3252069622
  0
LINE
  8
DEFAULT_1
 62
7
  6
CENTER
 10
161.0278609839
 20
98.3719878465
 11
161.0278609839
 21
166.2784260779
  0
LINE
  8
SURFACE
 62
7
  6
CONTINUOUS
 10
164.5478609839
 20
118.431446009
 11
164.5478609839
 21
100.7002069622
  0
LINE
  8
0
 62
7
  6
CONTINUOUS
 10
164.5478609839
 20
146.2189679154
 11
164.5478609839
 21
163.9502069622
  0
LINE
  8
SURFACE
 62
7
  6
CONTINUOUS
 10
151.4544400089
 20
116.7880505111
 11
153.2311424867
 21
118.7269810289
  0
LINE
  8
0
 62
7
  6
CONTINUOUS
 10
153.2311424867
 20
145.9234328955
 11
151.4544400089
 21
147.8623634133
  0
POLYLINE
  8
0
 62
7
  6
CONTINUOUS
 66
1
 70
0
  0
VERTEX
  8
0
 62
7
  6
CONTINUOUS
 10
168.0170294657
 20
145.4816290908
  0
VERTEX
  8
0
 62
7
  6
CONTINUOUS
 10
167.9883778751
 20
145.3209299661
  0
VERTEX
  8
0
 62
7
  6
CONTINUOUS
 10
167.9300454731
 20
145.1910439847
  0
VERTEX
  8
0
 62
7
  6
CONTINUOUS
 10
167.851665765
 20
145.0978784196
  0
VERTEX
  8
0
 62
7
  6
CONTINUOUS
 10
167.7615443044
 20
145.042947091
  0
VERTEX
  8
0
 62
7
  6
CONTINUOUS
 10
167.6670278783
 20
145.0252069622
  0
SEQEND
  0
LINE
  8
SURFACE
 62
7
  6
CONTINUOUS
 10
153.4006754433
 20
118.8790578071
 11
153.2311508182
 21
118.7269901178
  0
POLYLINE
  8
SURFACE
 62
7
  6
CONTINUOUS
 66
1
 70
0
  0
VERTEX
  8
SURFACE
 62
7
  6
CONTINUOUS
 10
151.454196408
 20
116.7877836191
  0
VERTEX
  8
SURFACE
 62
7
  6
CONTINUOUS
 10
151.2672303173
 20
116.6284142367
  0
VERTEX
  8
SURFACE
 62
7
  6
CONTINUOUS
 10
151.0164525292
 20
116.5092880643
  0
VERTEX
  8
SURFACE
 62
7
  6
CONTINUOUS
 10
150.7430961561
 20
116.463716574
  0
SEQEND
  0
POLYLINE
  8
0
 62
7
  6
CONTINUOUS
 66
1
 70
0
  0
VERTEX
  8
0
 62
7
  6
CONTINUOUS
 10
153.2311521467
 20
145.9234223569
  0
VERTEX
  8
0
 62
7
  6
CONTINUOUS
 10
153.4023404704
 20
145.7701276294
  0
VERTEX
  8
0
 62
7
  6
CONTINUOUS
 10
153.4979549589
 20
145.706074719
  0
VERTEX
  8
0
 62
7
  6
CONTINUOUS
 10
153.5278609839
 20
145.6906698416
  0
SEQEND
  0
POLYLINE
  8
SURFACE
 62
7
  6
CONTINUOUS
 66
1
 70
0
  0
VERTEX
  8
SURFACE
 62
7
  6
CONTINUOUS
 10
168.0170294657
 20
119.1687848336
  0
VERTEX
  8
SURFACE
 62
7
  6
CONTINUOUS
 10
167.9883778751
 20
119.3294839583
  0
VERTEX
  8
SURFACE
 62
7
  6
CONTINUOUS
 10
167.9300454731
 20
119.4593699397
  0
VERTEX
  8
SURFACE
 62
7
  6
CONTINUOUS
 10
167.851665765
 20
119.5525355048
  0
VERTEX
  8
SURFACE
 62
7
  6
CONTINUOUS
 10
167.7615443044
 20
119.6074668333
  0
VERTEX
  8
SURFACE
 62
7
  6
CONTINUOUS
 10
167.6670278783
 20
119.6252069622
  0
SEQEND
  0
POLYLINE
  8
0
 62
7
  6
CONTINUOUS
 66
1
 70
0
  0
VERTEX
  8
0
 62
7
  6
CONTINUOUS
 10
168.0178609839
 20
161.2116741904
  0
VERTEX
  8
0
 62
7
  6
CONTINUOUS
 10
167.9904397234
 20
161.8451017663
  0
VERTEX
  8
0
 62
7
  6
CONTINUOUS
 10
167.9056405105
 20
162.4326226668
  0
VERTEX
  8
0
 62
7
  6
CONTINUOUS
 10
167.7561117387
 20
162.9466411415
  0
VERTEX
  8
0
 62
7
  6
CONTINUOUS
 10
167.5303693958
 20
163.367096385
  0
VERTEX
  8
0
 62
7
  6
CONTINUOUS
 10
167.2109558696
 20
163.6818752423
  0
VERTEX
  8
0
 62
7
  6
CONTINUOUS
 10
166.7695442114
 20
163.8811072538
  0
VERTEX
  8
0
 62
7
  6
CONTINUOUS
 10
166.1729052358
 20
163.9502069622
  0
SEQEND
  0
POLYLINE
  8
SURFACE
 62
7
  6
CONTINUOUS
 66
1
 70
0
  0
VERTEX
  8
SURFACE
 62
7
  6
CONTINUOUS
 10
168.0178609759
 20
119.1410029295
  0
VERTEX
  8
SURFACE
 62
7
  6
CONTINUOUS
 10
168.0177683525
 20
119.1502780173
  0
VERTEX
  8
SURFACE
 62
7
  6
CONTINUOUS
 10
168.0174910839
 20
119.1595398054
  0
VERTEX
  8
SURFACE
 62
7
  6
CONTINUOUS
 10
168.0170294657
 20
119.1687848336
  0
SEQEND
  0
LINE
  8
SURFACE
 62
7
  6
CONTINUOUS
 10
168.0178609759
 20
119.1410029295
 11
168.0178609839
 21
103.4387397339
  0
LINE
  8
0
 62
7
  6
CONTINUOUS
 10
168.0178609759
 20
145.5094109949
 11
168.0178609839
 21
161.2116741904
  0
POLYLINE
  8
0
 62
7
  6
CONTINUOUS
 66
1
 70
0
  0
VERTEX
  8
0
 62
7
  6
CONTINUOUS
 10
168.0178609759
 20
145.5094109949
  0
VERTEX
  8
0
 62
7
  6
CONTINUOUS
 10
168.0177683525
 20
145.5001359071
  0
VERTEX
  8
0
 62
7
  6
CONTINUOUS
 10
168.0174910839
 20
145.490874119
  0
VERTEX
  8
0
 62
7
  6
CONTINUOUS
 10
168.0170294657
 20
145.4816290908
  0
SEQEND
  0
POLYLINE
  8
SURFACE
 62
7
  6
CONTINUOUS
 66
1
 70
0
  0
VERTEX
  8
SURFACE
 62
7
  6
CONTINUOUS
 10
168.0178609839
 20
103.4387397339
  0
VERTEX
  8
SURFACE
 62
7
  6
CONTINUOUS
 10
167.9904397234
 20
102.8053121581
  0
VERTEX
  8
SURFACE
 62
7
  6
CONTINUOUS
 10
167.9056405105
 20
102.2177912575
  0
VERTEX
  8
SURFACE
 62
7
  6
CONTINUOUS
 10
167.7561117387
 20
101.7037727829
  0
VERTEX
  8
SURFACE
 62
7
  6
CONTINUOUS
 10
167.5303693958
 20
101.2833175393
  0
VERTEX
  8
SURFACE
 62
7
  6
CONTINUOUS
 10
167.2109558696
 20
100.968538682
  0
VERTEX
  8
SURFACE
 62
7
  6
CONTINUOUS
 10
166.7695442114
 20
100.7693066706
  0
VERTEX
  8
SURFACE
 62
7
  6
CONTINUOUS
 10
166.1729052358
 20
100.7002069622
  0
SEQEND
  0
POLYLINE
  8
SURFACE
 62
7
  6
CONTINUOUS
 66
1
 70
0
  0
VERTEX
  8
SURFACE
 62
7
  6
CONTINUOUS
 10
153.5278609839
 20
118.9596551059
  0
VERTEX
  8
SURFACE
 62
7
  6
CONTINUOUS
 10
153.4968293109
 20
118.943652991
  0
VERTEX
  8
SURFACE
 62
7
  6
CONTINUOUS
 10
153.4006754433
 20
118.8790578071
  0
SEQEND
  0
POLYLINE
  8
SURFACE
 62
7
  6
CONTINUOUS
 66
1
 70
0
  0
VERTEX
  8
SURFACE
 62
7
  6
CONTINUOUS
 10
157.1172725367
 20
119.8599146423
  0
VERTEX
  8
SURFACE
 62
7
  6
CONTINUOUS
 10
157.1152369409
 20
119.8589432141
  0
VERTEX
  8
SURFACE
 62
7
  6
CONTINUOUS
 10
157.1289853063
 20
119.8637014651
  0
VERTEX
  8
SURFACE
 62
7
  6
CONTINUOUS
 10
157.1941201056
 20
119.8817970017
  0
VERTEX
  8
SURFACE
 62
7
  6
CONTINUOUS
 10
157.3096444919
 20
119.9064213901
  0
VERTEX
  8
SURFACE
 62
7
  6
CONTINUOUS
 10
157.4773842258
 20
119.9344478949
  0
VERTEX
  8
SURFACE
 62
7
  6
CONTINUOUS
 10
157.7001804615
 20
119.964035544
  0
VERTEX
  8
SURFACE
 62
7
  6
CONTINUOUS
 10
157.9807307309
 20
119.9938054586
  0
VERTEX
  8
SURFACE
 62
7
  6
CONTINUOUS
 10
158.3210454036
 20
120.022551246
  0
VERTEX
  8
SURFACE
 62
7
  6
CONTINUOUS
 10
158.7246208751
 20
120.0492619452
  0
VERTEX
  8
SURFACE
 62
7
  6
CONTINUOUS
 10
159.1963266148
 20
120.0728770744
  0
VERTEX
  8
SURFACE
 62
7
  6
CONTINUOUS
 10
159.7402938983
 20
120.0920361403
  0
VERTEX
  8
SURFACE
 62
7
  6
CONTINUOUS
 10
160.3584021976
 20
120.1049852363
  0
VERTEX
  8
SURFACE
 62
7
  6
CONTINUOUS
 10
161.0128609839
 20
120.1095266949
  0
SEQEND
  0
LINE
  8
SURFACE
 62
7
  6
CONTINUOUS
 10
169.5278609839
 20
144.5252069622
 11
169.5278609839
 21
101.2002069622
  0
LINE
  8
0
 62
7
  6
CONTINUOUS
 10
169.5278609839
 20
120.1252069622
 11
169.5278609839
 21
163.4502069622
  0
POLYLINE
  8
0
 62
7
  6
CONTINUOUS
 66
1
 70
0
  0
VERTEX
  8
0
 62
7
  6
CONTINUOUS
 10
154.5278577177
 20
145.0252051612
  0
VERTEX
  8
0
 62
7
  6
CONTINUOUS
 10
154.220126011
 20
144.9766790156
  0
VERTEX
  8
0
 62
7
  6
CONTINUOUS
 10
153.9407287864
 20
144.8346993242
  0
VERTEX
  8
0
 62
7
  6
CONTINUOUS
 10
153.7189402368
 20
144.6131269426
  0
VERTEX
  8
0
 62
7
  6
CONTINUOUS
 10
153.5768010281
 20
144.3342161868
  0
VERTEX
  8
0
 62
7
  6
CONTINUOUS
 10
153.5278633752
 20
144.0270657963
  0
SEQEND
  0
LINE
  8
0
 62
7
  6
CONTINUOUS
 10
161.0428609839
 20
144.5408872825
 11
161.0128609839
 21
144.5408872825
  0
LINE
  8
0
 62
7
  6
CONTINUOUS
 10
154.5278711134
 20
145.0252069622
 11
169.0278609839
 21
145.0252069622
  0
POLYLINE
  8
0
 62
7
  6
CONTINUOUS
 66
1
 70
0
  0
VERTEX
  8
0
 62
7
  6
CONTINUOUS
 10
161.0128609839
 20
144.5408872295
  0
VERTEX
  8
0
 62
7
  6
CONTINUOUS
 10
160.4260527565
 20
144.5445337169
  0
VERTEX
  8
0
 62
7
  6
CONTINUOUS
 10
159.8615471694
 20
144.5551369737
  0
VERTEX
  8
0
 62
7
  6
CONTINUOUS
 10
159.3566080009
 20
144.5710656507
  0
VERTEX
  8
0
 62
7
  6
CONTINUOUS
 10
158.9103063721
 20
144.5909852451
  0
VERTEX
  8
0
 62
7
  6
CONTINUOUS
 10
158.5200862955
 20
144.6138303566
  0
VERTEX
  8
0
 62
7
  6
CONTINUOUS
 10
158.1834774502
 20
144.6386837194
  0
VERTEX
  8
0
 62
7
  6
CONTINUOUS
 10
157.8974253452
 20
144.6647693627
  0
VERTEX
  8
0
 62
7
  6
CONTINUOUS
 10
157.6584203789
 20
144.6914408451
  0
VERTEX
  8
0
 62
7
  6
CONTINUOUS
 10
157.4632208137
 20
144.7180971166
  0
VERTEX
  8
0
 62
7
  6
CONTINUOUS
 10
157.309908477
 20
144.7439426303
  0
VERTEX
  8
0
 62
7
  6
CONTINUOUS
 10
157.1989487278
 20
144.7674441307
  0
VERTEX
  8
0
 62
7
  6
CONTINUOUS
 10
157.1322079221
 20
144.7856691156
  0
VERTEX
  8
0
 62
7
  6
CONTINUOUS
 10
157.1148618679
 20
144.7916975234
  0
SEQEND
  0
LINE
  8
0
 62
7
  6
CONTINUOUS
 10
153.0501219479
 20
148.1262858548
 11
149.6216840356
 21
148.2160626611
  0
POLYLINE
  8
0
 62
7
  6
CONTINUOUS
 66
1
 70
0
  0
VERTEX
  8
0
 62
7
  6
CONTINUOUS
 10
153.0499783644
 20
148.1262865353
  0
VERTEX
  8
0
 62
7
  6
CONTINUOUS
 10
153.2065802437
 20
148.1005868493
  0
VERTEX
  8
0
 62
7
  6
CONTINUOUS
 10
153.3495514043
 20
148.0282791103
  0
VERTEX
  8
0
 62
7
  6
CONTINUOUS
 10
153.4512451018
 20
147.9288738506
  0
VERTEX
  8
0
 62
7
  6
CONTINUOUS
 10
153.5079929176
 20
147.830256943
  0
VERTEX
  8
0
 62
7
  6
CONTINUOUS
 10
153.5267990161
 20
147.7646452174
  0
SEQEND
  0
POLYLINE
  8
0
 62
7
  6
CONTINUOUS
 66
1
 70
0
  0
VERTEX
  8
0
 62
7
  6
CONTINUOUS
 10
150.743096156
 20
148.1866973504
  0
VERTEX
  8
0
 62
7
  6
CONTINUOUS
 10
151.0156045808
 20
148.141391658
  0
VERTEX
  8
0
 62
7
  6
CONTINUOUS
 10
151.2657453649
 20
148.022976509
  0
VERTEX
  8
0
 62
7
  6
CONTINUOUS
 10
151.454196408
 20
147.8626303053
  0
SEQEND
  0
LINE
  8
0
 62
7
  6
CONTINUOUS
 10
153.0605691317
 20
153.7752069622
 11
164.0478609839
 21
153.7752069622
  0
LINE
  8
0
 62
7
  6
CONTINUOUS
 10
149.6478609839
 20
163.0752069622
 11
151.6478609839
 21
163.0752069622
  0
LINE
  8
0
 62
7
  6
CONTINUOUS
 10
164.5478609839
 20
163.9502069622
 11
169.0278609839
 21
163.9502069622
  0
POLYLINE
  8
SURFACE
 62
7
  6
CONTINUOUS
 66
1
 70
0
  0
VERTEX
  8
SURFACE
 62
7
  6
CONTINUOUS
 10
48.0998458904
 20
227.3790964094
  0
VERTEX
  8
SURFACE
 62
7
  6
CONTINUOUS
 10
48.1194851858
 20
226.9986865108
  0
VERTEX
  8
SURFACE
 62
7
  6
CONTINUOUS
 10
48.2781801327
 20
226.2453456166
  0
VERTEX
  8
SURFACE
 62
7
  6
CONTINUOUS
 10
48.5905486858
 20
225.5399719367
  0
VERTEX
  8
SURFACE
 62
7
  6
CONTINUOUS
 10
49.0413694457
 20
224.9169415511
  0
VERTEX
  8
SURFACE
 62
7
  6
CONTINUOUS
 10
49.3133739486
 20
224.6439495825
  0
VERTEX
  8
SURFACE
 62
7
  6
CONTINUOUS
 10
49.9341482336
 20
224.1914962748
  0
VERTEX
  8
SURFACE
 62
7
  6
CONTINUOUS
 10
50.6370160372
 20
223.8779895709
  0
VERTEX
  8
SURFACE
 62
7
  6
CONTINUOUS
 10
51.3875123981
 20
223.7187645407
  0
VERTEX
  8
SURFACE
 62
7
  6
CONTINUOUS
 10
51.7664003311
 20
223.6990636042
  0
SEQEND
  0
LINE
  8
SURFACE
 62
7
  6
CONTINUOUS
 10
48.621116591
 20
227.4090636042
 11
48.621116591
 21
227.3790636042
  0
LINE
  8
DEFAULT_1
 62
7
  6
CENTER
 10
52.316116591
 20
231.7940636042
 11
52.316116591
 21
229.3941636042
  0
LINE
  8
0
 62
2
  6
CONTINUOUS
 10
52.316116591
 20
228.2740636042
 11
52.316116591
 21
226.5140636042
  0
LINE
  8
DEFAULT_1
 62
7
  6
CENTER
 10
52.316116591
 20
222.9940636042
 11
52.316116591
 21
225.3939636042
  0
LINE
  8
0
 62
7
  6
CONTINUOUS
 10
56.011116591
 20
227.4090636042
 11
56.011116591
 21
227.3790636042
  0
POLYLINE
  8
SURFACE
 62
7
  6
CONTINUOUS
 66
1
 70
0
  0
VERTEX
  8
SURFACE
 62
7
  6
CONTINUOUS
 10
57.7409913052
 20
234.2962480934
  0
VERTEX
  8
SURFACE
 62
7
  6
CONTINUOUS
 10
57.6286534804
 20
234.2178683853
  0
VERTEX
  8
SURFACE
 62
7
  6
CONTINUOUS
 10
57.5010623969
 20
234.1277469247
  0
VERTEX
  8
SURFACE
 62
7
  6
CONTINUOUS
 10
57.3690570308
 20
234.0332304986
  0
SEQEND
  0
LINE
  8
SURFACE
 62
7
  6
CONTINUOUS
 10
57.8671543798
 20
234.383232086
 11
57.7409913052
 21
234.2962480934
  0
LINE
  8
SURFACE
 62
7
  6
CONTINUOUS
 10
69.3161165894
 20
215.0140636042
 11
91.3514240271
 21
215.0140636042
  0
LINE
  8
SURFACE
 62
7
  6
CONTINUOUS
 10
87.0212755752
 20
219.0140636042
 11
72.7548202136
 21
219.0140636042
  0
LINE
  8
SURFACE
 62
7
  6
CONTINUOUS
 10
52.3161192059
 20
219.8940636042
 11
67.8727548415
 21
219.8940636042
  0
LINE
  8
SURFACE
 62
7
  6
CONTINUOUS
 10
68.316116591
 20
218.8940643256
 11
68.316116591
 21
216.0140638311
  0
LINE
  8
DEFAULT_1
 62
7
  6
CENTER
 10
71.366116591
 20
209.0140636042
 11
71.366116591
 21
238.8940636042
  0
POLYLINE
  8
SURFACE
 62
7
  6
CONTINUOUS
 66
1
 70
0
  0
VERTEX
  8
SURFACE
 62
7
  6
CONTINUOUS
 10
92.2675542768
 20
229.7633136431
  0
VERTEX
  8
SURFACE
 62
7
  6
CONTINUOUS
 10
92.4185503048
 20
229.8084684306
  0
VERTEX
  8
SURFACE
 62
7
  6
CONTINUOUS
 10
92.568207203
 20
229.8520874858
  0
VERTEX
  8
SURFACE
 62
7
  6
CONTINUOUS
 10
92.736116591
 20
229.8997819542
  0
SEQEND
  0
LINE
  8
SURFACE
 62
7
  6
CONTINUOUS
 10
51.7664292413
 20
223.6990636042
 11
53.4887937714
 21
223.6990636042
  0
POLYLINE
  8
SURFACE
 62
7
  6
CONTINUOUS
 66
1
 70
0
  0
VERTEX
  8
SURFACE
 62
7
  6
CONTINUOUS
 10
62.2319390971
 20
232.5391078561
  0
VERTEX
  8
SURFACE
 62
7
  6
CONTINUOUS
 10
62.6108273789
 20
232.1067683693
  0
VERTEX
  8
SURFACE
 62
7
  6
CONTINUOUS
 10
62.955437988
 20
231.6468074467
  0
VERTEX
  8
SURFACE
 62
7
  6
CONTINUOUS
 10
63.2632226859
 20
231.1628136042
  0
SEQEND
  0
LINE
  8
SURFACE
 62
7
  6
CONTINUOUS
 10
92.236116591
 20
229.7537590691
 11
92.2675542768
 21
229.7633136431
  0
POLYLINE
  8
0
 62
7
  6
CONTINUOUS
 66
1
 70
0
  0
VERTEX
  8
0
 62
7
  6
CONTINUOUS
 10
52.3140962427
 20
223.6990636042
  0
VERTEX
  8
0
 62
7
  6
CONTINUOUS
 10
52.6936112888
 20
223.7185047038
  0
VERTEX
  8
0
 62
7
  6
CONTINUOUS
 10
53.4410781032
 20
223.8742127609
  0
VERTEX
  8
0
 62
7
  6
CONTINUOUS
 10
54.1497805063
 20
224.1847531839
  0
VERTEX
  8
0
 62
7
  6
CONTINUOUS
 10
54.7811698923
 20
224.6382862977
  0
VERTEX
  8
0
 62
7
  6
CONTINUOUS
 10
55.0556009398
 20
224.910137594
  0
VERTEX
  8
0
 62
7
  6
CONTINUOUS
 10
55.5136600947
 20
225.535362344
  0
VERTEX
  8
0
 62
7
  6
CONTINUOUS
 10
55.8290228667
 20
226.2383681013
  0
VERTEX
  8
0
 62
7
  6
CONTINUOUS
 10
55.9908343969
 20
226.9941192982
  0
VERTEX
  8
0
 62
7
  6
CONTINUOUS
 10
56.011116591
 20
227.3790636042
  0
SEQEND
  0
LINE
  8
SURFACE
 62
7
  6
CONTINUOUS
 10
89.4077035477
 20
230.9332023602
 11
90.0954235914
 21
231.0600636042
  0
LINE
  8
DEFAULT_1
 62
7
  6
CENTER
 10
94.816116591
 20
227.3940636042
 11
92.416216591
 21
227.3940636042
  0
LINE
  8
0
 62
2
  6
CONTINUOUS
 10
91.296116591
 20
227.3940636042
 11
89.536116591
 21
227.3940636042
  0
LINE
  8
DEFAULT_1
 62
7
  6
CENTER
 10
56.716116591
 20
227.3940636042
 11
54.316216591
 21
227.3940636042
  0
LINE
  8
0
 62
2
  6
CONTINUOUS
 10
53.196116591
 20
227.3940636042
 11
51.436116591
 21
227.3940636042
  0
LINE
  8
DEFAULT_1
 62
7
  6
CENTER
 10
47.916116591
 20
227.3940636042
 11
50.316016591
 21
227.3940636042
  0
LINE
  8
DEFAULT_1
 62
7
  6
CENTER
 10
86.016116591
 20
227.3940636042
 11
88.416016591
 21
227.3940636042
  0
POLYLINE
  8
0
 62
7
  6
CONTINUOUS
 66
1
 70
0
  0
VERTEX
  8
0
 62
7
  6
CONTINUOUS
 10
52.3140962427
 20
231.0890636042
  0
VERTEX
  8
0
 62
7
  6
CONTINUOUS
 10
52.6936112892
 20
231.0696225046
  0
VERTEX
  8
0
 62
7
  6
CONTINUOUS
 10
53.4410781042
 20
230.9139144473
  0
VERTEX
  8
0
 62
7
  6
CONTINUOUS
 10
54.1497805079
 20
230.6033740237
  0
VERTEX
  8
0
 62
7
  6
CONTINUOUS
 10
54.7811698933
 20
230.1498409099
  0
VERTEX
  8
0
 62
7
  6
CONTINUOUS
 10
55.0556009406
 20
229.8779896137
  0
VERTEX
  8
0
 62
7
  6
CONTINUOUS
 10
55.5136600953
 20
229.2527648635
  0
VERTEX
  8
0
 62
7
  6
CONTINUOUS
 10
55.8290228669
 20
228.5497591067
  0
VERTEX
  8
0
 62
7
  6
CONTINUOUS
 10
55.990834397
 20
227.7940079099
  0
VERTEX
  8
0
 62
7
  6
CONTINUOUS
 10
56.011116591
 20
227.4090636042
  0
SEQEND
  0
POLYLINE
  8
SURFACE
 62
7
  6
CONTINUOUS
 66
1
 70
0
  0
VERTEX
  8
SURFACE
 62
7
  6
CONTINUOUS
 10
63.6971625625
 20
230.9140636042
  0
VERTEX
  8
SURFACE
 62
7
  6
CONTINUOUS
 10
63.5257600494
 20
230.9441228168
  0
VERTEX
  8
SURFACE
 62
7
  6
CONTINUOUS
 10
63.3751004604
 20
231.0305744875
  0
VERTEX
  8
SURFACE
 62
7
  6
CONTINUOUS
 10
63.2632226859
 20
231.1628136042
  0
SEQEND
  0
POLYLINE
  8
SURFACE
 62
7
  6
CONTINUOUS
 66
1
 70
0
  0
VERTEX
  8
SURFACE
 62
7
  6
CONTINUOUS
 10
92.4185503048
 20
224.9796587779
  0
VERTEX
  8
SURFACE
 62
7
  6
CONTINUOUS
 10
92.568207203
 20
224.9360397227
  0
VERTEX
  8
SURFACE
 62
7
  6
CONTINUOUS
 10
92.736116591
 20
224.8883452543
  0
SEQEND
  0
POLYLINE
  8
SURFACE
 62
7
  6
CONTINUOUS
 66
1
 70
0
  0
VERTEX
  8
SURFACE
 62
7
  6
CONTINUOUS
 10
51.7664003307
 20
231.0890636042
  0
VERTEX
  8
SURFACE
 62
7
  6
CONTINUOUS
 10
51.3875122408
 20
231.0693626514
  0
VERTEX
  8
SURFACE
 62
7
  6
CONTINUOUS
 10
50.6370158911
 20
230.9101375901
  0
VERTEX
  8
SURFACE
 62
7
  6
CONTINUOUS
 10
49.9341481065
 20
230.5966308601
  0
VERTEX
  8
SURFACE
 62
7
  6
CONTINUOUS
 10
49.3133738442
 20
230.1441775316
  0
VERTEX
  8
SURFACE
 62
7
  6
CONTINUOUS
 10
49.0413693538
 20
229.8711855548
  0
VERTEX
  8
SURFACE
 62
7
  6
CONTINUOUS
 10
48.5905486203
 20
229.2481551579
  0
VERTEX
  8
SURFACE
 62
7
  6
CONTINUOUS
 10
48.2781800942
 20
228.5427814724
  0
VERTEX
  8
SURFACE
 62
7
  6
CONTINUOUS
 10
48.1194851736
 20
227.7894405803
  0
VERTEX
  8
SURFACE
 62
7
  6
CONTINUOUS
 10
48.0998458904
 20
227.4090307422
  0
SEQEND
  0
LINE
  8
SURFACE
 62
7
  6
CONTINUOUS
 10
62.1458790583
 20
230.9140636042
 11
89.270690906
 21
230.9140636042
  0
LINE
  8
SURFACE
 62
7
  6
CONTINUOUS
 10
90.8124872244
 20
230.9140636042
 11
95.636116591
 21
230.9140636042
  0
LINE
  8
SURFACE
 62
7
  6
CONTINUOUS
 10
53.4887936935
 20
231.0890636042
 11
51.7664291615
 21
231.0890636042
  0
POLYLINE
  8
SURFACE
 62
7
  6
CONTINUOUS
 66
1
 70
0
  0
VERTEX
  8
SURFACE
 62
7
  6
CONTINUOUS
 10
59.2433550028
 20
234.3840636042
  0
VERTEX
  8
SURFACE
 62
7
  6
CONTINUOUS
 10
59.3685209841
 20
234.3566423437
  0
VERTEX
  8
SURFACE
 62
7
  6
CONTINUOUS
 10
59.6237896231
 20
234.2718431308
  0
VERTEX
  8
SURFACE
 62
7
  6
CONTINUOUS
 10
59.9926868631
 20
234.122314359
  0
VERTEX
  8
SURFACE
 62
7
  6
CONTINUOUS
 10
60.4546812324
 20
233.8965720162
  0
VERTEX
  8
SURFACE
 62
7
  6
CONTINUOUS
 10
60.9917824912
 20
233.5771584899
  0
VERTEX
  8
SURFACE
 62
7
  6
CONTINUOUS
 10
61.5917645266
 20
233.1357468318
  0
VERTEX
  8
SURFACE
 62
7
  6
CONTINUOUS
 10
62.2319390971
 20
232.5391078561
  0
SEQEND
  0
POLYLINE
  8
SURFACE
 62
7
  6
CONTINUOUS
 66
1
 70
0
  0
VERTEX
  8
SURFACE
 62
7
  6
CONTINUOUS
 10
92.236116591
 20
225.0343681394
  0
VERTEX
  8
SURFACE
 62
7
  6
CONTINUOUS
 10
92.2675542768
 20
225.0248135654
  0
VERTEX
  8
SURFACE
 62
7
  6
CONTINUOUS
 10
92.4185503048
 20
224.9796587779
  0
SEQEND
  0
LINE
  8
SURFACE
 62
7
  6
CONTINUOUS
 10
57.8695849815
 20
234.3840635962
 11
59.2433550028
 21
234.3840636042
  0
LINE
  8
SURFACE
 62
7
  6
CONTINUOUS
 10
90.0954235914
 20
231.0600636042
 11
90.6601485625
 21
230.9378357889
  0
POLYLINE
  8
SURFACE
 62
7
  6
CONTINUOUS
 66
1
 70
0
  0
VERTEX
  8
SURFACE
 62
7
  6
CONTINUOUS
 10
57.8695849815
 20
234.3840635962
  0
VERTEX
  8
SURFACE
 62
7
  6
CONTINUOUS
 10
57.8687735165
 20
234.3839709728
  0
VERTEX
  8
SURFACE
 62
7
  6
CONTINUOUS
 10
57.867963215
 20
234.3836937042
  0
VERTEX
  8
SURFACE
 62
7
  6
CONTINUOUS
 10
57.8671543798
 20
234.383232086
  0
SEQEND
  0
LINE
  8
SURFACE
 62
7
  6
CONTINUOUS
 10
55.816116591
 20
235.8940636042
 11
87.3063751691
 21
235.8940636042
  0
LINE
  8
SURFACE
 62
7
  6
CONTINUOUS
 10
90.0954235914
 20
223.7280636042
 11
90.1024744069
 21
223.2258471295
  0
LINE
  8
DEFAULT_1
 62
7
  6
CENTER
 10
90.416116591
 20
231.7940636042
 11
90.416116591
 21
229.3941636042
  0
LINE
  8
0
 62
2
  6
CONTINUOUS
 10
90.416116591
 20
228.2740636042
 11
90.416116591
 21
226.5140636042
  0
LINE
  8
DEFAULT_1
 62
7
  6
CENTER
 10
90.416116591
 20
222.9940636042
 11
90.416116591
 21
225.3939636042
  0
LINE
  8
SURFACE
 62
7
  6
CONTINUOUS
 10
92.236116591
 20
225.0343681394
 11
92.236116591
 21
229.7537590691
  0
LINE
  8
SURFACE
 62
7
  6
CONTINUOUS
 10
96.9113071194
 20
223.6440636042
 11
92.2174494309
 21
215.5140636042
  0
LINE
  8
SURFACE
 62
7
  6
CONTINUOUS
 10
96.136116591
 20
230.4140636042
 11
95.636116591
 21
230.9140636042
  0
LINE
  8
SURFACE
 62
7
  6
CONTINUOUS
 10
95.636116591
 20
232.3169579563
 11
95.636116591
 21
230.9140636042
  0
LINE
  8
SURFACE
 62
7
  6
CONTINUOUS
 10
96.3413202006
 20
231.7915168822
 11
96.7119677291
 21
231.3462329927
  0
ARC
  8
SURFACE
 62
7
  6
CONTINUOUS
 10
62.2319390971
 20
103.7002069622
 40
3.0
 50
185.0
 51
270.0
  0
ARC
  8
SURFACE
 62
7
  6
CONTINUOUS
 10
45.3161180545
 20
120.8095299417
 40
0.5000015883
 50
179.9996772917
 51
264.9287278923
  0
ARC
  8
SURFACE
 62
7
  6
CONTINUOUS
 10
57.3690570308
 20
119.1252069622
 40
0.5
 50
5.0
 51
90.0
  0
ARC
  8
0
 62
7
  6
CONTINUOUS
 10
62.2319390971
 20
160.9502069622
 40
3.0
 50
90.0
 51
175.0
  0
ARC
  8
0
 62
7
  6
CONTINUOUS
 10
45.3161180545
 20
143.8408839827
 40
0.5000015883
 50
95.0680430654
 51
180.0002984942
  0
ARC
  8
0
 62
7
  6
CONTINUOUS
 10
57.3690570308
 20
145.5252069622
 40
0.5
 50
270.0
 51
355.0
  0
ARC
  8
0
 62
7
  6
CONTINUOUS
 10
53.1379470625
 20
144.5252069622
 40
0.5
 50
90.0
 51
95.0
  0
ARC
  8
SURFACE
 62
7
  6
CONTINUOUS
 10
86.2235341875
 20
119.6252069622
 40
0.5
 50
180.0
 51
270.0
  0
ARC
  8
SURFACE
 62
7
  6
CONTINUOUS
 10
92.636116591
 20
103.7002069622
 40
3.0
 50
269.9996593618
 51
0.0011316487
  0
ARC
  8
SURFACE
 62
7
  6
CONTINUOUS
 10
96.136116591
 20
110.3752069622
 40
0.5
 50
90.0
 51
179.9988272658
  0
ARC
  8
SURFACE
 62
7
  6
CONTINUOUS
 10
96.916116591
 20
111.8752069622
 40
1.0
 50
270.0
 51
360.0
  0
ARC
  8
SURFACE
 62
7
  6
CONTINUOUS
 10
96.9161165805
 20
117.4827198818
 40
0.9999999988
 50
0.0
 51
84.9999993919
  0
ARC
  8
0
 62
7
  6
CONTINUOUS
 10
92.636116591
 20
160.9502069622
 40
3.0
 50
359.9988683513
 51
90.0003406382
  0
ARC
  8
0
 62
7
  6
CONTINUOUS
 10
96.916116591
 20
152.7752069622
 40
1.0
 50
0.0
 51
90.0
  0
ARC
  8
0
 62
7
  6
CONTINUOUS
 10
96.9161165805
 20
147.1676940425
 40
0.9999999988
 50
275.0000006081
 51
360.0
  0
ARC
  8
0
 62
7
  6
CONTINUOUS
 10
86.2235341875
 20
145.0252069622
 40
0.5
 50
90.0
 51
180.0
  0
ARC
  8
0
 62
7
  6
CONTINUOUS
 10
96.136116591
 20
154.2752069622
 40
0.5
 50
180.0011727342
 51
270.0
  0
ARC
  8
SURFACE
 62
7
  6
CONTINUOUS
 10
151.6478609839
 20
102.5752069622
 40
1.0
 50
270.0
 51
360.0
  0
ARC
  8
SURFACE
 62
7
  6
CONTINUOUS
 10
149.6478609839
 20
102.5752069622
 40
1.0
 50
180.0
 51
270.0
  0
ARC
  8
SURFACE
 62
7
  6
CONTINUOUS
 10
153.1478609035
 20
110.3752069622
 40
0.4999999911
 50
99.8740210381
 51
180.0
  0
ARC
  8
SURFACE
 62
7
  6
CONTINUOUS
 10
149.6478609839
 20
115.4346939383
 40
1.0
 50
91.5
 51
180.0
  0
ARC
  8
SURFACE
 62
7
  6
CONTINUOUS
 10
156.8328609839
 20
120.1252069622
 40
0.5
 50
270.0
 51
335.2772508137
  0
ARC
  8
0
 62
7
  6
CONTINUOUS
 10
149.6478609839
 20
149.2157199861
 40
1.0
 50
180.0
 51
268.5
  0
ARC
  8
0
 62
7
  6
CONTINUOUS
 10
151.6478609839
 20
162.0752069622
 40
1.0
 50
0.0
 51
90.0
  0
ARC
  8
0
 62
7
  6
CONTINUOUS
 10
149.6478609839
 20
162.0752069622
 40
1.0
 50
90.0
 51
180.0
  0
ARC
  8
0
 62
7
  6
CONTINUOUS
 10
153.1478609035
 20
154.2752069622
 40
0.4999999911
 50
180.0
 51
260.1259789619
  0
ARC
  8
0
 62
7
  6
CONTINUOUS
 10
156.832861402
 20
144.5252069622
 40
0.49999995
 50
24.7163154797
 51
90.0000479107
  0
ARC
  8
SURFACE
 62
7
  6
CONTINUOUS
 10
164.0478609839
 20
110.3752069622
 40
0.5
 50
0.0
 51
90.0
  0
ARC
  8
SURFACE
 62
7
  6
CONTINUOUS
 10
169.0278609839
 20
101.2002069622
 40
0.5
 50
270.0
 51
360.0
  0
ARC
  8
SURFACE
 62
7
  6
CONTINUOUS
 10
169.0278609839
 20
120.1252069622
 40
0.5
 50
270.0
 51
360.0
  0
ARC
  8
SURFACE
 62
7
  6
CONTINUOUS
 10
165.2228609839
 20
120.1252069622
 40
0.5
 50
204.7150611006
 51
270.0
  0
ARC
  8
0
 62
7
  6
CONTINUOUS
 10
165.2228609839
 20
144.5252069622
 40
0.5
 50
90.0
 51
155.280374519
  0
ARC
  8
0
 62
7
  6
CONTINUOUS
 10
164.0478609839
 20
154.2752069622
 40
0.5
 50
270.0
 51
360.0
  0
ARC
  8
0
 62
7
  6
CONTINUOUS
 10
169.0278609839
 20
163.4502069622
 40
0.5
 50
0.0
 51
90.0
  0
ARC
  8
0
 62
7
  6
CONTINUOUS
 10
169.0278609839
 20
144.5252069622
 40
0.5
 50
0.0
 51
90.0
  0
ARC
  8
SURFACE
 62
7
  6
CONTINUOUS
 10
55.816116591
 20
223.8940636042
 40
12.0
 50
90.0
 51
154.5449158179
  0
ARC
  8
0
 62
7
  6
CONTINUOUS
 10
55.816116591
 20
223.8940636042
 40
12.0
 50
103.4669426475
 51
154.5449158179
  0
ARC
  8
SURFACE
 62
7
  6
CONTINUOUS
 10
69.316116591
 20
216.0140636042
 40
1.0
 50
179.9999740098
 51
269.9999999083
  0
ARC
  8
SURFACE
 62
7
  6
CONTINUOUS
 10
67.316116591
 20
218.8940636042
 40
1.0
 50
0.0000413316
 51
89.9999900854
  0
ARC
  8
0
 62
7
  6
CONTINUOUS
 10
67.316116591
 20
218.8940636042
 40
1.0
 50
71.7767616376
 51
72.2808304509
  0
ARC
  8
0
 62
7
  6
CONTINUOUS
 10
67.316116591
 20
218.8940636042
 40
1.0
 50
0.0
 51
53.7922154861
  0
ARC
  8
SURFACE
 62
7
  6
CONTINUOUS
 10
54.316116591
 20
227.3940636042
 40
9.5
 50
170.7754379081
 51
179.999932507
  0
ARC
  8
SURFACE
 62
7
  6
CONTINUOUS
 10
52.316116591
 20
227.3940636042
 40
7.5
 50
179.9999145089
 51
270.0000199763
  0
ARC
  8
0
 62
7
  6
CONTINUOUS
 10
52.316116591
 20
227.3940636042
 40
7.5
 50
179.9999145089
 51
270.0000199763
  0
ARC
  8
SURFACE
 62
7
  6
CONTINUOUS
 10
52.301116591
 20
227.4090636042
 40
3.68
 50
90.0
 51
180.0
  0
ARC
  8
SURFACE
 62
7
  6
CONTINUOUS
 10
52.301116591
 20
227.3790636042
 40
3.68
 50
180.0
 51
270.0
  0
ARC
  8
SURFACE
 62
7
  6
CONTINUOUS
 10
45.4325078746
 20
228.8368027258
 40
0.5
 50
154.5449157747
 51
170.7754368822
  0
ARC
  8
0
 62
7
  6
CONTINUOUS
 10
45.4325078746
 20
228.8368027258
 40
0.5
 50
154.5449157747
 51
170.7754368822
  0
ARC
  8
SURFACE
 62
7
  6
CONTINUOUS
 10
87.3063751691
 20
223.8940636042
 40
12.0
 50
35.8029894361
 51
38.3902284519
  0
ARC
  8
SURFACE
 62
7
  6
CONTINUOUS
 10
87.3063751691
 20
223.8940636042
 40
12.0
 50
41.1567346329
 51
90.0
  0
ARC
  8
0
 62
7
  6
CONTINUOUS
 10
87.3063751691
 20
223.8940636042
 40
12.0
 50
51.256341703
 51
65.7479247909
  0
ARC
  8
0
 62
7
  6
CONTINUOUS
 10
87.3063751691
 20
223.8940636042
 40
12.0
 50
46.1950202502
 51
51.1655865701
  0
ARC
  8
SURFACE
 62
7
  6
CONTINUOUS
 10
91.3514240271
 20
216.0140636042
 40
1.0
 50
270.0
 51
330.0
  0
ARC
  8
0
 62
7
  6
CONTINUOUS
 10
89.746116591
 20
226.7076583115
 40
3.0
 50
308.832154071
 51
315.2201543671
  0
ARC
  8
0
 62
7
  6
CONTINUOUS
 10
89.746116591
 20
226.7076583115
 40
3.0
 50
299.980861024
 51
303.7012147395
  0
ARC
  8
0
 62
7
  6
CONTINUOUS
 10
89.746116591
 20
226.7076583115
 40
3.0
 50
288.2391189995
 51
293.9948664246
  0
ARC
  8
SURFACE
 62
7
  6
CONTINUOUS
 10
89.746116591
 20
226.7076583115
 40
3.0
 50
276.6864390383
 51
326.0987380031
  0
ARC
  8
0
 62
7
  6
CONTINUOUS
 10
89.746116591
 20
228.080468897
 40
3.0
 50
64.8262226316
 51
72.2668203907
  0
ARC
  8
0
 62
7
  6
CONTINUOUS
 10
89.746116591
 20
228.080468897
 40
3.0
 50
45.4135727804
 51
53.5379015266
  0
ARC
  8
0
 62
7
  6
CONTINUOUS
 10
89.746116591
 20
228.080468897
 40
3.0
 50
33.9012619969
 51
40.0184036804
  0
ARC
  8
SURFACE
 62
7
  6
CONTINUOUS
 10
89.746116591
 20
228.080468897
 40
3.0
 50
33.9012619969
 51
72.2612480055
  0
ARC
  8
0
 62
7
  6
CONTINUOUS
 10
90.416116591
 20
227.3940636042
 40
7.5
 50
330.0
 51
332.7276132791
  0
ARC
  8
SURFACE
 62
7
  6
CONTINUOUS
 10
90.416116591
 20
227.3940636042
 40
7.5
 50
330.0
 51
27.9910295467
  0
ARC
  8
0
 62
7
  6
CONTINUOUS
 10
90.416116591
 20
227.3940636042
 40
3.68
 50
254.7312616684
 51
256.6070286496
  0
ARC
  8
0
 62
7
  6
CONTINUOUS
 10
90.416116591
 20
227.3940636042
 40
3.68
 50
111.5492972648
 51
111.6165506396
  0
ARC
  8
0
 62
7
  6
CONTINUOUS
 10
90.416116591
 20
227.3940636042
 40
3.68
 50
105.9014530835
 51
108.0112951378
  0
ARC
  8
SURFACE
 62
7
  6
CONTINUOUS
 10
90.416116591
 20
227.3940636042
 40
3.68
 50
105.9038224962
 51
265.0006272484
  0
ARC
  8
SURFACE
 62
7
  6
CONTINUOUS
 10
89.270690906
 20
231.4140636042
 40
0.5
 50
270.0
 51
285.9039358527
  0
ARC
  8
SURFACE
 62
7
  6
CONTINUOUS
 10
90.8124872244
 20
231.4140636042
 40
0.5
 50
252.2612480055
 51
270.0
  0
ARC
  8
SURFACE
 62
7
  6
CONTINUOUS
 10
95.1361190423
 20
232.3169558586
 40
0.4999987744
 50
0.0002403773
 51
47.0904969993
  0
ENDSEC
  0
EOF
