  0
SECTION
  2
HEADER
  9
$EXTMAX
 10
210.0
 20
297.0
 30
0.0
  9
$EXTMIN
 10
0.0
 20
0.0
 30
0.0
  9
$LIMMIN
 10
0.0
 20
0.0
  9
$LIMMAX
 10
210.0
 20
297.0
  9
$VIEWCTR
 10
105.0
 20
148.5
  9
$VIEWSIZE
 40
297.0
  9
$CLAYER
  8
0
  9
$LTSCALE
 40
19.36
  9
$CELTYPE
  6
BYLAYER
  9
$DIMSCALE
 40
1.0
  9
$DIMASZ
 40
3.5
  9
$DIMEXO
 40
1.0
  9
$DIMDLI
 40
13.376
  9
$DIMEXE
 40
2.0
  9
$DIMCEN
 40
3.168
  9
$DIMLFAC
 40
1.0
  9
$DIMBLK
  1
_FILLED
  9
$DIMTXT
 40
3.5
  9
$PDMODE
 70
3
  9
$PDSIZE
 40
0.3125
  9
$TILEMODE
 70
1
  0
ENDSEC
  0
SECTION
  2
TABLES
  0
TABLE
  2
LTYPE
 70
6
  0
LTYPE
  2
BYBLOCK
 70
0
  3

 72
65
 73
0
 40
0.0
  0
LTYPE
  2
BYLAYER
 70
0
  3

 72
65
 73
0
 40
0.0
  0
LTYPE
  2
CONTINUOUS
 70
64
  3
Solid line
 72
65
 73
0
 40
0.0
  0
LTYPE
  2
CENTER
 70
64
  3
____ _ ____ _ ____ _ ____ _ ____ _ ____ _ ____
 72
65
 73
4
 40
0.6
 49
0.375
 49
-0.075
 49
0.075
 49
-0.075
  0
LTYPE
  2
HIDDEN
 70
64
  3
- - - - - - - - - - - - - - - - - - - -
 72
65
 73
2
 40
0.2
 49
0.1
 49
-0.1
  0
LTYPE
  2
PHANTOM
 70
64
  3
_____ _ _ _____ _ _ _____ _ _ _____
 72
65
 73
6
 40
0.8
 49
0.45
 49
-0.05
 49
0.1
 49
-0.05
 49
0.1
 49
-0.05
  0
LTYPE
  2
DOT
 70
64
  3
. . . . . . . . . . . . . . . . . . . .
 72
65
 73
2
 40
0.2
 49
0.1
 49
-0.1
  0
LTYPE
  2
DASHED
 70
64
  3
- - - - - - - - - - - - - - - - - - - -
 72
65
 73
2
 40
0.2
 49
0.1
 49
-0.1
  0
ENDTAB
  0
TABLE
  2
LAYER
 70
36
  0
LAYER
  2
0
 70
0
 62
7
  6
CONTINUOUS
  0
LAYER
  2
DEFAULT_1
 70
0
 62
7
  6
CENTER
  0
LAYER
  2
DEFAULT_2
 70
0
 62
8
  6
HIDDEN
  0
LAYER
  2
DEFAULT_3
 70
0
 62
7
  6
PHANTOM
  0
LAYER
  2
1_AXIS
 70
0
 62
7
  6
CONTINUOUS
  0
LAYER
  2
1_CSYS
 70
0
 62
7
  6
CONTINUOUS
  0
LAYER
  2
1_DATUM_PLANE
 70
0
 62
7
  6
CONTINUOUS
  0
LAYER
  2
2_FEATURE
 70
0
 62
7
  6
CONTINUOUS
  0
LAYER
  2
6_DIM
 70
0
 62
7
  6
CONTINUOUS
  0
LAYER
  2
AXES
 70
0
 62
7
  6
CONTINUOUS
  0
LAYER
  2
CSYS
 70
0
 62
7
  6
CONTINUOUS
  0
LAYER
  2
PLANES
 70
0
 62
7
  6
CONTINUOUS
  0
LAYER
  2
QUILTS
 70
0
 62
7
  6
CONTINUOUS
  0
ENDTAB
  0
TABLE
  2
STYLE
 70
1
  0
STYLE
  2
STANDARD
 70
0
 40
0.0
 41
0.8
 50
0.0
 71
0
 42
0.2
  3
txt
  4

  0
STYLE
  2
TEXTSTYLE_1
 70
0
 40
0.0
 41
0.8
 50
0.0
 71
0
 42
0.2
  3
gdt
  4

  0
STYLE
  2
TEXTSTYLE_2
 70
0
 40
0.0
 41
0.6
 50
0.0
 71
0
 42
0.2
  3
txt
  4

  0
STYLE
  2
TEXTSTYLE_3
 70
0
 40
0.0
 41
1.0
 50
0.0
 71
0
 42
0.2
  3
ftb_____.ttf
  4

  0
STYLE
  2
TEXTSTYLE_4
 70
0
 40
0.0
 41
1.0
 50
0.0
 71
0
 42
0.2
  3
fti_____.ttf
  4

  0
STYLE
  2
TEXTSTYLE_5
 70
0
 40
0.0
 41
1.0
 50
0.0
 71
0
 42
0.2
  3
frutiger light.ttf
  4

  0
STYLE
  2
TEXTSTYLE_6
 70
0
 40
0.0
 41
0.7
 50
0.0
 71
0
 42
0.2
  3
txt
  4

  0
STYLE
  2
TEXTSTYLE_7
 70
0
 40
0.0
 41
0.8
 50
0.0
 71
0
 42
0.2
  3
txt
  4

  0
ENDTAB
  0
ENDSEC
  0
SECTION
  2
BLOCKS
  0
BLOCK
  8
0
 62
2
  6
CONTINUOUS
  2
SYMBOL_11_BL1
 70
64
 10
173.3924355793
 20
35.4837666925
  0
TEXT
  8
0
 62
7
  6
CONTINUOUS
 10
164.4507205878
 20
30.5765230696
  7
TEXTSTYLE_4
 40
1.0655737705
  1
The brand for plastic modular belts and chains
 41
1.0
 72
0
  0
LINE
  8
0
 62
7
  6
CONTINUOUS
 10
149.3705039683
 20
36.0575371843
 11
149.3705039683
 21
33.9263896433
  0
LINE
  8
0
 62
7
  6
CONTINUOUS
 10
149.6595664615
 20
30.9354583476
 11
149.6595664615
 21
31.0322494069
  0
LINE
  8
0
 62
7
  6
CONTINUOUS
 10
149.3705039683
 20
30.9999857205
 11
149.4283164701
 21
30.8064036019
  0
LINE
  8
0
 62
7
  6
CONTINUOUS
 10
150.7639465913
 20
33.8444224302
 11
150.7639465913
 21
36.0575371843
  0
LINE
  8
0
 62
7
  6
CONTINUOUS
 10
151.6830039132
 20
32.0001601351
 11
151.6830039132
 21
30.4837666925
  0
LINE
  8
0
 62
7
  6
CONTINUOUS
 10
151.9720664683
 20
30.4837666925
 11
151.9720664683
 21
31.2258315706
  0
LINE
  8
0
 62
7
  6
CONTINUOUS
 10
151.9720664683
 20
31.3548863163
 11
151.9720664683
 21
32.0001601351
  0
LINE
  8
0
 62
7
  6
CONTINUOUS
 10
149.4283164701
 20
31.1935678842
 11
149.3705039683
 21
30.9999857205
  0
LINE
  8
0
 62
7
  6
CONTINUOUS
 10
149.7751914546
 20
30.7741399155
 11
149.6595664615
 21
30.9354583476
  0
LINE
  8
0
 62
7
  6
CONTINUOUS
 10
150.8736290235
 20
31.2903589434
 11
150.9314414683
 21
31.1935678842
  0
LINE
  8
0
 62
7
  6
CONTINUOUS
 10
151.2205040235
 20
31.1935678842
 11
151.1626914132
 21
31.3226226299
  0
LINE
  8
0
 62
7
  6
CONTINUOUS
 10
152.6491924929
 20
36.0575371843
 11
152.6491924929
 21
34.2542584958
  0
LINE
  8
0
 62
7
  6
CONTINUOUS
 10
152.6491924929
 20
32.9427830859
 11
152.6491924929
 21
32.287045381
  0
LINE
  8
0
 62
7
  6
CONTINUOUS
 10
153.0126914683
 20
31.1290405113
 11
153.0126914683
 21
30.4837666925
  0
LINE
  8
0
 62
7
  6
CONTINUOUS
 10
153.3017538581
 20
30.4837666925
 11
153.3017538581
 21
31.1290405113
  0
LINE
  8
0
 62
7
  6
CONTINUOUS
 10
149.6595664615
 20
31.0322494069
 11
149.7173789683
 21
31.1613041978
  0
LINE
  8
0
 62
7
  6
CONTINUOUS
 10
149.4283164701
 20
30.8064036019
 11
149.5439414683
 21
30.6773488336
  0
LINE
  8
0
 62
7
  6
CONTINUOUS
 10
152.9548788581
 20
31.258095257
 11
153.0126914683
 21
31.1290405113
  0
LINE
  8
0
 62
7
  6
CONTINUOUS
 10
153.7642540786
 20
30.7741399155
 11
153.8220663581
 21
30.6450851472
  0
LINE
  8
0
 62
7
  6
CONTINUOUS
 10
153.3017538581
 20
31.1290405113
 11
153.2439415786
 21
31.2903589434
  0
LINE
  8
0
 62
7
  6
CONTINUOUS
 10
153.7642540786
 20
31.3226226299
 11
153.7642540786
 21
31.258095257
  0
LINE
  8
0
 62
7
  6
CONTINUOUS
 10
153.7642540786
 20
30.8709309748
 11
153.7642540786
 21
30.7741399155
  0
LINE
  8
0
 62
7
  6
CONTINUOUS
 10
154.0426351159
 20
32.287045381
 11
154.0426351159
 21
36.0575371843
  0
LINE
  8
0
 62
7
  6
CONTINUOUS
 10
154.0533164683
 20
30.7418762065
 11
154.0533164683
 21
30.8064036019
  0
LINE
  8
0
 62
7
  6
CONTINUOUS
 10
154.3705039683
 20
36.0575371843
 11
154.3705039683
 21
32.287045381
  0
LINE
  8
0
 62
7
  6
CONTINUOUS
 10
151.1626914132
 20
30.6773488336
 11
151.2205040235
 21
30.8064036019
  0
LINE
  8
0
 62
7
  6
CONTINUOUS
 10
155.5564416889
 20
30.5805577631
 11
155.4986287478
 21
30.7418762065
  0
LINE
  8
0
 62
7
  6
CONTINUOUS
 10
155.2095666889
 20
31.258095257
 11
155.2095666889
 21
31.1613041978
  0
LINE
  8
0
 62
7
  6
CONTINUOUS
 10
155.2095666889
 20
31.0322494069
 11
155.2095666889
 21
30.8386672883
  0
LINE
  8
0
 62
7
  6
CONTINUOUS
 10
155.4986287478
 20
30.7418762065
 11
155.4986287478
 21
31.258095257
  0
LINE
  8
0
 62
7
  6
CONTINUOUS
 10
155.7639465913
 20
32.287045381
 11
155.7639465913
 21
34.0903240696
  0
LINE
  8
0
 62
7
  6
CONTINUOUS
 10
155.7639465913
 20
35.4017994794
 11
155.7639465913
 21
36.0575371843
  0
LINE
  8
0
 62
7
  6
CONTINUOUS
 10
156.0767541889
 20
32.0001601351
 11
156.0767541889
 21
31.838841703
  0
LINE
  8
0
 62
7
  6
CONTINUOUS
 10
156.0767541889
 20
31.5162047484
 11
156.0767541889
 21
30.4837666925
  0
LINE
  8
0
 62
7
  6
CONTINUOUS
 10
156.3658162478
 20
30.4837666925
 11
156.3658162478
 21
31.5162047484
  0
LINE
  8
0
 62
7
  6
CONTINUOUS
 10
156.3658162478
 20
31.838841703
 11
156.3658162478
 21
32.0001601351
  0
LINE
  8
0
 62
7
  6
CONTINUOUS
 10
150.9314414683
 20
30.8064036019
 11
150.8736290235
 21
30.7096125201
  0
LINE
  8
0
 62
7
  6
CONTINUOUS
 10
153.2439415786
 20
31.2903589434
 11
153.1861289683
 21
31.3548863163
  0
LINE
  8
0
 62
7
  6
CONTINUOUS
 10
154.1111290786
 20
30.6773488336
 11
154.0533164683
 21
30.7418762065
  0
LINE
  8
0
 62
7
  6
CONTINUOUS
 10
155.2673789683
 20
30.548294071
 11
155.3251912478
 21
30.4837666925
  0
LINE
  8
0
 62
7
  6
CONTINUOUS
 10
155.2095666889
 20
30.6450851472
 11
155.2673789683
 21
30.548294071
  0
LINE
  8
0
 62
7
  6
CONTINUOUS
 10
155.6142539683
 20
30.4837666925
 11
155.5564416889
 21
30.5805577631
  0
LINE
  8
0
 62
7
  6
CONTINUOUS
 10
155.4986287478
 20
31.258095257
 11
155.4408164683
 21
31.3548863163
  0
LINE
  8
0
 62
7
  6
CONTINUOUS
 10
156.8283164683
 20
31.5162047484
 11
156.8283164683
 21
30.4837666925
  0
LINE
  8
0
 62
7
  6
CONTINUOUS
 10
157.1173791889
 20
30.4837666925
 11
157.1173791889
 21
31.2258315706
  0
LINE
  8
0
 62
7
  6
CONTINUOUS
 10
157.1173791889
 20
31.3548863163
 11
157.1173791889
 21
31.5162047484
  0
LINE
  8
0
 62
7
  6
CONTINUOUS
 10
157.6491924929
 20
34.5001601351
 11
157.6491924929
 21
32.287045381
  0
LINE
  8
0
 62
7
  6
CONTINUOUS
 10
149.5439414683
 20
31.3226226299
 11
149.4283164701
 21
31.1935678842
  0
LINE
  8
0
 62
7
  6
CONTINUOUS
 10
149.7173789683
 20
31.1613041978
 11
149.7751914546
 21
31.2258315706
  0
LINE
  8
0
 62
7
  6
CONTINUOUS
 10
149.5439414683
 20
30.6773488336
 11
149.6595664615
 21
30.6128214495
  0
LINE
  8
0
 62
7
  6
CONTINUOUS
 10
149.9486289546
 20
30.6773488336
 11
149.7751914546
 21
30.7741399155
  0
LINE
  8
0
 62
7
  6
CONTINUOUS
 10
155.1517537478
 20
31.3226226299
 11
155.2095666889
 21
31.258095257
  0
LINE
  8
0
 62
7
  6
CONTINUOUS
 10
158.1001912478
 20
31.258095257
 11
158.1580041889
 21
31.0967768249
  0
LINE
  8
0
 62
7
  6
CONTINUOUS
 10
158.4470662478
 20
31.0967768249
 11
158.3892539683
 21
31.258095257
  0
LINE
  8
0
 62
7
  6
CONTINUOUS
 10
158.1580041889
 20
31.0967768249
 11
158.1580041889
 21
30.4837666925
  0
LINE
  8
0
 62
7
  6
CONTINUOUS
 10
158.4470662478
 20
30.4837666925
 11
158.4470662478
 21
31.0967768249
  0
LINE
  8
0
 62
7
  6
CONTINUOUS
 10
158.9095664683
 20
31.3226226299
 11
158.9095664683
 21
31.258095257
  0
LINE
  8
0
 62
7
  6
CONTINUOUS
 10
159.0426351159
 20
32.287045381
 11
159.0426351159
 21
34.418192922
  0
LINE
  8
0
 62
7
  6
CONTINUOUS
 10
159.3705039683
 20
36.0575371843
 11
159.3705039683
 21
32.287045381
  0
LINE
  8
0
 62
7
  6
CONTINUOUS
 10
154.0533164683
 20
30.8064036019
 11
154.1111290786
 21
30.9031946612
  0
LINE
  8
0
 62
7
  6
CONTINUOUS
 10
149.6595664615
 20
30.6128214495
 11
149.8330039821
 21
30.548294071
  0
LINE
  8
0
 62
7
  6
CONTINUOUS
 10
151.1626914132
 20
31.3226226299
 11
150.9892539132
 21
31.4194136891
  0
LINE
  8
0
 62
7
  6
CONTINUOUS
 10
153.8220663581
 20
30.6450851472
 11
153.9955038581
 21
30.548294071
  0
LINE
  8
0
 62
7
  6
CONTINUOUS
 10
152.8392539683
 20
31.3226226299
 11
152.9548788581
 21
31.258095257
  0
LINE
  8
0
 62
7
  6
CONTINUOUS
 10
153.1861289683
 20
31.3548863163
 11
153.0705040786
 21
31.4194136891
  0
LINE
  8
0
 62
7
  6
CONTINUOUS
 10
158.9095664683
 20
30.7418762065
 11
159.0251916889
 21
30.6128214495
  0
LINE
  8
0
 62
7
  6
CONTINUOUS
 10
159.2564414683
 20
30.6773488336
 11
159.1986291889
 21
30.7418762065
  0
LINE
  8
0
 62
7
  6
CONTINUOUS
 10
158.9095664683
 20
31.258095257
 11
159.0251916889
 21
31.1290405113
  0
LINE
  8
0
 62
7
  6
CONTINUOUS
 10
158.3892539683
 20
31.258095257
 11
158.3314416889
 21
31.3548863163
  0
LINE
  8
0
 62
7
  6
CONTINUOUS
 10
160.7595660273
 20
30.6773488336
 11
160.7595660273
 21
30.7418762065
  0
LINE
  8
0
 62
7
  6
CONTINUOUS
 10
160.7639465913
 20
32.287045381
 11
160.7639465913
 21
36.0575371843
  0
LINE
  8
0
 62
7
  6
CONTINUOUS
 10
153.8220663581
 20
31.3871500027
 11
153.7642540786
 21
31.3226226299
  0
LINE
  8
0
 62
7
  6
CONTINUOUS
 10
150.7001914408
 20
31.3548863163
 11
150.8736290235
 21
31.2903589434
  0
LINE
  8
0
 62
7
  6
CONTINUOUS
 10
155.4408164683
 20
31.3548863163
 11
155.3251912478
 21
31.4194136891
  0
LINE
  8
0
 62
7
  6
CONTINUOUS
 10
159.2564414683
 20
31.1935678842
 11
159.1986291889
 21
31.258095257
  0
LINE
  8
0
 62
7
  6
CONTINUOUS
 10
160.4126916889
 20
30.8064036019
 11
160.4705039683
 21
30.7418762065
  0
LINE
  8
0
 62
7
  6
CONTINUOUS
 10
160.7595660273
 20
30.7418762065
 11
160.6439414683
 21
30.8709309748
  0
LINE
  8
0
 62
7
  6
CONTINUOUS
 10
160.4126916889
 20
31.3226226299
 11
160.4705039683
 21
31.258095257
  0
LINE
  8
0
 62
7
  6
CONTINUOUS
 10
160.7595660273
 20
31.258095257
 11
160.6439414683
 21
31.3871500027
  0
LINE
  8
0
 62
7
  6
CONTINUOUS
 10
154.0533164683
 20
31.258095257
 11
154.1111290786
 21
31.3226226299
  0
LINE
  8
0
 62
7
  6
CONTINUOUS
 10
153.8798789683
 20
30.9999857205
 11
153.7642540786
 21
30.8709309748
  0
LINE
  8
0
 62
7
  6
CONTINUOUS
 10
155.2095666889
 20
30.8386672883
 11
155.1517537478
 21
30.7741399155
  0
LINE
  8
0
 62
7
  6
CONTINUOUS
 10
155.1517537478
 20
30.5805577631
 11
155.2095666889
 21
30.6450851472
  0
LINE
  8
0
 62
7
  6
CONTINUOUS
 10
153.9955038581
 20
30.548294071
 11
154.1111290786
 21
30.5160303817
  0
LINE
  8
0
 62
7
  6
CONTINUOUS
 10
150.9892539132
 20
31.4194136891
 11
150.7580039683
 21
31.483941062
  0
LINE
  8
0
 62
7
  6
CONTINUOUS
 10
154.3423788581
 20
30.6128214495
 11
154.1111290786
 21
30.6773488336
  0
LINE
  8
0
 62
7
  6
CONTINUOUS
 10
153.0705040786
 20
31.4194136891
 11
152.8970665786
 21
31.483941062
  0
LINE
  8
0
 62
7
  6
CONTINUOUS
 10
155.3251912478
 20
31.4194136891
 11
155.1517537478
 21
31.483941062
  0
LINE
  8
0
 62
7
  6
CONTINUOUS
 10
157.9845666889
 20
31.3226226299
 11
158.1001912478
 21
31.258095257
  0
LINE
  8
0
 62
7
  6
CONTINUOUS
 10
158.3314416889
 20
31.3548863163
 11
158.2158164683
 21
31.4194136891
  0
LINE
  8
0
 62
7
  6
CONTINUOUS
 10
149.8330039821
 20
30.548294071
 11
150.0064414821
 21
30.5160303817
  0
LINE
  8
0
 62
7
  6
CONTINUOUS
 10
150.2955039959
 20
30.6128214495
 11
149.9486289546
 21
30.6773488336
  0
LINE
  8
0
 62
7
  6
CONTINUOUS
 10
152.7236290786
 20
31.3548863163
 11
152.8392539683
 21
31.3226226299
  0
LINE
  8
0
 62
7
  6
CONTINUOUS
 10
155.0361291889
 20
31.3548863163
 11
155.1517537478
 21
31.3226226299
  0
LINE
  8
0
 62
7
  6
CONTINUOUS
 10
159.3720666889
 20
30.6450851472
 11
159.2564414683
 21
30.6773488336
  0
LINE
  8
0
 62
7
  6
CONTINUOUS
 10
157.8689414683
 20
31.3548863163
 11
157.9845666889
 21
31.3226226299
  0
LINE
  8
0
 62
7
  6
CONTINUOUS
 10
159.0251916889
 20
30.6128214495
 11
159.1986291889
 21
30.548294071
  0
LINE
  8
0
 62
7
  6
CONTINUOUS
 10
158.2158164683
 20
31.4194136891
 11
158.0423789683
 21
31.483941062
  0
LINE
  8
0
 62
7
  6
CONTINUOUS
 10
159.4298789683
 20
31.1290405113
 11
159.2564414683
 21
31.1935678842
  0
LINE
  8
0
 62
7
  6
CONTINUOUS
 10
160.2392541889
 20
30.8709309748
 11
160.4126916889
 21
30.8064036019
  0
LINE
  8
0
 62
7
  6
CONTINUOUS
 10
160.6439414683
 20
31.3871500027
 11
160.4705039683
 21
31.4516773756
  0
LINE
  8
0
 62
7
  6
CONTINUOUS
 10
159.0251916889
 20
31.1290405113
 11
159.2564414683
 21
31.0322494069
  0
LINE
  8
0
 62
7
  6
CONTINUOUS
 10
160.6439414683
 20
30.8709309748
 11
160.4126916889
 21
30.967722034
  0
LINE
  8
0
 62
7
  6
CONTINUOUS
 10
159.1986291889
 20
31.258095257
 11
159.2564414683
 21
31.3226226299
  0
LINE
  8
0
 62
7
  6
CONTINUOUS
 10
149.6595664615
 20
31.3871500027
 11
149.5439414683
 21
31.3226226299
  0
LINE
  8
0
 62
7
  6
CONTINUOUS
 10
149.7751914546
 20
31.2258315706
 11
149.9486289546
 21
31.3226226299
  0
LINE
  8
0
 62
7
  6
CONTINUOUS
 10
152.0876915235
 20
31.4194136891
 11
151.9720664683
 21
31.3548863163
  0
LINE
  8
0
 62
7
  6
CONTINUOUS
 10
151.9720664683
 20
31.2258315706
 11
152.0876915235
 21
31.2903589434
  0
LINE
  8
0
 62
7
  6
CONTINUOUS
 10
150.9892539132
 20
30.5805577631
 11
151.1626914132
 21
30.6773488336
  0
LINE
  8
0
 62
7
  6
CONTINUOUS
 10
150.0064414821
 20
30.5160303817
 11
150.3533164408
 21
30.4837666925
  0
LINE
  8
0
 62
7
  6
CONTINUOUS
 10
154.1111290786
 20
30.5160303817
 11
154.3423788581
 21
30.4837666925
  0
LINE
  8
0
 62
7
  6
CONTINUOUS
 10
152.4923789683
 20
31.3871500027
 11
152.7236290786
 21
31.3548863163
  0
LINE
  8
0
 62
7
  6
CONTINUOUS
 10
154.8048790786
 20
31.3871500027
 11
155.0361291889
 21
31.3548863163
  0
LINE
  8
0
 62
7
  6
CONTINUOUS
 10
159.2564414683
 20
31.0322494069
 11
160.2392541889
 21
30.8709309748
  0
LINE
  8
0
 62
7
  6
CONTINUOUS
 10
160.4126916889
 20
30.967722034
 11
159.4298789683
 21
31.1290405113
  0
LINE
  8
0
 62
7
  6
CONTINUOUS
 10
152.8970665786
 20
31.483941062
 11
152.7236290786
 21
31.5162047484
  0
LINE
  8
0
 62
7
  6
CONTINUOUS
 10
159.1986291889
 20
30.548294071
 11
159.3720666889
 21
30.5160303817
  0
LINE
  8
0
 62
7
  6
CONTINUOUS
 10
158.0423789683
 20
31.483941062
 11
157.8689414683
 21
31.5162047484
  0
LINE
  8
0
 62
7
  6
CONTINUOUS
 10
160.2970664683
 20
31.3548863163
 11
160.4126916889
 21
31.3226226299
  0
LINE
  8
0
 62
7
  6
CONTINUOUS
 10
160.4705039683
 20
30.7418762065
 11
160.4126916889
 21
30.6773488336
  0
LINE
  8
0
 62
7
  6
CONTINUOUS
 10
159.0251916889
 20
31.4194136891
 11
158.9095664683
 21
31.3226226299
  0
LINE
  8
0
 62
7
  6
CONTINUOUS
 10
153.9376915786
 20
31.4516773756
 11
153.8220663581
 21
31.3871500027
  0
LINE
  8
0
 62
7
  6
CONTINUOUS
 10
153.9955038581
 20
31.0645131385
 11
153.8798789683
 21
30.9999857205
  0
LINE
  8
0
 62
7
  6
CONTINUOUS
 10
154.1111290786
 20
30.9031946612
 11
154.2267539683
 21
30.967722034
  0
LINE
  8
0
 62
7
  6
CONTINUOUS
 10
151.6830039132
 20
30.4837666925
 11
151.9720664683
 21
30.4837666925
  0
LINE
  8
0
 62
7
  6
CONTINUOUS
 10
153.0126914683
 20
30.4837666925
 11
153.3017538581
 21
30.4837666925
  0
LINE
  8
0
 62
7
  6
CONTINUOUS
 10
154.3423788581
 20
30.4837666925
 11
154.6892538581
 21
30.4837666925
  0
LINE
  8
0
 62
7
  6
CONTINUOUS
 10
155.3251912478
 20
30.4837666925
 11
155.6142539683
 21
30.4837666925
  0
LINE
  8
0
 62
7
  6
CONTINUOUS
 10
156.0767541889
 20
30.4837666925
 11
156.3658162478
 21
30.4837666925
  0
LINE
  8
0
 62
7
  6
CONTINUOUS
 10
156.8283164683
 20
30.4837666925
 11
157.1173791889
 21
30.4837666925
  0
LINE
  8
0
 62
7
  6
CONTINUOUS
 10
158.1580041889
 20
30.4837666925
 11
158.4470662478
 21
30.4837666925
  0
LINE
  8
0
 62
7
  6
CONTINUOUS
 10
159.7189416889
 20
30.4837666925
 11
160.0658166889
 21
30.4837666925
  0
LINE
  8
0
 62
7
  6
CONTINUOUS
 10
160.0658166889
 20
30.6128214495
 11
159.7189416889
 21
30.6128214495
  0
LINE
  8
0
 62
7
  6
CONTINUOUS
 10
154.6892538581
 20
30.6128214495
 11
154.3423788581
 21
30.6128214495
  0
LINE
  8
0
 62
7
  6
CONTINUOUS
 10
159.1986291889
 20
30.7418762065
 11
158.9095664683
 21
30.7418762065
  0
LINE
  8
0
 62
7
  6
CONTINUOUS
 10
151.2205040235
 20
30.8064036019
 11
150.9314414683
 21
30.8064036019
  0
LINE
  8
0
 62
7
  6
CONTINUOUS
 10
150.2955039959
 20
31.3871500027
 11
150.7001914408
 21
31.3548863163
  0
LINE
  8
0
 62
7
  6
CONTINUOUS
 10
150.7580039683
 20
31.483941062
 11
150.3533164408
 21
31.5162047484
  0
LINE
  8
0
 62
7
  6
CONTINUOUS
 10
159.3720666889
 20
30.5160303817
 11
159.7189416889
 21
30.4837666925
  0
LINE
  8
0
 62
7
  6
CONTINUOUS
 10
159.7189416889
 20
30.6128214495
 11
159.3720666889
 21
30.6450851472
  0
LINE
  8
0
 62
7
  6
CONTINUOUS
 10
155.1517537478
 20
31.483941062
 11
154.8048790786
 21
31.5162047484
  0
LINE
  8
0
 62
7
  6
CONTINUOUS
 10
159.9501914683
 20
31.3871500027
 11
160.2970664683
 21
31.3548863163
  0
LINE
  8
0
 62
7
  6
CONTINUOUS
 10
160.2970664683
 20
31.483941062
 11
159.9501914683
 21
31.5162047484
  0
LINE
  8
0
 62
7
  6
CONTINUOUS
 10
157.6376916889
 20
31.3871500027
 11
157.8689414683
 21
31.3548863163
  0
LINE
  8
0
 62
7
  6
CONTINUOUS
 10
160.4705039683
 20
31.4516773756
 11
160.2970664683
 21
31.483941062
  0
LINE
  8
0
 62
7
  6
CONTINUOUS
 10
160.6439414683
 20
30.5805577631
 11
160.7595660273
 21
30.6773488336
  0
LINE
  8
0
 62
7
  6
CONTINUOUS
 10
155.1517537478
 20
30.7741399155
 11
154.9783162478
 21
30.6773488336
  0
LINE
  8
0
 62
7
  6
CONTINUOUS
 10
157.2330037478
 20
31.4194136891
 11
157.1173791889
 21
31.3548863163
  0
LINE
  8
0
 62
7
  6
CONTINUOUS
 10
157.1173791889
 20
31.2258315706
 11
157.2330037478
 21
31.2903589434
  0
LINE
  8
0
 62
7
  6
CONTINUOUS
 10
149.8330039821
 20
31.4516773756
 11
149.6595664615
 21
31.3871500027
  0
LINE
  8
0
 62
7
  6
CONTINUOUS
 10
152.2611288581
 20
31.483941062
 11
152.0876915235
 21
31.4194136891
  0
LINE
  8
0
 62
7
  6
CONTINUOUS
 10
152.0876915235
 20
31.2903589434
 11
152.2611288581
 21
31.3548863163
  0
LINE
  8
0
 62
7
  6
CONTINUOUS
 10
150.8736290235
 20
30.7096125201
 11
150.7001914408
 21
30.6450851472
  0
LINE
  8
0
 62
7
  6
CONTINUOUS
 10
160.2970664683
 20
30.6450851472
 11
160.0658166889
 21
30.6128214495
  0
LINE
  8
0
 62
7
  6
CONTINUOUS
 10
154.6892538581
 20
30.4837666925
 11
154.9783162478
 21
30.5160303817
  0
LINE
  8
0
 62
7
  6
CONTINUOUS
 10
160.0658166889
 20
30.4837666925
 11
160.4126916889
 21
30.5160303817
  0
LINE
  8
0
 62
7
  6
CONTINUOUS
 10
150.3533164408
 20
30.4837666925
 11
150.7580039683
 21
30.5160303817
  0
LINE
  8
0
 62
7
  6
CONTINUOUS
 10
150.7001914408
 20
30.6450851472
 11
150.2955039959
 21
30.6128214495
  0
LINE
  8
0
 62
7
  6
CONTINUOUS
 10
154.5736289683
 20
31.0322494069
 11
155.2095666889
 21
31.0322494069
  0
LINE
  8
0
 62
7
  6
CONTINUOUS
 10
155.2095666889
 20
31.1613041978
 11
154.5736289683
 21
31.1613041978
  0
LINE
  8
0
 62
7
  6
CONTINUOUS
 10
150.9314414683
 20
31.1935678842
 11
151.2205040235
 21
31.1935678842
  0
LINE
  8
0
 62
7
  6
CONTINUOUS
 10
153.7642540786
 20
31.258095257
 11
154.0533164683
 21
31.258095257
  0
LINE
  8
0
 62
7
  6
CONTINUOUS
 10
160.4705039683
 20
31.258095257
 11
160.7595660273
 21
31.258095257
  0
LINE
  8
0
 62
7
  6
CONTINUOUS
 10
154.4580040786
 20
31.3871500027
 11
154.8048790786
 21
31.3871500027
  0
LINE
  8
0
 62
7
  6
CONTINUOUS
 10
159.6033164683
 20
31.3871500027
 11
159.9501914683
 21
31.3871500027
  0
LINE
  8
0
 62
7
  6
CONTINUOUS
 10
159.9501914683
 20
31.5162047484
 11
159.6033164683
 21
31.5162047484
  0
LINE
  8
0
 62
7
  6
CONTINUOUS
 10
157.8689414683
 20
31.5162047484
 11
157.6376916889
 21
31.5162047484
  0
LINE
  8
0
 62
7
  6
CONTINUOUS
 10
157.1173791889
 20
31.5162047484
 11
156.8283164683
 21
31.5162047484
  0
LINE
  8
0
 62
7
  6
CONTINUOUS
 10
156.3658162478
 20
31.5162047484
 11
156.0767541889
 21
31.5162047484
  0
LINE
  8
0
 62
7
  6
CONTINUOUS
 10
154.8048790786
 20
31.5162047484
 11
154.4580040786
 21
31.5162047484
  0
LINE
  8
0
 62
7
  6
CONTINUOUS
 10
152.7236290786
 20
31.5162047484
 11
152.4923789683
 21
31.5162047484
  0
LINE
  8
0
 62
7
  6
CONTINUOUS
 10
156.0767541889
 20
31.838841703
 11
156.3658162478
 21
31.838841703
  0
LINE
  8
0
 62
7
  6
CONTINUOUS
 10
156.3658162478
 20
32.0001601351
 11
156.0767541889
 21
32.0001601351
  0
LINE
  8
0
 62
7
  6
CONTINUOUS
 10
151.9720664683
 20
32.0001601351
 11
151.6830039132
 21
32.0001601351
  0
LINE
  8
0
 62
7
  6
CONTINUOUS
 10
151.0098482306
 20
32.287045381
 11
151.4224195792
 21
32.287045381
  0
LINE
  8
0
 62
7
  6
CONTINUOUS
 10
152.6491924929
 20
32.287045381
 11
154.0426351159
 21
32.287045381
  0
LINE
  8
0
 62
7
  6
CONTINUOUS
 10
154.3705039683
 20
32.287045381
 11
155.7639465913
 21
32.287045381
  0
LINE
  8
0
 62
7
  6
CONTINUOUS
 10
157.6491924929
 20
32.287045381
 11
159.0426351159
 21
32.287045381
  0
LINE
  8
0
 62
7
  6
CONTINUOUS
 10
159.3705039683
 20
32.287045381
 11
160.7639465913
 21
32.287045381
  0
LINE
  8
0
 62
7
  6
CONTINUOUS
 10
157.4064412478
 20
31.483941062
 11
157.2330037478
 21
31.4194136891
  0
LINE
  8
0
 62
7
  6
CONTINUOUS
 10
154.9783162478
 20
30.5160303817
 11
155.1517537478
 21
30.5805577631
  0
LINE
  8
0
 62
7
  6
CONTINUOUS
 10
160.4126916889
 20
30.5160303817
 11
160.6439414683
 21
30.5805577631
  0
LINE
  8
0
 62
7
  6
CONTINUOUS
 10
160.4126916889
 20
30.6773488336
 11
160.2970664683
 21
30.6450851472
  0
LINE
  8
0
 62
7
  6
CONTINUOUS
 10
159.3720666889
 20
31.3548863163
 11
159.6033164683
 21
31.3871500027
  0
LINE
  8
0
 62
7
  6
CONTINUOUS
 10
157.4064412478
 20
31.3548863163
 11
157.6376916889
 21
31.3871500027
  0
LINE
  8
0
 62
7
  6
CONTINUOUS
 10
154.3423788581
 20
30.9999857205
 11
154.5736289683
 21
31.0322494069
  0
LINE
  8
0
 62
7
  6
CONTINUOUS
 10
157.6376916889
 20
31.5162047484
 11
157.4064412478
 21
31.483941062
  0
LINE
  8
0
 62
7
  6
CONTINUOUS
 10
154.2267539683
 20
31.3548863163
 11
154.4580040786
 21
31.3871500027
  0
LINE
  8
0
 62
7
  6
CONTINUOUS
 10
159.6033164683
 20
31.5162047484
 11
159.2564414683
 21
31.483941062
  0
LINE
  8
0
 62
7
  6
CONTINUOUS
 10
154.5736289683
 20
31.1613041978
 11
154.2267539683
 21
31.1290405113
  0
LINE
  8
0
 62
7
  6
CONTINUOUS
 10
150.3533164408
 20
31.5162047484
 11
150.0064414821
 21
31.483941062
  0
LINE
  8
0
 62
7
  6
CONTINUOUS
 10
154.4580040786
 20
31.5162047484
 11
154.0533164683
 21
31.483941062
  0
LINE
  8
0
 62
7
  6
CONTINUOUS
 10
151.8295203618
 20
33.4345863646
 11
151.1737826569
 21
33.4345863646
  0
LINE
  8
0
 62
7
  6
CONTINUOUS
 10
157.2330037478
 20
31.2903589434
 11
157.4064412478
 21
31.3548863163
  0
LINE
  8
0
 62
7
  6
CONTINUOUS
 10
159.2564414683
 20
31.3226226299
 11
159.3720666889
 21
31.3548863163
  0
LINE
  8
0
 62
7
  6
CONTINUOUS
 10
159.2564414683
 20
31.483941062
 11
159.0251916889
 21
31.4194136891
  0
LINE
  8
0
 62
7
  6
CONTINUOUS
 10
154.9783162478
 20
30.6773488336
 11
154.6892538581
 21
30.6128214495
  0
LINE
  8
0
 62
7
  6
CONTINUOUS
 10
152.2611288581
 20
31.3548863163
 11
152.4923789683
 21
31.3871500027
  0
LINE
  8
0
 62
7
  6
CONTINUOUS
 10
152.4923789683
 20
31.5162047484
 11
152.2611288581
 21
31.483941062
  0
LINE
  8
0
 62
7
  6
CONTINUOUS
 10
150.0642539683
 20
31.3548863163
 11
150.2955039959
 21
31.3871500027
  0
LINE
  8
0
 62
7
  6
CONTINUOUS
 10
156.5836187224
 20
34.9099962007
 11
157.2393564274
 21
34.9099962007
  0
LINE
  8
0
 62
7
  6
CONTINUOUS
 10
154.2267539683
 20
30.967722034
 11
154.3423788581
 21
30.9999857205
  0
LINE
  8
0
 62
7
  6
CONTINUOUS
 10
154.2267539683
 20
31.1290405113
 11
153.9955038581
 21
31.0645131385
  0
LINE
  8
0
 62
7
  6
CONTINUOUS
 10
154.1111290786
 20
31.3226226299
 11
154.2267539683
 21
31.3548863163
  0
LINE
  8
0
 62
7
  6
CONTINUOUS
 10
150.7580039683
 20
30.5160303817
 11
150.9892539132
 21
30.5805577631
  0
LINE
  8
0
 62
7
  6
CONTINUOUS
 10
154.0533164683
 20
31.483941062
 11
153.9376915786
 21
31.4516773756
  0
LINE
  8
0
 62
7
  6
CONTINUOUS
 10
150.0064414821
 20
31.483941062
 11
149.8330039821
 21
31.4516773756
  0
LINE
  8
0
 62
7
  6
CONTINUOUS
 10
160.7639465913
 20
36.0575371843
 11
159.3705039683
 21
36.0575371843
  0
LINE
  8
0
 62
7
  6
CONTINUOUS
 10
157.4032908536
 20
36.0575371843
 11
156.990719505
 21
36.0575371843
  0
LINE
  8
0
 62
7
  6
CONTINUOUS
 10
155.7639465913
 20
36.0575371843
 11
154.3705039683
 21
36.0575371843
  0
LINE
  8
0
 62
7
  6
CONTINUOUS
 10
154.0426351159
 20
36.0575371843
 11
152.6491924929
 21
36.0575371843
  0
LINE
  8
0
 62
7
  6
CONTINUOUS
 10
150.7639465913
 20
36.0575371843
 11
149.3705039683
 21
36.0575371843
  0
LINE
  8
0
 62
7
  6
CONTINUOUS
 10
149.9486289546
 20
31.3226226299
 11
150.0642539683
 21
31.3548863163
  0
CIRCLE
  8
0
 62
7
  6
CONTINUOUS
 10
160.0672252798
 20
38.3936027581
 40
2.0901639344
  0
ARC
  8
0
 62
7
  6
CONTINUOUS
 10
151.0098482306
 20
33.9263896433
 40
1.6393442623
 50
180.0
 51
270.0
  0
ARC
  8
0
 62
7
  6
CONTINUOUS
 10
157.4032908536
 20
34.418192922
 40
1.6393442623
 50
0.0
 51
90.0
  0
ARC
  8
0
 62
7
  6
CONTINUOUS
 10
151.4224195792
 20
33.7624552171
 40
1.4754098361
 50
270.0
 51
326.2510114041
  0
ARC
  8
0
 62
7
  6
CONTINUOUS
 10
156.990719505
 20
34.5821273482
 40
1.4754098361
 50
90.0
 51
146.2510114041
  0
ARC
  8
0
 62
7
  6
CONTINUOUS
 10
151.8295203618
 20
34.2542584958
 40
0.8196721311
 50
270.0
 51
360.0
  0
ARC
  8
0
 62
7
  6
CONTINUOUS
 10
156.5836187224
 20
34.0903240696
 40
0.8196721311
 50
90.0
 51
180.0
  0
ARC
  8
0
 62
7
  6
CONTINUOUS
 10
151.1737826569
 20
33.8444224302
 40
0.4098360656
 50
180.0
 51
270.0
  0
ARC
  8
0
 62
7
  6
CONTINUOUS
 10
157.2393564274
 20
34.5001601351
 40
0.4098360656
 50
0.0
 51
90.0
  0
SOLID
  8
0
 62
7
  6
CONTINUOUS
 10
156.0767541889
 20
31.8388420633
 11
156.0767541889
 21
32.0001605469
 12
156.3658162478
 22
31.8388420633
 13
156.3658162478
 23
32.0001605469
  0
SOLID
  8
0
 62
7
  6
CONTINUOUS
 10
150.3533164408
 20
31.5162050961
 11
150.7580039683
 21
31.4839409236
 12
150.0064414821
 22
31.4839409236
 13
150.0064414821
 23
31.4839409236
  0
SOLID
  8
0
 62
7
  6
CONTINUOUS
 10
149.8330039821
 20
31.4516780059
 11
150.0064414821
 21
31.4839409236
 12
150.7580039683
 22
31.4839409236
 13
150.7580039683
 23
31.4839409236
  0
SOLID
  8
0
 62
7
  6
CONTINUOUS
 10
150.7580039683
 20
31.4839409236
 11
150.9892539132
 21
31.4194137026
 12
149.8330039821
 22
31.4516780059
 13
149.8330039821
 23
31.4516780059
  0
SOLID
  8
0
 62
7
  6
CONTINUOUS
 10
149.6595664615
 20
31.3871495108
 11
149.8330039821
 21
31.4516780059
 12
150.9892539132
 22
31.4194137026
 13
150.9892539132
 23
31.4194137026
  0
SOLID
  8
0
 62
7
  6
CONTINUOUS
 10
149.6595664615
 20
31.3871495108
 11
150.9892539132
 21
31.4194137026
 12
150.2955039959
 22
31.3871495108
 13
150.2955039959
 23
31.3871495108
  0
SOLID
  8
0
 62
7
  6
CONTINUOUS
 10
150.2955039959
 20
31.3871495108
 11
150.9892539132
 21
31.4194137026
 12
150.7001914408
 22
31.3548866125
 13
150.7001914408
 23
31.3548866125
  0
SOLID
  8
0
 62
7
  6
CONTINUOUS
 10
150.9892539132
 20
31.4194137026
 11
151.1626914132
 21
31.3226223092
 12
150.7001914408
 22
31.3548866125
 13
150.7001914408
 23
31.3548866125
  0
SOLID
  8
0
 62
7
  6
CONTINUOUS
 10
150.8736290235
 20
31.2903595223
 11
150.7001914408
 21
31.3548866125
 12
151.1626914132
 22
31.3226223092
 13
151.1626914132
 23
31.3226223092
  0
SOLID
  8
0
 62
7
  6
CONTINUOUS
 10
150.8736290235
 20
31.2903595223
 11
151.1626914132
 21
31.3226223092
 12
150.9314414683
 22
31.1935679757
 13
150.9314414683
 23
31.1935679757
  0
SOLID
  8
0
 62
7
  6
CONTINUOUS
 10
151.1626914132
 20
31.3226223092
 11
151.2205040235
 21
31.1935679757
 12
150.9314414683
 22
31.1935679757
 13
150.9314414683
 23
31.1935679757
  0
SOLID
  8
0
 62
7
  6
CONTINUOUS
 10
152.2611288581
 20
31.4839414344
 11
152.4923789683
 21
31.5162057377
 12
152.7236290786
 22
31.5162057377
 13
152.7236290786
 23
31.5162057377
  0
SOLID
  8
0
 62
7
  6
CONTINUOUS
 10
152.7236290786
 20
31.5162057377
 11
152.8970665786
 21
31.4839414344
 12
152.2611288581
 22
31.4839414344
 13
152.2611288581
 23
31.4839414344
  0
SOLID
  8
0
 62
7
  6
CONTINUOUS
 10
152.0876915235
 20
31.4194143443
 11
152.2611288581
 21
31.4839414344
 12
152.8970665786
 22
31.4839414344
 13
152.8970665786
 23
31.4839414344
  0
SOLID
  8
0
 62
7
  6
CONTINUOUS
 10
152.8970665786
 20
31.4839414344
 11
153.0705040786
 21
31.4194143443
 12
152.0876915235
 22
31.4194143443
 13
152.0876915235
 23
31.4194143443
  0
SOLID
  8
0
 62
7
  6
CONTINUOUS
 10
153.0705040786
 20
31.4194143443
 11
152.4923789683
 21
31.3871493993
 12
152.0876915235
 22
31.4194143443
 13
152.0876915235
 23
31.4194143443
  0
SOLID
  8
0
 62
7
  6
CONTINUOUS
 10
151.9720664683
 20
31.3548872541
 11
152.0876915235
 21
31.4194143443
 12
152.4923789683
 22
31.3871493993
 13
152.4923789683
 23
31.3871493993
  0
SOLID
  8
0
 62
7
  6
CONTINUOUS
 10
152.4923789683
 20
31.3871493993
 11
152.2611288581
 21
31.3548872541
 12
151.9720664683
 22
31.3548872541
 13
151.9720664683
 23
31.3548872541
  0
SOLID
  8
0
 62
7
  6
CONTINUOUS
 10
152.4923789683
 20
31.3871493993
 11
153.0705040786
 21
31.4194143443
 12
152.7236290786
 22
31.3548872541
 13
152.7236290786
 23
31.3548872541
  0
SOLID
  8
0
 62
7
  6
CONTINUOUS
 10
153.0705040786
 20
31.4194143443
 11
153.1861289683
 21
31.3548872541
 12
152.7236290786
 22
31.3548872541
 13
152.7236290786
 23
31.3548872541
  0
SOLID
  8
0
 62
7
  6
CONTINUOUS
 10
152.8392539683
 20
31.3226223092
 11
152.7236290786
 21
31.3548872541
 12
153.1861289683
 22
31.3548872541
 13
153.1861289683
 23
31.3548872541
  0
SOLID
  8
0
 62
7
  6
CONTINUOUS
 10
153.1861289683
 20
31.3548872541
 11
153.2439415786
 21
31.2903601639
 12
152.8392539683
 22
31.3226223092
 13
152.8392539683
 23
31.3226223092
  0
SOLID
  8
0
 62
7
  6
CONTINUOUS
 10
152.9548788581
 20
31.258095219
 11
152.8392539683
 21
31.3226223092
 12
153.2439415786
 22
31.2903601639
 13
153.2439415786
 23
31.2903601639
  0
SOLID
  8
0
 62
7
  6
CONTINUOUS
 10
152.9548788581
 20
31.258095219
 11
153.2439415786
 21
31.2903601639
 12
153.0126914683
 22
31.1290416803
 13
153.0126914683
 23
31.1290416803
  0
SOLID
  8
0
 62
7
  6
CONTINUOUS
 10
153.2439415786
 20
31.2903601639
 11
153.3017538581
 21
31.1290416803
 12
153.0126914683
 22
31.1290416803
 13
153.0126914683
 23
31.1290416803
  0
SOLID
  8
0
 62
7
  6
CONTINUOUS
 10
152.2611288581
 20
31.3548872541
 11
152.0876915235
 21
31.2903601639
 12
151.9720664683
 22
31.3548872541
 13
151.9720664683
 23
31.3548872541
  0
SOLID
  8
0
 62
7
  6
CONTINUOUS
 10
152.0876915235
 20
31.2903601639
 11
151.9720664683
 21
31.2258309157
 12
151.9720664683
 22
31.3548872541
 13
151.9720664683
 23
31.3548872541
  0
SOLID
  8
0
 62
7
  6
CONTINUOUS
 10
151.9720664683
 20
31.2258309157
 11
151.6830039132
 21
30.4837677459
 12
151.9720664683
 22
31.3548872541
 13
151.9720664683
 23
31.3548872541
  0
SOLID
  8
0
 62
7
  6
CONTINUOUS
 10
151.9720664683
 20
31.3548872541
 11
151.6830039132
 21
30.4837677459
 12
151.9720664683
 22
32.0001611885
 13
151.9720664683
 23
32.0001611885
  0
SOLID
  8
0
 62
7
  6
CONTINUOUS
 10
151.6830039132
 20
30.4837677459
 11
151.6830039132
 21
32.0001611885
 12
151.9720664683
 22
32.0001611885
 13
151.9720664683
 23
32.0001611885
  0
SOLID
  8
0
 62
7
  6
CONTINUOUS
 10
151.9720664683
 20
31.2258309157
 11
151.9720664683
 21
30.4837677459
 12
151.6830039132
 22
30.4837677459
 13
151.6830039132
 23
30.4837677459
  0
SOLID
  8
0
 62
7
  6
CONTINUOUS
 10
153.0126914683
 20
30.4837677459
 11
153.0126914683
 21
31.1290416803
 12
153.3017538581
 22
31.1290416803
 13
153.3017538581
 23
31.1290416803
  0
SOLID
  8
0
 62
7
  6
CONTINUOUS
 10
153.3017538581
 20
31.1290416803
 11
153.3017538581
 21
30.4837677459
 12
153.0126914683
 22
30.4837677459
 13
153.0126914683
 23
30.4837677459
  0
SOLID
  8
0
 62
7
  6
CONTINUOUS
 10
154.0533164683
 20
31.4839408139
 11
154.4580040786
 21
31.5162048066
 12
154.8048790786
 22
31.5162048066
 13
154.8048790786
 23
31.5162048066
  0
SOLID
  8
0
 62
7
  6
CONTINUOUS
 10
154.8048790786
 20
31.5162048066
 11
155.1517537478
 21
31.4839408139
 12
154.0533164683
 22
31.4839408139
 13
154.0533164683
 23
31.4839408139
  0
SOLID
  8
0
 62
7
  6
CONTINUOUS
 10
153.9376915786
 20
31.4516780059
 11
154.0533164683
 21
31.4839408139
 12
155.1517537478
 22
31.4839408139
 13
155.1517537478
 23
31.4839408139
  0
SOLID
  8
0
 62
7
  6
CONTINUOUS
 10
155.1517537478
 20
31.4839408139
 11
155.3251912478
 21
31.4194137026
 12
153.9376915786
 22
31.4516780059
 13
153.9376915786
 23
31.4516780059
  0
SOLID
  8
0
 62
7
  6
CONTINUOUS
 10
153.8220663581
 20
31.38714961
 11
153.9376915786
 21
31.4516780059
 12
155.3251912478
 22
31.4194137026
 13
155.3251912478
 23
31.4194137026
  0
SOLID
  8
0
 62
7
  6
CONTINUOUS
 10
153.8220663581
 20
31.38714961
 11
155.3251912478
 21
31.4194137026
 12
154.4580040786
 22
31.38714961
 13
154.4580040786
 23
31.38714961
  0
SOLID
  8
0
 62
7
  6
CONTINUOUS
 10
154.4580040786
 20
31.38714961
 11
155.3251912478
 21
31.4194137026
 12
154.8048790786
 22
31.38714961
 13
154.8048790786
 23
31.38714961
  0
SOLID
  8
0
 62
7
  6
CONTINUOUS
 10
154.8048790786
 20
31.38714961
 11
155.3251912478
 21
31.4194137026
 12
155.0361291889
 22
31.3548863916
 13
155.0361291889
 23
31.3548863916
  0
SOLID
  8
0
 62
7
  6
CONTINUOUS
 10
155.3251912478
 20
31.4194137026
 11
155.4408164683
 21
31.3548863916
 12
155.0361291889
 22
31.3548863916
 13
155.0361291889
 23
31.3548863916
  0
SOLID
  8
0
 62
7
  6
CONTINUOUS
 10
153.7642540786
 20
31.3226223989
 11
153.8220663581
 21
31.38714961
 12
154.4580040786
 22
31.38714961
 13
154.4580040786
 23
31.38714961
  0
SOLID
  8
0
 62
7
  6
CONTINUOUS
 10
155.1517537478
 20
31.3226223989
 11
155.0361291889
 21
31.3548863916
 12
155.4408164683
 22
31.3548863916
 13
155.4408164683
 23
31.3548863916
  0
SOLID
  8
0
 62
7
  6
CONTINUOUS
 10
155.1517537478
 20
31.3226223989
 11
155.4408164683
 21
31.3548863916
 12
155.2095666889
 22
31.2580951877
 13
155.2095666889
 23
31.2580951877
  0
SOLID
  8
0
 62
7
  6
CONTINUOUS
 10
155.4408164683
 20
31.3548863916
 11
155.4986287478
 21
31.2580951877
 12
155.2095666889
 22
31.2580951877
 13
155.2095666889
 23
31.2580951877
  0
SOLID
  8
0
 62
7
  6
CONTINUOUS
 10
155.2095666889
 20
31.1613038256
 11
155.2095666889
 21
31.2580951877
 12
155.4986287478
 22
31.2580951877
 13
155.4986287478
 23
31.2580951877
  0
SOLID
  8
0
 62
7
  6
CONTINUOUS
 10
155.2095666889
 20
31.1613038256
 11
155.4986287478
 21
31.2580951877
 12
155.2095666889
 22
31.0322496452
 13
155.2095666889
 23
31.0322496452
  0
SOLID
  8
0
 62
7
  6
CONTINUOUS
 10
155.2095666889
 20
31.0322496452
 11
155.4986287478
 21
31.2580951877
 12
155.2095666889
 22
30.8386672883
 13
155.2095666889
 23
30.8386672883
  0
SOLID
  8
0
 62
7
  6
CONTINUOUS
 10
155.4986287478
 20
31.2580951877
 11
155.4986287478
 21
30.7418754649
 12
155.2095666889
 22
30.8386672883
 13
155.2095666889
 23
30.8386672883
  0
SOLID
  8
0
 62
7
  6
CONTINUOUS
 10
157.4064412478
 20
31.4839405154
 11
157.6376916889
 21
31.5162052351
 12
157.8689414683
 22
31.5162052351
 13
157.8689414683
 23
31.5162052351
  0
SOLID
  8
0
 62
7
  6
CONTINUOUS
 10
157.8689414683
 20
31.5162052351
 11
158.0423789683
 21
31.4839405154
 12
157.4064412478
 22
31.4839405154
 13
157.4064412478
 23
31.4839405154
  0
SOLID
  8
0
 62
7
  6
CONTINUOUS
 10
157.2330037478
 20
31.4194141734
 11
157.4064412478
 21
31.4839405154
 12
158.0423789683
 22
31.4839405154
 13
158.0423789683
 23
31.4839405154
  0
SOLID
  8
0
 62
7
  6
CONTINUOUS
 10
158.0423789683
 20
31.4839405154
 11
158.2158164683
 21
31.4194141734
 12
157.2330037478
 22
31.4194141734
 13
157.2330037478
 23
31.4194141734
  0
SOLID
  8
0
 62
7
  6
CONTINUOUS
 10
158.2158164683
 20
31.4194141734
 11
157.6376916889
 21
31.3871493993
 12
157.2330037478
 22
31.4194141734
 13
157.2330037478
 23
31.4194141734
  0
SOLID
  8
0
 62
7
  6
CONTINUOUS
 10
157.1173791889
 20
31.3548867989
 11
157.2330037478
 21
31.4194141734
 12
157.6376916889
 22
31.3871493993
 13
157.6376916889
 23
31.3871493993
  0
SOLID
  8
0
 62
7
  6
CONTINUOUS
 10
157.6376916889
 20
31.3871493993
 11
157.4064412478
 21
31.3548867989
 12
157.1173791889
 22
31.3548867989
 13
157.1173791889
 23
31.3548867989
  0
SOLID
  8
0
 62
7
  6
CONTINUOUS
 10
157.6376916889
 20
31.3871493993
 11
158.2158164683
 21
31.4194141734
 12
157.8689414683
 22
31.3548867989
 13
157.8689414683
 23
31.3548867989
  0
SOLID
  8
0
 62
7
  6
CONTINUOUS
 10
158.2158164683
 20
31.4194141734
 11
158.3314416889
 21
31.3548867989
 12
157.8689414683
 22
31.3548867989
 13
157.8689414683
 23
31.3548867989
  0
SOLID
  8
0
 62
7
  6
CONTINUOUS
 10
157.9845666889
 20
31.3226223092
 11
157.8689414683
 21
31.3548867989
 12
158.3314416889
 22
31.3548867989
 13
158.3314416889
 23
31.3548867989
  0
SOLID
  8
0
 62
7
  6
CONTINUOUS
 10
157.9845666889
 20
31.3226223092
 11
158.3314416889
 21
31.3548867989
 12
158.1001912478
 22
31.2580947047
 13
158.1001912478
 23
31.2580947047
  0
SOLID
  8
0
 62
7
  6
CONTINUOUS
 10
158.3314416889
 20
31.3548867989
 11
158.3892539683
 21
31.2580947047
 12
158.1001912478
 22
31.2580947047
 13
158.1001912478
 23
31.2580947047
  0
SOLID
  8
0
 62
7
  6
CONTINUOUS
 10
158.1580041889
 20
31.0967762685
 11
158.1001912478
 21
31.2580947047
 12
158.3892539683
 22
31.2580947047
 13
158.3892539683
 23
31.2580947047
  0
SOLID
  8
0
 62
7
  6
CONTINUOUS
 10
158.3892539683
 20
31.2580947047
 11
158.4470662478
 21
31.0967762685
 12
158.1580041889
 22
31.0967762685
 13
158.1580041889
 23
31.0967762685
  0
SOLID
  8
0
 62
7
  6
CONTINUOUS
 10
157.4064412478
 20
31.3548867989
 11
157.2330037478
 21
31.2903595223
 12
157.1173791889
 22
31.3548867989
 13
157.1173791889
 23
31.3548867989
  0
SOLID
  8
0
 62
7
  6
CONTINUOUS
 10
157.2330037478
 20
31.2903595223
 11
157.1173791889
 21
31.2258309157
 12
157.1173791889
 22
31.3548867989
 13
157.1173791889
 23
31.3548867989
  0
SOLID
  8
0
 62
7
  6
CONTINUOUS
 10
157.1173791889
 20
31.2258309157
 11
156.8283164683
 21
30.4837672433
 12
157.1173791889
 22
31.3548867989
 13
157.1173791889
 23
31.3548867989
  0
SOLID
  8
0
 62
7
  6
CONTINUOUS
 10
157.1173791889
 20
31.3548867989
 11
156.8283164683
 21
30.4837672433
 12
157.1173791889
 22
31.5162052351
 13
157.1173791889
 23
31.5162052351
  0
SOLID
  8
0
 62
7
  6
CONTINUOUS
 10
156.8283164683
 20
30.4837672433
 11
156.8283164683
 21
31.5162052351
 12
157.1173791889
 22
31.5162052351
 13
157.1173791889
 23
31.5162052351
  0
SOLID
  8
0
 62
7
  6
CONTINUOUS
 10
157.1173791889
 20
31.2258309157
 11
157.1173791889
 21
30.4837672433
 12
156.8283164683
 22
30.4837672433
 13
156.8283164683
 23
30.4837672433
  0
SOLID
  8
0
 62
7
  6
CONTINUOUS
 10
158.1580041889
 20
30.4837672433
 11
158.1580041889
 21
31.0967762685
 12
158.4470662478
 22
31.0967762685
 13
158.4470662478
 23
31.0967762685
  0
SOLID
  8
0
 62
7
  6
CONTINUOUS
 10
158.4470662478
 20
31.0967762685
 11
158.4470662478
 21
30.4837672433
 12
158.1580041889
 22
30.4837672433
 13
158.1580041889
 23
30.4837672433
  0
SOLID
  8
0
 62
7
  6
CONTINUOUS
 10
159.2564414683
 20
31.4839408138
 11
159.6033164683
 21
31.5162050633
 12
159.9501914683
 22
31.5162050633
 13
159.9501914683
 23
31.5162050633
  0
SOLID
  8
0
 62
7
  6
CONTINUOUS
 10
159.9501914683
 20
31.5162050633
 11
160.2970664683
 21
31.4839408138
 12
159.2564414683
 22
31.4839408138
 13
159.2564414683
 23
31.4839408138
  0
SOLID
  8
0
 62
7
  6
CONTINUOUS
 10
159.0251916889
 20
31.4194137026
 11
159.2564414683
 21
31.4839408138
 12
160.2970664683
 22
31.4839408138
 13
160.2970664683
 23
31.4839408138
  0
SOLID
  8
0
 62
7
  6
CONTINUOUS
 10
159.0251916889
 20
31.4194137026
 11
160.2970664683
 21
31.4839407928
 12
160.4705039683
 22
31.4516780059
 13
160.4705039683
 23
31.4516780059
  0
SOLID
  8
0
 62
7
  6
CONTINUOUS
 10
159.0251916889
 20
31.4194137026
 11
160.4705039683
 21
31.4516780059
 12
159.6033164683
 22
31.3871494664
 13
159.6033164683
 23
31.3871494664
  0
SOLID
  8
0
 62
7
  6
CONTINUOUS
 10
159.6033164683
 20
31.3871494664
 11
160.4705039683
 21
31.4516780059
 12
159.9501914683
 22
31.3871494664
 13
159.9501914683
 23
31.3871494664
  0
SOLID
  8
0
 62
7
  6
CONTINUOUS
 10
160.4705039683
 20
31.4516780059
 11
160.6439414683
 21
31.3871494664
 12
159.9501914683
 22
31.3871494664
 13
159.9501914683
 23
31.3871494664
  0
SOLID
  8
0
 62
7
  6
CONTINUOUS
 10
160.2970664683
 20
31.3548866125
 11
159.9501914683
 21
31.3871494664
 12
160.6439414683
 22
31.3871494664
 13
160.6439414683
 23
31.3871494664
  0
SOLID
  8
0
 62
7
  6
CONTINUOUS
 10
158.9095664683
 20
31.3226222241
 11
159.0251916889
 21
31.4194137026
 12
159.6033164683
 22
31.3871494664
 13
159.6033164683
 23
31.3871494664
  0
SOLID
  8
0
 62
7
  6
CONTINUOUS
 10
160.2970664683
 20
31.3548866125
 11
160.6439414683
 21
31.3871494664
 12
160.4126916889
 22
31.3226222241
 13
160.4126916889
 23
31.3226222241
  0
SOLID
  8
0
 62
7
  6
CONTINUOUS
 10
160.4126916889
 20
31.3226222241
 11
160.6439414683
 21
31.3871494664
 12
160.4705039683
 22
31.2580952077
 13
160.4705039683
 23
31.2580952077
  0
SOLID
  8
0
 62
7
  6
CONTINUOUS
 10
160.6439414683
 20
31.3871494664
 11
160.7595660273
 21
31.2580952077
 12
160.4705039683
 22
31.2580952077
 13
160.4705039683
 23
31.2580952077
  0
SOLID
  8
0
 62
7
  6
CONTINUOUS
 10
150.0642539683
 20
31.3548866125
 11
149.5439414683
 21
31.3226222809
 12
150.2955039959
 22
31.3871493065
 13
150.2955039959
 23
31.3871493065
  0
SOLID
  8
0
 62
7
  6
CONTINUOUS
 10
149.5439414683
 20
31.3226222809
 11
149.6595664615
 21
31.3871493065
 12
150.2955039959
 22
31.3871493065
 13
150.2955039959
 23
31.3871493065
  0
SOLID
  8
0
 62
7
  6
CONTINUOUS
 10
150.0642539683
 20
31.3548866125
 11
149.9486289546
 21
31.3226222809
 12
149.5439414683
 22
31.3226222809
 13
149.5439414683
 23
31.3226222809
  0
SOLID
  8
0
 62
7
  6
CONTINUOUS
 10
149.4283164701
 20
31.1935681288
 11
149.5439414683
 21
31.3226222809
 12
149.9486289546
 22
31.3226222809
 13
149.9486289546
 23
31.3226222809
  0
SOLID
  8
0
 62
7
  6
CONTINUOUS
 10
153.7642540786
 20
31.3226222809
 11
154.4580040786
 21
31.3871493993
 12
154.2267539683
 22
31.3548866125
 13
154.2267539683
 23
31.3548866125
  0
SOLID
  8
0
 62
7
  6
CONTINUOUS
 10
154.2267539683
 20
31.3548866125
 11
154.1111290786
 21
31.3226222809
 12
153.7642540786
 22
31.3226222809
 13
153.7642540786
 23
31.3226222809
  0
SOLID
  8
0
 62
7
  6
CONTINUOUS
 10
153.7642540786
 20
31.2580951907
 11
153.7642540786
 21
31.3226222809
 12
154.1111290786
 22
31.3226222809
 13
154.1111290786
 23
31.3226222809
  0
SOLID
  8
0
 62
7
  6
CONTINUOUS
 10
154.1111290786
 20
31.3226222809
 11
154.0533164683
 21
31.2580951907
 12
153.7642540786
 22
31.2580951907
 13
153.7642540786
 23
31.2580951907
  0
SOLID
  8
0
 62
7
  6
CONTINUOUS
 10
158.9095664683
 20
31.32262241
 11
159.6033164683
 21
31.3871493993
 12
159.3720666889
 22
31.3548866125
 13
159.3720666889
 23
31.3548866125
  0
SOLID
  8
0
 62
7
  6
CONTINUOUS
 10
159.3720666889
 20
31.3548866125
 11
159.2564414683
 21
31.32262241
 12
158.9095664683
 22
31.32262241
 13
158.9095664683
 23
31.32262241
  0
SOLID
  8
0
 62
7
  6
CONTINUOUS
 10
158.9095664683
 20
31.2580953198
 11
158.9095664683
 21
31.32262241
 12
159.2564414683
 22
31.32262241
 13
159.2564414683
 23
31.32262241
  0
SOLID
  8
0
 62
7
  6
CONTINUOUS
 10
159.2564414683
 20
31.32262241
 11
159.1986291889
 21
31.2580953198
 12
158.9095664683
 22
31.2580953198
 13
158.9095664683
 23
31.2580953198
  0
SOLID
  8
0
 62
7
  6
CONTINUOUS
 10
159.0251916889
 20
31.1290410387
 11
158.9095664683
 21
31.2580953198
 12
159.1986291889
 22
31.2580953198
 13
159.1986291889
 23
31.2580953198
  0
SOLID
  8
0
 62
7
  6
CONTINUOUS
 10
149.4283164701
 20
31.1935681288
 11
149.9486289546
 21
31.3226223092
 12
149.7751914546
 22
31.2258309157
 13
149.7751914546
 23
31.2258309157
  0
SOLID
  8
0
 62
7
  6
CONTINUOUS
 10
149.7751914546
 20
31.2258309157
 11
149.7173789683
 21
31.1613038256
 12
149.4283164701
 22
31.1935681288
 13
149.4283164701
 23
31.1935681288
  0
SOLID
  8
0
 62
7
  6
CONTINUOUS
 10
149.3705039683
 20
30.999985342
 11
149.4283164701
 21
31.1935681288
 12
149.7173789683
 22
31.1613038256
 13
149.7173789683
 23
31.1613038256
  0
SOLID
  8
0
 62
7
  6
CONTINUOUS
 10
154.2267539683
 20
31.1290410387
 11
154.5736289683
 21
31.1613037812
 12
155.2095666889
 22
31.1613037812
 13
155.2095666889
 23
31.1613037812
  0
SOLID
  8
0
 62
7
  6
CONTINUOUS
 10
154.2267539683
 20
31.1290410387
 11
155.2095666889
 21
31.1613037812
 12
153.9955038581
 22
31.0645131385
 13
153.9955038581
 23
31.0645131385
  0
SOLID
  8
0
 62
7
  6
CONTINUOUS
 10
153.9955038581
 20
31.0645131385
 11
155.2095666889
 21
31.1613037812
 12
154.5736289683
 22
31.0322496008
 13
154.5736289683
 23
31.0322496008
  0
SOLID
  8
0
 62
7
  6
CONTINUOUS
 10
155.2095666889
 20
31.1613037812
 11
155.2095666889
 21
31.0322496008
 12
154.5736289683
 22
31.0322496008
 13
154.5736289683
 23
31.0322496008
  0
SOLID
  8
0
 62
7
  6
CONTINUOUS
 10
159.0251916889
 20
31.1290409764
 11
159.1986291889
 21
31.258095219
 12
159.2564414683
 22
31.1935681288
 13
159.2564414683
 23
31.1935681288
  0
SOLID
  8
0
 62
7
  6
CONTINUOUS
 10
159.2564414683
 20
31.1935681288
 11
159.4298789683
 21
31.1290409764
 12
159.0251916889
 22
31.1290409764
 13
159.0251916889
 23
31.1290409764
  0
SOLID
  8
0
 62
7
  6
CONTINUOUS
 10
159.2564414683
 20
31.0322496452
 11
159.0251916889
 21
31.1290409764
 12
159.4298789683
 22
31.1290409764
 13
159.4298789683
 23
31.1290409764
  0
SOLID
  8
0
 62
7
  6
CONTINUOUS
 10
159.4298789683
 20
31.1290409764
 11
160.4126916889
 21
30.9677225551
 12
159.2564414683
 22
31.0322496452
 13
159.2564414683
 23
31.0322496452
  0
SOLID
  8
0
 62
7
  6
CONTINUOUS
 10
160.2392541889
 20
30.8709310886
 11
159.2564414683
 21
31.0322496452
 12
160.4126916889
 22
30.9677225551
 13
160.4126916889
 23
30.9677225551
  0
SOLID
  8
0
 62
7
  6
CONTINUOUS
 10
160.4126916889
 20
30.9677225551
 11
160.6439414683
 21
30.8709310886
 12
160.2392541889
 22
30.8709310886
 13
160.2392541889
 23
30.8709310886
  0
SOLID
  8
0
 62
7
  6
CONTINUOUS
 10
160.4126916889
 20
30.8064040715
 11
160.2392541889
 21
30.8709310886
 12
160.6439414683
 22
30.8709310886
 13
160.6439414683
 23
30.8709310886
  0
SOLID
  8
0
 62
7
  6
CONTINUOUS
 10
160.4126916889
 20
30.8064040715
 11
160.6439414683
 21
30.8709310886
 12
160.4705039683
 22
30.7418753703
 13
160.4705039683
 23
30.7418753703
  0
SOLID
  8
0
 62
7
  6
CONTINUOUS
 10
160.6439414683
 20
30.8709310886
 11
160.7595660273
 21
30.7418753703
 12
160.4705039683
 22
30.7418753703
 13
160.4705039683
 23
30.7418753703
  0
SOLID
  8
0
 62
7
  6
CONTINUOUS
 10
160.4126916889
 20
30.6773482855
 11
160.4705039683
 21
30.7418753703
 12
160.7595660273
 22
30.7418753703
 13
160.7595660273
 23
30.7418753703
  0
SOLID
  8
0
 62
7
  6
CONTINUOUS
 10
160.7595660273
 20
30.7418753703
 11
160.7595660273
 21
30.6773482855
 12
160.4126916889
 22
30.6773482855
 13
160.4126916889
 23
30.6773482855
  0
SOLID
  8
0
 62
7
  6
CONTINUOUS
 10
160.2970664683
 20
30.6450855879
 11
160.4126916889
 21
30.6773482855
 12
160.7595660273
 22
30.6773482855
 13
160.7595660273
 23
30.6773482855
  0
SOLID
  8
0
 62
7
  6
CONTINUOUS
 10
160.2970664683
 20
30.6450855879
 11
160.7595660273
 21
30.6773482855
 12
160.0658166889
 22
30.6128212008
 13
160.0658166889
 23
30.6128212008
  0
SOLID
  8
0
 62
7
  6
CONTINUOUS
 10
160.7595660273
 20
30.6773482855
 11
160.6439414683
 21
30.5805584977
 12
160.0658166889
 22
30.6128212008
 13
160.0658166889
 23
30.6128212008
  0
SOLID
  8
0
 62
7
  6
CONTINUOUS
 10
160.6439414683
 20
30.5805584977
 11
159.1986291889
 21
30.5482941944
 12
160.0658166889
 22
30.6128212008
 13
160.0658166889
 23
30.6128212008
  0
SOLID
  8
0
 62
7
  6
CONTINUOUS
 10
160.0658166889
 20
30.6128212008
 11
159.1986291889
 21
30.5482941944
 12
159.7189416889
 22
30.6128212008
 13
159.7189416889
 23
30.6128212008
  0
SOLID
  8
0
 62
7
  6
CONTINUOUS
 10
159.1986291889
 20
30.5482941944
 11
159.0251916889
 21
30.6128212008
 12
159.7189416889
 22
30.6128212008
 13
159.7189416889
 23
30.6128212008
  0
SOLID
  8
0
 62
7
  6
CONTINUOUS
 10
159.1986291889
 20
30.5482941944
 11
160.6439414683
 21
30.5805584977
 12
159.3720666889
 22
30.5160301864
 13
159.3720666889
 23
30.5160301864
  0
SOLID
  8
0
 62
7
  6
CONTINUOUS
 10
160.6439414683
 20
30.5805584977
 11
160.4126916889
 21
30.5160301864
 12
159.3720666889
 22
30.5160301864
 13
159.3720666889
 23
30.5160301864
  0
SOLID
  8
0
 62
7
  6
CONTINUOUS
 10
159.7189416889
 20
30.4837670312
 11
159.3720666889
 21
30.5160301864
 12
160.4126916889
 22
30.5160301864
 13
160.4126916889
 23
30.5160301864
  0
SOLID
  8
0
 62
7
  6
CONTINUOUS
 10
160.4126916889
 20
30.5160301864
 11
160.0658166889
 21
30.4837670312
 12
159.7189416889
 22
30.4837670312
 13
159.7189416889
 23
30.4837670312
  0
SOLID
  8
0
 62
7
  6
CONTINUOUS
 10
149.3705039683
 20
30.999985342
 11
149.7173789683
 21
31.1613038256
 12
149.6595664615
 22
31.0322496452
 13
149.6595664615
 23
31.0322496452
  0
SOLID
  8
0
 62
7
  6
CONTINUOUS
 10
149.6595664615
 20
31.0322496452
 11
149.6595664615
 21
30.9354583476
 12
149.3705039683
 22
30.999985342
 13
149.3705039683
 23
30.999985342
  0
SOLID
  8
0
 62
7
  6
CONTINUOUS
 10
149.4283164701
 20
30.8064040715
 11
149.3705039683
 21
30.999985342
 12
149.6595664615
 22
30.9354583476
 13
149.6595664615
 23
30.9354583476
  0
SOLID
  8
0
 62
7
  6
CONTINUOUS
 10
149.6595664615
 20
30.9354583476
 11
149.7751914546
 21
30.7741397682
 12
149.4283164701
 22
30.8064040715
 13
149.4283164701
 23
30.8064040715
  0
SOLID
  8
0
 62
7
  6
CONTINUOUS
 10
149.5439414683
 20
30.6773485435
 11
149.4283164701
 21
30.8064040715
 12
149.7751914546
 22
30.7741397682
 13
149.7751914546
 23
30.7741397682
  0
SOLID
  8
0
 62
7
  6
CONTINUOUS
 10
149.7751914546
 20
30.7741397682
 11
149.9486289546
 21
30.6773485435
 12
149.5439414683
 22
30.6773485435
 13
149.5439414683
 23
30.6773485435
  0
SOLID
  8
0
 62
7
  6
CONTINUOUS
 10
149.6595664615
 20
30.6128213107
 11
149.5439414683
 21
30.6773485435
 12
149.9486289546
 22
30.6773485435
 13
149.9486289546
 23
30.6773485435
  0
SOLID
  8
0
 62
7
  6
CONTINUOUS
 10
149.9486289546
 20
30.6773485435
 11
150.2955039959
 21
30.6128213107
 12
149.6595664615
 22
30.6128213107
 13
149.6595664615
 23
30.6128213107
  0
SOLID
  8
0
 62
7
  6
CONTINUOUS
 10
149.8330039821
 20
30.5482941944
 11
149.6595664615
 21
30.6128213107
 12
150.2955039959
 22
30.6128213107
 13
150.2955039959
 23
30.6128213107
  0
SOLID
  8
0
 62
7
  6
CONTINUOUS
 10
153.8798789683
 20
30.9999852815
 11
153.9955038581
 21
31.0645131385
 12
154.5736289683
 22
31.0322496452
 13
154.5736289683
 23
31.0322496452
  0
SOLID
  8
0
 62
7
  6
CONTINUOUS
 10
154.5736289683
 20
31.0322496452
 11
154.3423788581
 21
30.9999852815
 12
153.8798789683
 22
30.9999852815
 13
153.8798789683
 23
30.9999852815
  0
SOLID
  8
0
 62
7
  6
CONTINUOUS
 10
153.7642540786
 20
30.8709311616
 11
153.8798789683
 21
30.9999852815
 12
154.3423788581
 22
30.9999852815
 13
154.3423788581
 23
30.9999852815
  0
SOLID
  8
0
 62
7
  6
CONTINUOUS
 10
154.1111290786
 20
30.9031946612
 11
153.7642540786
 21
30.8709311616
 12
154.2267539683
 22
30.9677225551
 13
154.2267539683
 23
30.9677225551
  0
SOLID
  8
0
 62
7
  6
CONTINUOUS
 10
153.7642540786
 20
30.8709311616
 11
154.3423788581
 21
30.999985342
 12
154.2267539683
 22
30.9677225551
 13
154.2267539683
 23
30.9677225551
  0
SOLID
  8
0
 62
7
  6
CONTINUOUS
 10
154.1111290786
 20
30.9031946612
 11
154.0533164683
 21
30.8064040715
 12
153.7642540786
 22
30.8709311616
 13
153.7642540786
 23
30.8709311616
  0
SOLID
  8
0
 62
7
  6
CONTINUOUS
 10
153.7642540786
 20
30.7741397682
 11
153.7642540786
 21
30.8709311616
 12
154.0533164683
 22
30.8064040715
 13
154.0533164683
 23
30.8064040715
  0
SOLID
  8
0
 62
7
  6
CONTINUOUS
 10
154.0533164683
 20
30.8064040715
 11
154.0533164683
 21
30.7418754649
 12
153.7642540786
 22
30.7741397682
 13
153.7642540786
 23
30.7741397682
  0
SOLID
  8
0
 62
7
  6
CONTINUOUS
 10
153.8220663581
 20
30.6450855879
 11
153.7642540786
 21
30.7741397682
 12
154.0533164683
 22
30.7418754649
 13
154.0533164683
 23
30.7418754649
  0
SOLID
  8
0
 62
7
  6
CONTINUOUS
 10
155.2095666889
 20
30.8386672883
 11
155.4986287478
 21
30.7418754649
 12
155.1517537478
 22
30.7741397682
 13
155.1517537478
 23
30.7741397682
  0
SOLID
  8
0
 62
7
  6
CONTINUOUS
 10
154.9783162478
 20
30.6773483748
 11
155.1517537478
 21
30.7741397682
 12
155.4986287478
 22
30.7418754649
 13
155.4986287478
 23
30.7418754649
  0
SOLID
  8
0
 62
7
  6
CONTINUOUS
 10
154.9783162478
 20
30.6773483748
 11
155.4986287478
 21
30.7418754649
 12
155.2095666889
 22
30.6450855879
 13
155.2095666889
 23
30.6450855879
  0
SOLID
  8
0
 62
7
  6
CONTINUOUS
 10
155.4986287478
 20
30.7418754649
 11
155.5564416889
 21
30.5805584977
 12
155.2095666889
 22
30.6450855879
 13
155.2095666889
 23
30.6450855879
  0
SOLID
  8
0
 62
7
  6
CONTINUOUS
 10
155.2673789683
 20
30.5482941944
 11
155.2095666889
 21
30.6450855879
 12
155.5564416889
 22
30.5805584977
 13
155.5564416889
 23
30.5805584977
  0
SOLID
  8
0
 62
7
  6
CONTINUOUS
 10
155.2673789683
 20
30.5482941944
 11
155.5564416889
 21
30.5805584977
 12
155.3251912478
 22
30.4837669548
 13
155.3251912478
 23
30.4837669548
  0
SOLID
  8
0
 62
7
  6
CONTINUOUS
 10
155.5564416889
 20
30.5805584977
 11
155.6142539683
 21
30.4837669548
 12
155.3251912478
 22
30.4837669548
 13
155.3251912478
 23
30.4837669548
  0
SOLID
  8
0
 62
7
  6
CONTINUOUS
 10
150.8736290235
 20
30.7096125201
 11
150.9314414683
 21
30.8064039377
 12
151.2205040235
 22
30.8064039377
 13
151.2205040235
 23
30.8064039377
  0
SOLID
  8
0
 62
7
  6
CONTINUOUS
 10
151.2205040235
 20
30.8064039377
 11
151.1626914132
 21
30.6773483748
 12
150.8736290235
 22
30.7096125201
 13
150.8736290235
 23
30.7096125201
  0
SOLID
  8
0
 62
7
  6
CONTINUOUS
 10
150.7001914408
 20
30.6450855879
 11
150.8736290235
 21
30.7096125201
 12
151.1626914132
 22
30.6773483748
 13
151.1626914132
 23
30.6773483748
  0
SOLID
  8
0
 62
7
  6
CONTINUOUS
 10
150.7001914408
 20
30.6450855879
 11
151.1626914132
 21
30.6773483748
 12
150.2955039959
 22
30.6128212846
 13
150.2955039959
 23
30.6128212846
  0
SOLID
  8
0
 62
7
  6
CONTINUOUS
 10
151.1626914132
 20
30.6773483748
 11
150.9892539132
 21
30.5805584977
 12
150.2955039959
 22
30.6128212846
 13
150.2955039959
 23
30.6128212846
  0
SOLID
  8
0
 62
7
  6
CONTINUOUS
 10
149.8330039821
 20
30.5482941944
 11
150.2955039959
 21
30.6128212846
 12
150.9892539132
 22
30.5805584977
 13
150.9892539132
 23
30.5805584977
  0
SOLID
  8
0
 62
7
  6
CONTINUOUS
 10
149.8330039821
 20
30.5482941944
 11
150.9892539132
 21
30.5805584977
 12
150.0064414821
 22
30.5160300219
 13
150.0064414821
 23
30.5160300219
  0
SOLID
  8
0
 62
7
  6
CONTINUOUS
 10
150.9892539132
 20
30.5805584977
 11
150.7580039683
 21
30.5160300219
 12
150.0064414821
 22
30.5160300219
 13
150.0064414821
 23
30.5160300219
  0
SOLID
  8
0
 62
7
  6
CONTINUOUS
 10
150.3533164408
 20
30.4837671043
 11
150.0064414821
 21
30.5160300219
 12
150.7580039683
 22
30.5160300219
 13
150.7580039683
 23
30.5160300219
  0
SOLID
  8
0
 62
7
  6
CONTINUOUS
 10
153.8220663581
 20
30.6450855879
 11
154.0533164683
 21
30.7418754649
 12
154.1111290786
 22
30.6773483748
 13
154.1111290786
 23
30.6773483748
  0
SOLID
  8
0
 62
7
  6
CONTINUOUS
 10
154.1111290786
 20
30.6773483748
 11
154.3423788581
 21
30.6128212846
 12
153.8220663581
 22
30.6450855879
 13
153.8220663581
 23
30.6450855879
  0
SOLID
  8
0
 62
7
  6
CONTINUOUS
 10
153.9955038581
 20
30.5482941944
 11
153.8220663581
 21
30.6450855879
 12
154.3423788581
 22
30.6128212846
 13
154.3423788581
 23
30.6128212846
  0
SOLID
  8
0
 62
7
  6
CONTINUOUS
 10
154.6892538581
 20
30.6128213209
 11
154.9783162478
 21
30.6773483748
 12
155.2095666889
 22
30.6450855879
 13
155.2095666889
 23
30.6450855879
  0
SOLID
  8
0
 62
7
  6
CONTINUOUS
 10
155.2095666889
 20
30.6450855879
 11
155.1517537478
 21
30.5805584977
 12
154.6892538581
 22
30.6128213209
 13
154.6892538581
 23
30.6128213209
  0
SOLID
  8
0
 62
7
  6
CONTINUOUS
 10
155.1517537478
 20
30.5805584977
 11
153.9955038581
 21
30.5482941944
 12
154.6892538581
 22
30.6128213209
 13
154.6892538581
 23
30.6128213209
  0
SOLID
  8
0
 62
7
  6
CONTINUOUS
 10
153.9955038581
 20
30.5482941944
 11
154.3423788581
 21
30.6128213209
 12
154.6892538581
 22
30.6128213209
 13
154.6892538581
 23
30.6128213209
  0
SOLID
  8
0
 62
7
  6
CONTINUOUS
 10
153.9955038581
 20
30.5482941944
 11
155.1517537478
 21
30.5805584977
 12
154.1111290786
 22
30.5160299113
 13
154.1111290786
 23
30.5160299113
  0
SOLID
  8
0
 62
7
  6
CONTINUOUS
 10
155.1517537478
 20
30.5805584977
 11
154.9783162478
 21
30.5160299113
 12
154.1111290786
 22
30.5160299113
 13
154.1111290786
 23
30.5160299113
  0
SOLID
  8
0
 62
7
  6
CONTINUOUS
 10
154.3423788581
 20
30.483767076
 11
154.1111290786
 21
30.5160299113
 12
154.9783162478
 22
30.5160299113
 13
154.9783162478
 23
30.5160299113
  0
SOLID
  8
0
 62
7
  6
CONTINUOUS
 10
154.9783162478
 20
30.5160299113
 11
154.6892538581
 21
30.483767076
 12
154.3423788581
 22
30.483767076
 13
154.3423788581
 23
30.483767076
  0
SOLID
  8
0
 62
7
  6
CONTINUOUS
 10
159.3720666889
 20
30.6450855879
 11
159.0251916889
 21
30.6128213209
 12
159.2564414683
 22
30.6773483748
 13
159.2564414683
 23
30.6773483748
  0
SOLID
  8
0
 62
7
  6
CONTINUOUS
 10
159.2564414683
 20
30.6773483748
 11
159.0251916889
 21
30.6128213209
 12
159.1986291889
 22
30.7418755012
 13
159.1986291889
 23
30.7418755012
  0
SOLID
  8
0
 62
7
  6
CONTINUOUS
 10
159.0251916889
 20
30.6128213209
 11
158.9095664683
 21
30.7418755012
 12
159.1986291889
 22
30.7418755012
 13
159.1986291889
 23
30.7418755012
  0
SOLID
  8
0
 62
7
  6
CONTINUOUS
 10
159.3720666889
 20
30.6450855879
 11
159.7189416889
 21
30.6128213209
 12
159.0251916889
 22
30.6128213209
 13
159.0251916889
 23
30.6128213209
  0
SOLID
  8
0
 62
7
  6
CONTINUOUS
 10
156.0767541889
 20
30.4837671043
 11
156.0767541889
 21
31.5162050961
 12
156.3658162478
 22
30.4837671043
 13
156.3658162478
 23
31.5162050961
  0
ENDBLK
  8
0
  6
BYBLOCK
 62
0
  0
BLOCK
  8
0
 62
2
  6
CONTINUOUS
  2
SYMBOL_3_BL0
 70
64
 10
31.7740840678
 20
19.9150776578
  0
TEXT
  8
0
 62
7
  6
CONTINUOUS
 10
18.0387879101
 20
19.2884917655
  7
TEXTSTYLE_3
 40
2.7338706658
  1
Ammeraal Beltech
 41
1.0
 51
15.0
 72
0
  0
TEXT
  8
0
 62
7
  6
CONTINUOUS
 10
28.8395887358
 20
17.0149550926
  7
TEXTSTYLE_4
 40
1.0935482663
  1
Innovation & Service in Belting
 41
1.0
 72
0
  0
LINE
  8
0
 62
7
  6
CONTINUOUS
 10
12.0142472588
 20
20.055085074
 11
12.7923992521
 21
23.7160023717
  0
LINE
  8
0
 62
7
  6
CONTINUOUS
 10
22.8875675419
 20
27.3793962833
 11
13.2802169951
 21
24.257778862
  0
LINE
  8
0
 62
7
  6
CONTINUOUS
 10
12.2395305911
 20
19.361734271
 11
19.7466058522
 21
12.602333345
  0
LINE
  8
0
 62
7
  6
CONTINUOUS
 10
12.5020650018
 20
20.5968615644
 11
23.310334367
 21
24.1086811633
  0
LINE
  8
0
 62
7
  6
CONTINUOUS
 10
23.3061292298
 20
13.7588925996
 11
14.860669561
 21
21.3632186413
  0
LINE
  8
0
 62
7
  6
CONTINUOUS
 10
23.8259519496
 20
26.5344711676
 11
22.8493924124
 21
21.9401197651
  0
LINE
  8
0
 62
7
  6
CONTINUOUS
 10
22.1495904647
 20
18.6478104513
 11
21.4631422532
 21
15.4183255269
  0
LINE
  8
0
 62
7
  6
CONTINUOUS
 10
24.5070480481
 20
14.1490947773
 11
25.4632795838
 21
18.6478104513
  0
LINE
  8
0
 62
7
  6
CONTINUOUS
 10
26.1630815315
 20
21.9401197651
 11
26.6073233338
 21
24.0301131245
  0
LINE
  8
0
 62
7
  6
CONTINUOUS
 10
20.4597069275
 20
12.4507590323
 11
24.0192303051
 21
13.6073182869
  0
LINE
  8
0
 62
7
  6
CONTINUOUS
 10
23.6006686173
 20
27.2278219706
 11
26.3820400015
 21
24.7234639276
  0
ARC
  8
0
 62
7
  6
CONTINUOUS
 10
13.5055003274
 20
23.564428059
 40
0.7290321776
 50
108.0
 51
168.0
  0
ARC
  8
0
 62
7
  6
CONTINUOUS
 10
23.1128508743
 20
26.6860454803
 40
0.7290321776
 50
348.0
 51
108.0
  0
ARC
  8
0
 62
7
  6
CONTINUOUS
 10
25.8942222585
 20
24.1816874372
 40
0.7290321776
 50
348.0
 51
48.0
  0
ARC
  8
0
 62
7
  6
CONTINUOUS
 10
20.2344235952
 20
13.1441098354
 40
0.7290321776
 50
228.0
 51
288.0
  0
ARC
  8
0
 62
7
  6
CONTINUOUS
 10
12.7273483341
 20
19.9035107613
 40
0.7290321776
 50
108.0
 51
228.0
  0
ARC
  8
0
 62
7
  6
CONTINUOUS
 10
23.7939469728
 20
14.30066909
 40
0.7290321776
 50
228.0
 51
348.0
  0
ENDBLK
  8
0
  6
BYBLOCK
 62
0
  0
ENDSEC
  0
SECTION
  2
ENTITIES
  0
TEXT
  8
0
 62
5
  6
CONTINUOUS
 10
96.0
 20
25.636
  7
TEXTSTYLE_2
 40
2.8
  1
Scale :
 41
0.6
 51
0.000019
 72
0
  0
TEXT
  8
0
 62
5
  6
CONTINUOUS
 10
116.0
 20
25.636
  7
TEXTSTYLE_2
 40
2.8
  1
Chain type:
 41
0.6
 51
0.000019
 72
0
  0
INSERT
  8
0
 62
2
  6
CONTINUOUS
  2
SYMBOL_3_BL0
 10
31.7740840678
 20
19.9150776578
  0
INSERT
  8
0
 62
2
  6
CONTINUOUS
  2
SYMBOL_11_BL1
 10
173.3924355793
 20
35.4837666925
  0
LINE
  8
0
 62
2
  6
CONTINUOUS
 10
10.0
 20
30.0
 11
200.0
 21
30.0
  0
LINE
  8
0
 62
2
  6
CONTINUOUS
 10
10.0
 20
30.0
 11
10.0
 21
10.0
  0
LINE
  8
0
 62
2
  6
CONTINUOUS
 10
10.0
 20
10.0
 11
200.0
 21
10.0
  0
LINE
  8
0
 62
2
  6
CONTINUOUS
 10
95.0
 20
30.0
 11
95.0
 21
10.0
  0
LINE
  8
0
 62
2
  6
CONTINUOUS
 10
115.0
 20
30.0
 11
115.0
 21
10.0
  0
LINE
  8
0
 62
2
  6
CONTINUOUS
 10
200.0
 20
30.0
 11
200.0
 21
10.0
  0
TEXT
  8
0
 62
5
  6
CONTINUOUS
 10
13.0
 20
23.303
  7
TEXTSTYLE_5
 40
1.52
  1
                                                                     Ammeraal Beltech Modular A/S
 41
1.0
 72
0
  0
TEXT
  8
0
 62
5
  6
CONTINUOUS
 10
13.0
 20
20.595
  7
TEXTSTYLE_5
 40
1.5
  1
                                                                      Hjulmagervej 21,  7100 Vejle,  DK
 41
1.0
 72
0
  0
TEXT
  8
0
 62
5
  6
CONTINUOUS
 10
13.0
 20
17.881
  7
TEXTSTYLE_5
 40
1.495
  1
                                                                      tel: 
 41
1.0
 72
0
  0
TEXT
  8
0
 62
5
  6
CONTINUOUS
 10
57.9869465649
 20
17.881
  7
TEXTSTYLE_5
 40
1.51
  1
+45 75723100     fax: +45 75723348
 41
1.0
 72
0
  0
TEXT
  8
0
 62
5
  6
CONTINUOUS
 10
13.0
 20
15.177
  7
TEXTSTYLE_5
 40
1.5
  1
                                                                      admin@unichains.dk  www.unichains.com
 41
1.0
 72
0
  0
TEXT
  8
0
 62
5
  6
CONTINUOUS
 10
99.75
 20
13.75
  7
TEXTSTYLE_6
 40
5.0
  1
1:1
 41
0.7
 72
1
 11
105.0
 21
13.75
  0
TEXT
  8
0
 62
5
  6
CONTINUOUS
 10
118.0
 20
13.75
  7
TEXTSTYLE_7
 40
7.5
  1
Sprocket Z09
 41
0.6694444444
 72
0
  0
LINE
  8
0
 62
7
  6
CONTINUOUS
 10
210.0
 20
0.0
 11
0.0
 21
0.0
  0
LINE
  8
0
 62
7
  6
CONTINUOUS
 10
10.0
 20
10.0
 11
200.0
 21
10.0
  0
LINE
  8
0
 62
7
  6
CONTINUOUS
 10
10.0
 20
30.0
 11
200.0
 21
30.0
  0
LINE
  8
0
 62
7
  6
CONTINUOUS
 10
0.0
 20
0.0
 11
0.0
 21
297.0
  0
LINE
  8
0
 62
7
  6
CONTINUOUS
 10
10.0
 20
10.0
 11
10.0
 21
287.0
  0
LINE
  8
0
 62
7
  6
CONTINUOUS
 10
200.0
 20
287.0
 11
200.0
 21
10.0
  0
LINE
  8
0
 62
7
  6
CONTINUOUS
 10
210.0
 20
0.0
 11
210.0
 21
297.0
  0
LINE
  8
0
 62
7
  6
CONTINUOUS
 10
10.0
 20
287.0
 11
200.0
 21
287.0
  0
LINE
  8
0
 62
7
  6
CONTINUOUS
 10
0.0
 20
297.0
 11
210.0
 21
297.0
  0
LINE
  8
0
 62
7
  6
CONTINUOUS
 10
57.1754114947
 20
227.2369582567
 11
57.1767906039
 21
227.2394432706
  0
LINE
  8
0
 62
7
  6
CONTINUOUS
 10
57.9921989935
 20
228.6517721123
 11
57.9936621484
 21
228.6542100035
  0
LINE
  8
2_FEATURE
 62
7
  6
CONTINUOUS
 10
83.6041666608
 20
249.4146459054
 11
83.6068545487
 21
249.4155729405
  0
POLYLINE
  8
0
 62
7
  6
CONTINUOUS
 66
1
 70
0
  0
VERTEX
  8
0
 62
7
  6
CONTINUOUS
 10
125.7836355052
 20
160.3916020739
  0
VERTEX
  8
0
 62
7
  6
CONTINUOUS
 10
125.7739048085
 20
160.3908698724
  0
VERTEX
  8
0
 62
7
  6
CONTINUOUS
 10
125.763839275
 20
160.3893900486
  0
VERTEX
  8
0
 62
7
  6
CONTINUOUS
 10
125.7534038278
 20
160.3871814555
  0
VERTEX
  8
0
 62
7
  6
CONTINUOUS
 10
125.7427025377
 20
160.3841886072
  0
VERTEX
  8
0
 62
7
  6
CONTINUOUS
 10
125.7318149286
 20
160.3803634177
  0
VERTEX
  8
0
 62
7
  6
CONTINUOUS
 10
125.7207790525
 20
160.3757021664
  0
VERTEX
  8
0
 62
7
  6
CONTINUOUS
 10
125.7096676869
 20
160.3701824702
  0
VERTEX
  8
0
 62
7
  6
CONTINUOUS
 10
125.6984557955
 20
160.3638119119
  0
SEQEND
  0
LINE
  8
0
 62
7
  6
CONTINUOUS
 10
100.1391975587
 20
155.6560034779
 11
100.1363559189
 21
155.6559553146
  0
LINE
  8
0
 62
7
  6
CONTINUOUS
 10
98.5055390687
 20
155.6559552736
 11
98.5026962156
 21
155.6560034573
  0
POLYLINE
  8
0
 62
7
  6
CONTINUOUS
 66
1
 70
0
  0
VERTEX
  8
0
 62
7
  6
CONTINUOUS
 10
72.8582570592
 20
160.3916020738
  0
VERTEX
  8
0
 62
7
  6
CONTINUOUS
 10
72.8679877558
 20
160.3908698723
  0
VERTEX
  8
0
 62
7
  6
CONTINUOUS
 10
72.8780532892
 20
160.3893900485
  0
VERTEX
  8
0
 62
7
  6
CONTINUOUS
 10
72.8884887364
 20
160.3871814554
  0
VERTEX
  8
0
 62
7
  6
CONTINUOUS
 10
72.8991900264
 20
160.3841886071
  0
VERTEX
  8
0
 62
7
  6
CONTINUOUS
 10
72.9100776354
 20
160.3803634176
  0
VERTEX
  8
0
 62
7
  6
CONTINUOUS
 10
72.9211135114
 20
160.3757021663
  0
VERTEX
  8
0
 62
7
  6
CONTINUOUS
 10
72.932224877
 20
160.3701824701
  0
VERTEX
  8
0
 62
7
  6
CONTINUOUS
 10
72.9434367683
 20
160.3638119119
  0
SEQEND
  0
LINE
  8
0
 62
7
  6
CONTINUOUS
 10
68.9698650681
 20
166.4050745086
 11
68.9676572869
 21
166.4068641843
  0
LINE
  8
0
 62
7
  6
CONTINUOUS
 10
67.7183790747
 20
167.4551330178
 11
67.7162322948
 21
167.4569972795
  0
LINE
  8
0
 62
7
  6
CONTINUOUS
 10
52.002140792
 20
194.6746013676
 11
52.0015999149
 21
194.6773914731
  0
LINE
  8
0
 62
7
  6
CONTINUOUS
 10
51.7184115003
 20
196.2834325438
 11
51.7179652958
 21
196.2862405746
  0
POLYLINE
  8
0
 62
7
  6
CONTINUOUS
 66
1
 70
0
  0
VERTEX
  8
0
 62
7
  6
CONTINUOUS
 10
51.9285094016
 20
222.3634111473
  0
VERTEX
  8
0
 62
7
  6
CONTINUOUS
 10
51.9294780416
 20
222.3537011364
  0
VERTEX
  8
0
 62
7
  6
CONTINUOUS
 10
51.9297685612
 20
222.3435315523
  0
VERTEX
  8
0
 62
7
  6
CONTINUOUS
 10
51.929405618
 20
222.3328711249
  0
VERTEX
  8
0
 62
7
  6
CONTINUOUS
 10
51.9283164973
 20
222.3218127089
  0
VERTEX
  8
0
 62
7
  6
CONTINUOUS
 10
51.9264400345
 20
222.3104262699
  0
VERTEX
  8
0
 62
7
  6
CONTINUOUS
 10
51.9237659578
 20
222.2987486359
  0
VERTEX
  8
0
 62
7
  6
CONTINUOUS
 10
51.9202595867
 20
222.2868475917
  0
VERTEX
  8
0
 62
7
  6
CONTINUOUS
 10
51.915932736
 20
222.2746997984
  0
SEQEND
  0
POLYLINE
  8
0
 62
7
  6
CONTINUOUS
 66
1
 70
0
  0
VERTEX
  8
0
 62
7
  6
CONTINUOUS
 10
48.4543412076
 20
202.6604242313
  0
VERTEX
  8
0
 62
7
  6
CONTINUOUS
 10
48.4585724509
 20
202.6692173625
  0
VERTEX
  8
0
 62
7
  6
CONTINUOUS
 10
48.4623236526
 20
202.6786742822
  0
VERTEX
  8
0
 62
7
  6
CONTINUOUS
 10
48.4656286786
 20
202.6888159411
  0
VERTEX
  8
0
 62
7
  6
CONTINUOUS
 10
48.4683874409
 20
202.6995799543
  0
VERTEX
  8
0
 62
7
  6
CONTINUOUS
 10
48.4705185342
 20
202.7109214952
  0
VERTEX
  8
0
 62
7
  6
CONTINUOUS
 10
48.4719997102
 20
202.7228094698
  0
VERTEX
  8
0
 62
7
  6
CONTINUOUS
 10
48.4727751959
 20
202.7351920428
  0
VERTEX
  8
0
 62
7
  6
CONTINUOUS
 10
48.4728640763
 20
202.7480871047
  0
SEQEND
  0
POLYLINE
  8
0
 62
7
  6
CONTINUOUS
 66
1
 70
0
  0
VERTEX
  8
0
 62
7
  6
CONTINUOUS
 10
48.4543412083
 20
202.6604242313
  0
VERTEX
  8
0
 62
7
  6
CONTINUOUS
 10
48.4422477526
 20
202.6367842966
  0
VERTEX
  8
0
 62
7
  6
CONTINUOUS
 10
48.4305130129
 20
202.6133455267
  0
VERTEX
  8
0
 62
7
  6
CONTINUOUS
 10
48.4191714012
 20
202.5901759053
  0
VERTEX
  8
0
 62
7
  6
CONTINUOUS
 10
48.4082542085
 20
202.5673427155
  0
VERTEX
  8
0
 62
7
  6
CONTINUOUS
 10
48.3977933436
 20
202.5449110237
  0
VERTEX
  8
0
 62
7
  6
CONTINUOUS
 10
48.3878174552
 20
202.5229460828
  0
VERTEX
  8
0
 62
7
  6
CONTINUOUS
 10
48.3783557231
 20
202.5015102422
  0
VERTEX
  8
0
 62
7
  6
CONTINUOUS
 10
48.3694337089
 20
202.4806655165
  0
VERTEX
  8
0
 62
7
  6
CONTINUOUS
 10
48.3610774496
 20
202.4604707153
  0
VERTEX
  8
0
 62
7
  6
CONTINUOUS
 10
48.3533091111
 20
202.4409838164
  0
VERTEX
  8
0
 62
7
  6
CONTINUOUS
 10
48.3461512341
 20
202.4222593442
  0
VERTEX
  8
0
 62
7
  6
CONTINUOUS
 10
48.33962234
 20
202.4043504994
  0
VERTEX
  8
0
 62
7
  6
CONTINUOUS
 10
48.3337411797
 20
202.3873068444
  0
VERTEX
  8
0
 62
7
  6
CONTINUOUS
 10
48.3285224676
 20
202.3711761947
  0
VERTEX
  8
0
 62
7
  6
CONTINUOUS
 10
48.3239809557
 20
202.3560026019
  0
VERTEX
  8
0
 62
7
  6
CONTINUOUS
 10
48.3201274627
 20
202.341828009
  0
VERTEX
  8
0
 62
7
  6
CONTINUOUS
 10
48.3169726136
 20
202.3286905337
  0
VERTEX
  8
0
 62
7
  6
CONTINUOUS
 10
48.3145233104
 20
202.3166258896
  0
VERTEX
  8
0
 62
7
  6
CONTINUOUS
 10
48.3127860009
 20
202.3056659604
  0
VERTEX
  8
0
 62
7
  6
CONTINUOUS
 10
48.3117636984
 20
202.2958400076
  0
VERTEX
  8
0
 62
7
  6
CONTINUOUS
 10
48.3114587083
 20
202.2871734965
  0
VERTEX
  8
0
 62
7
  6
CONTINUOUS
 10
48.3118701391
 20
202.2796891412
  0
VERTEX
  8
0
 62
7
  6
CONTINUOUS
 10
48.3129956758
 20
202.2734061794
  0
VERTEX
  8
0
 62
7
  6
CONTINUOUS
 10
48.3148320034
 20
202.2683400238
  0
VERTEX
  8
0
 62
7
  6
CONTINUOUS
 10
48.3173681756
 20
202.2645059152
  0
VERTEX
  8
0
 62
7
  6
CONTINUOUS
 10
48.3206143769
 20
202.2619032173
  0
SEQEND
  0
POLYLINE
  8
2_FEATURE
 62
7
  6
CONTINUOUS
 66
1
 70
0
  0
VERTEX
  8
2_FEATURE
 62
7
  6
CONTINUOUS
 10
74.9170304309
 20
248.4951464699
  0
VERTEX
  8
2_FEATURE
 62
7
  6
CONTINUOUS
 10
74.9314564871
 20
248.5174396771
  0
VERTEX
  8
2_FEATURE
 62
7
  6
CONTINUOUS
 10
74.9458876876
 20
248.5393216447
  0
VERTEX
  8
2_FEATURE
 62
7
  6
CONTINUOUS
 10
74.9602823626
 20
248.5607285792
  0
VERTEX
  8
2_FEATURE
 62
7
  6
CONTINUOUS
 10
74.9745978888
 20
248.5815997402
  0
VERTEX
  8
2_FEATURE
 62
7
  6
CONTINUOUS
 10
74.9887938714
 20
248.6018749608
  0
VERTEX
  8
2_FEATURE
 62
7
  6
CONTINUOUS
 10
75.0028281242
 20
248.621496804
  0
VERTEX
  8
2_FEATURE
 62
7
  6
CONTINUOUS
 10
75.0166612408
 20
248.6404088245
  0
VERTEX
  8
2_FEATURE
 62
7
  6
CONTINUOUS
 10
75.030252296
 20
248.6585578782
  0
VERTEX
  8
2_FEATURE
 62
7
  6
CONTINUOUS
 10
75.0435633774
 20
248.6758920114
  0
VERTEX
  8
2_FEATURE
 62
7
  6
CONTINUOUS
 10
75.0565553579
 20
248.6923630392
  0
VERTEX
  8
2_FEATURE
 62
7
  6
CONTINUOUS
 10
75.0691922884
 20
248.7079241784
  0
VERTEX
  8
2_FEATURE
 62
7
  6
CONTINUOUS
 10
75.0814373563
 20
248.7225327887
  0
VERTEX
  8
2_FEATURE
 62
7
  6
CONTINUOUS
 10
75.0932570149
 20
248.73614785
  0
VERTEX
  8
2_FEATURE
 62
7
  6
CONTINUOUS
 10
75.1046172118
 20
248.7487327118
  0
VERTEX
  8
2_FEATURE
 62
7
  6
CONTINUOUS
 10
75.1154871734
 20
248.7602525724
  0
VERTEX
  8
2_FEATURE
 62
7
  6
CONTINUOUS
 10
75.1258359854
 20
248.7706770911
  0
VERTEX
  8
2_FEATURE
 62
7
  6
CONTINUOUS
 10
75.1356359493
 20
248.7799780074
  0
VERTEX
  8
2_FEATURE
 62
7
  6
CONTINUOUS
 10
75.1448595875
 20
248.7881314874
  0
VERTEX
  8
2_FEATURE
 62
7
  6
CONTINUOUS
 10
75.1534825117
 20
248.7951160049
  0
VERTEX
  8
2_FEATURE
 62
7
  6
CONTINUOUS
 10
75.1614808877
 20
248.8009143197
  0
VERTEX
  8
2_FEATURE
 62
7
  6
CONTINUOUS
 10
75.1688338146
 20
248.8055117024
  0
VERTEX
  8
2_FEATURE
 62
7
  6
CONTINUOUS
 10
75.1755211778
 20
248.8088975669
  0
VERTEX
  8
2_FEATURE
 62
7
  6
CONTINUOUS
 10
75.1815251679
 20
248.8110642937
  0
VERTEX
  8
2_FEATURE
 62
7
  6
CONTINUOUS
 10
75.1868307613
 20
248.8120070593
  0
VERTEX
  8
2_FEATURE
 62
7
  6
CONTINUOUS
 10
75.1914192682
 20
248.8117277336
  0
VERTEX
  8
2_FEATURE
 62
7
  6
CONTINUOUS
 10
75.1952963375
 20
248.8102178106
  0
SEQEND
  0
POLYLINE
  8
2_FEATURE
 62
7
  6
CONTINUOUS
 66
1
 70
0
  0
VERTEX
  8
2_FEATURE
 62
7
  6
CONTINUOUS
 10
74.9170304306
 20
248.4951464705
  0
VERTEX
  8
2_FEATURE
 62
7
  6
CONTINUOUS
 10
74.9115309772
 20
248.4870855408
  0
VERTEX
  8
2_FEATURE
 62
7
  6
CONTINUOUS
 10
74.9052166455
 20
248.479108445
  0
VERTEX
  8
2_FEATURE
 62
7
  6
CONTINUOUS
 10
74.8980862241
 20
248.4711753792
  0
VERTEX
  8
2_FEATURE
 62
7
  6
CONTINUOUS
 10
74.8901436965
 20
248.4634042144
  0
VERTEX
  8
2_FEATURE
 62
7
  6
CONTINUOUS
 10
74.8813871807
 20
248.4558878631
  0
VERTEX
  8
2_FEATURE
 62
7
  6
CONTINUOUS
 10
74.8718324807
 20
248.4486611398
  0
VERTEX
  8
2_FEATURE
 62
7
  6
CONTINUOUS
 10
74.8614966008
 20
248.441798263
  0
VERTEX
  8
2_FEATURE
 62
7
  6
CONTINUOUS
 10
74.8503735899
 20
248.4352737594
  0
SEQEND
  0
POLYLINE
  8
0
 62
7
  6
CONTINUOUS
 66
1
 70
0
  0
VERTEX
  8
0
 62
7
  6
CONTINUOUS
 10
59.5908273277
 20
235.6349350997
  0
VERTEX
  8
0
 62
7
  6
CONTINUOUS
 10
59.5997207639
 20
235.6389512383
  0
VERTEX
  8
0
 62
7
  6
CONTINUOUS
 10
59.6086731419
 20
235.643784433
  0
VERTEX
  8
0
 62
7
  6
CONTINUOUS
 10
59.6177238714
 20
235.6494289648
  0
VERTEX
  8
0
 62
7
  6
CONTINUOUS
 10
59.6267561802
 20
235.655901379
  0
VERTEX
  8
0
 62
7
  6
CONTINUOUS
 10
59.6356788943
 20
235.663219663
  0
VERTEX
  8
0
 62
7
  6
CONTINUOUS
 10
59.6444549838
 20
235.6713742984
  0
VERTEX
  8
0
 62
7
  6
CONTINUOUS
 10
59.6530084048
 20
235.680361427
  0
VERTEX
  8
0
 62
7
  6
CONTINUOUS
 10
59.6613652772
 20
235.6901824863
  0
SEQEND
  0
POLYLINE
  8
0
 62
7
  6
CONTINUOUS
 66
1
 70
0
  0
VERTEX
  8
0
 62
7
  6
CONTINUOUS
 10
59.5908273282
 20
235.6349350993
  0
VERTEX
  8
0
 62
7
  6
CONTINUOUS
 10
59.5663677465
 20
235.6245993821
  0
VERTEX
  8
0
 62
7
  6
CONTINUOUS
 10
59.5423122635
 20
235.6141871879
  0
VERTEX
  8
0
 62
7
  6
CONTINUOUS
 10
59.5187309394
 20
235.6037284757
  0
VERTEX
  8
0
 62
7
  6
CONTINUOUS
 10
59.4956909931
 20
235.5932546737
  0
VERTEX
  8
0
 62
7
  6
CONTINUOUS
 10
59.4732586921
 20
235.5827951153
  0
VERTEX
  8
0
 62
7
  6
CONTINUOUS
 10
59.4514979263
 20
235.5723813718
  0
VERTEX
  8
0
 62
7
  6
CONTINUOUS
 10
59.4304711263
 20
235.5620424494
  0
VERTEX
  8
0
 62
7
  6
CONTINUOUS
 10
59.4102377355
 20
235.5518094232
  0
VERTEX
  8
0
 62
7
  6
CONTINUOUS
 10
59.3908555015
 20
235.5417106079
  0
VERTEX
  8
0
 62
7
  6
CONTINUOUS
 10
59.3723786718
 20
235.5317761691
  0
VERTEX
  8
0
 62
7
  6
CONTINUOUS
 10
59.3548595612
 20
235.5220333858
  0
VERTEX
  8
0
 62
7
  6
CONTINUOUS
 10
59.3383465546
 20
235.512511107
  0
VERTEX
  8
0
 62
7
  6
CONTINUOUS
 10
59.3228858742
 20
235.5032352468
  0
VERTEX
  8
0
 62
7
  6
CONTINUOUS
 10
59.308519527
 20
235.4942329757
  0
VERTEX
  8
0
 62
7
  6
CONTINUOUS
 10
59.2952871296
 20
235.4855285569
  0
VERTEX
  8
0
 62
7
  6
CONTINUOUS
 10
59.28322393
 20
235.4771471663
  0
VERTEX
  8
0
 62
7
  6
CONTINUOUS
 10
59.2723625691
 20
235.4691111742
  0
VERTEX
  8
0
 62
7
  6
CONTINUOUS
 10
59.2627312902
 20
235.4614435024
  0
VERTEX
  8
0
 62
7
  6
CONTINUOUS
 10
59.2543555272
 20
235.4541644306
  0
VERTEX
  8
0
 62
7
  6
CONTINUOUS
 10
59.2472563973
 20
235.4472944375
  0
VERTEX
  8
0
 62
7
  6
CONTINUOUS
 10
59.2414520355
 20
235.4408515486
  0
VERTEX
  8
0
 62
7
  6
CONTINUOUS
 10
59.2369563588
 20
235.4348537372
  0
VERTEX
  8
0
 62
7
  6
CONTINUOUS
 10
59.23377996
 20
235.4293172282
  0
VERTEX
  8
0
 62
7
  6
CONTINUOUS
 10
59.2319302064
 20
235.4242559592
  0
VERTEX
  8
0
 62
7
  6
CONTINUOUS
 10
59.2314085096
 20
235.4196886416
  0
VERTEX
  8
0
 62
7
  6
CONTINUOUS
 10
59.2322222621
 20
235.4156082414
  0
SEQEND
  0
POLYLINE
  8
0
 62
7
  6
CONTINUOUS
 66
1
 70
0
  0
VERTEX
  8
0
 62
7
  6
CONTINUOUS
 10
109.3244149055
 20
253.7364806208
  0
VERTEX
  8
0
 62
7
  6
CONTINUOUS
 10
109.3497957032
 20
253.7442853181
  0
VERTEX
  8
0
 62
7
  6
CONTINUOUS
 10
109.3749161017
 20
253.7517716809
  0
VERTEX
  8
0
 62
7
  6
CONTINUOUS
 10
109.3997031747
 20
253.7589176254
  0
VERTEX
  8
0
 62
7
  6
CONTINUOUS
 10
109.4240852277
 20
253.7657040195
  0
VERTEX
  8
0
 62
7
  6
CONTINUOUS
 10
109.4479926419
 20
253.7721107378
  0
VERTEX
  8
0
 62
7
  6
CONTINUOUS
 10
109.4713561809
 20
253.7781208979
  0
VERTEX
  8
0
 62
7
  6
CONTINUOUS
 10
109.4941093755
 20
253.7837165902
  0
VERTEX
  8
0
 62
7
  6
CONTINUOUS
 10
109.5161867146
 20
253.78888341
  0
VERTEX
  8
0
 62
7
  6
CONTINUOUS
 10
109.5375257607
 20
253.7936059282
  0
VERTEX
  8
0
 62
7
  6
CONTINUOUS
 10
109.5580655678
 20
253.7978723834
  0
VERTEX
  8
0
 62
7
  6
CONTINUOUS
 10
109.5777485256
 20
253.8016700453
  0
VERTEX
  8
0
 62
7
  6
CONTINUOUS
 10
109.5965190255
 20
253.8049899121
  0
VERTEX
  8
0
 62
7
  6
CONTINUOUS
 10
109.614325002
 20
253.8078221241
  0
VERTEX
  8
0
 62
7
  6
CONTINUOUS
 10
109.6311168109
 20
253.8101604937
  0
VERTEX
  8
0
 62
7
  6
CONTINUOUS
 10
109.6468485083
 20
253.8119981422
  0
VERTEX
  8
0
 62
7
  6
CONTINUOUS
 10
109.6614769096
 20
253.8133316987
  0
VERTEX
  8
0
 62
7
  6
CONTINUOUS
 10
109.6749626313
 20
253.8141573187
  0
VERTEX
  8
0
 62
7
  6
CONTINUOUS
 10
109.687269304
 20
253.8144744063
  0
VERTEX
  8
0
 62
7
  6
CONTINUOUS
 10
109.6983644085
 20
253.8142821484
  0
VERTEX
  8
0
 62
7
  6
CONTINUOUS
 10
109.7082186049
 20
253.8135826581
  0
VERTEX
  8
0
 62
7
  6
CONTINUOUS
 10
109.7168064144
 20
253.8123780874
  0
VERTEX
  8
0
 62
7
  6
CONTINUOUS
 10
109.7241056235
 20
253.8106732558
  0
VERTEX
  8
0
 62
7
  6
CONTINUOUS
 10
109.7300976919
 20
253.8084737744
  0
VERTEX
  8
0
 62
7
  6
CONTINUOUS
 10
109.7347680103
 20
253.805785605
  0
VERTEX
  8
0
 62
7
  6
CONTINUOUS
 10
109.7381034634
 20
253.8026221937
  0
VERTEX
  8
0
 62
7
  6
CONTINUOUS
 10
109.740102911
 20
253.7989733935
  0
SEQEND
  0
POLYLINE
  8
0
 62
7
  6
CONTINUOUS
 66
1
 70
0
  0
VERTEX
  8
0
 62
7
  6
CONTINUOUS
 10
125.7836355049
 20
160.3916020744
  0
VERTEX
  8
0
 62
7
  6
CONTINUOUS
 10
125.8101550167
 20
160.3929488019
  0
VERTEX
  8
0
 62
7
  6
CONTINUOUS
 10
125.8363209567
 20
160.3945056042
  0
VERTEX
  8
0
 62
7
  6
CONTINUOUS
 10
125.8620572433
 20
160.3962682911
  0
VERTEX
  8
0
 62
7
  6
CONTINUOUS
 10
125.8872899621
 20
160.3982303197
  0
VERTEX
  8
0
 62
7
  6
CONTINUOUS
 10
125.9119468094
 20
160.4003867908
  0
VERTEX
  8
0
 62
7
  6
CONTINUOUS
 10
125.9359569505
 20
160.4027298885
  0
VERTEX
  8
0
 62
7
  6
CONTINUOUS
 10
125.959251799
 20
160.4052537084
  0
VERTEX
  8
0
 62
7
  6
CONTINUOUS
 10
125.9817648681
 20
160.4079493804
  0
VERTEX
  8
0
 62
7
  6
CONTINUOUS
 10
126.0034322086
 20
160.4108100481
  0
VERTEX
  8
0
 62
7
  6
CONTINUOUS
 10
126.0241925274
 20
160.4138259191
  0
VERTEX
  8
0
 62
7
  6
CONTINUOUS
 10
126.0439873345
 20
160.4169892519
  0
VERTEX
  8
0
 62
7
  6
CONTINUOUS
 10
126.0627612961
 20
160.4202894862
  0
VERTEX
  8
0
 62
7
  6
CONTINUOUS
 10
126.0804621144
 20
160.4237180794
  0
VERTEX
  8
0
 62
7
  6
CONTINUOUS
 10
126.0970410229
 20
160.427263867
  0
VERTEX
  8
0
 62
7
  6
CONTINUOUS
 10
126.1124524956
 20
160.4309175987
  0
VERTEX
  8
0
 62
7
  6
CONTINUOUS
 10
126.1266547997
 20
160.4346676723
  0
VERTEX
  8
0
 62
7
  6
CONTINUOUS
 10
126.1396096116
 20
160.4385042305
  0
VERTEX
  8
0
 62
7
  6
CONTINUOUS
 10
126.1512825515
 20
160.4424153938
  0
VERTEX
  8
0
 62
7
  6
CONTINUOUS
 10
126.1616427833
 20
160.4463908042
  0
VERTEX
  8
0
 62
7
  6
CONTINUOUS
 10
126.1706634593
 20
160.4504184406
  0
VERTEX
  8
0
 62
7
  6
CONTINUOUS
 10
126.1783213731
 20
160.4544875671
  0
VERTEX
  8
0
 62
7
  6
CONTINUOUS
 10
126.1845972996
 20
160.4585860542
  0
VERTEX
  8
0
 62
7
  6
CONTINUOUS
 10
126.1894757358
 20
160.4627022785
  0
VERTEX
  8
0
 62
7
  6
CONTINUOUS
 10
126.1929449915
 20
160.4668256626
  0
VERTEX
  8
0
 62
7
  6
CONTINUOUS
 10
126.1949973407
 20
160.4709391065
  0
VERTEX
  8
0
 62
7
  6
CONTINUOUS
 10
126.1956282426
 20
160.4750517482
  0
SEQEND
  0
POLYLINE
  8
0
 62
7
  6
CONTINUOUS
 66
1
 70
0
  0
VERTEX
  8
0
 62
7
  6
CONTINUOUS
 10
72.8582570595
 20
160.3916020743
  0
VERTEX
  8
0
 62
7
  6
CONTINUOUS
 10
72.8317375476
 20
160.3929488019
  0
VERTEX
  8
0
 62
7
  6
CONTINUOUS
 10
72.8055716076
 20
160.3945056043
  0
VERTEX
  8
0
 62
7
  6
CONTINUOUS
 10
72.779835321
 20
160.3962682913
  0
VERTEX
  8
0
 62
7
  6
CONTINUOUS
 10
72.7546026022
 20
160.3982303201
  0
VERTEX
  8
0
 62
7
  6
CONTINUOUS
 10
72.7299457548
 20
160.4003867914
  0
VERTEX
  8
0
 62
7
  6
CONTINUOUS
 10
72.7059356138
 20
160.4027298893
  0
VERTEX
  8
0
 62
7
  6
CONTINUOUS
 10
72.6826407652
 20
160.4052537094
  0
VERTEX
  8
0
 62
7
  6
CONTINUOUS
 10
72.6601276962
 20
160.4079493816
  0
VERTEX
  8
0
 62
7
  6
CONTINUOUS
 10
72.6384603557
 20
160.4108100497
  0
VERTEX
  8
0
 62
7
  6
CONTINUOUS
 10
72.6177000369
 20
160.413825921
  0
VERTEX
  8
0
 62
7
  6
CONTINUOUS
 10
72.5979052298
 20
160.4169892542
  0
VERTEX
  8
0
 62
7
  6
CONTINUOUS
 10
72.5791312683
 20
160.4202894889
  0
VERTEX
  8
0
 62
7
  6
CONTINUOUS
 10
72.56143045
 20
160.4237180828
  0
VERTEX
  8
0
 62
7
  6
CONTINUOUS
 10
72.5448515415
 20
160.4272638711
  0
VERTEX
  8
0
 62
7
  6
CONTINUOUS
 10
72.5294400688
 20
160.4309176037
  0
VERTEX
  8
0
 62
7
  6
CONTINUOUS
 10
72.5152377648
 20
160.4346676784
  0
VERTEX
  8
0
 62
7
  6
CONTINUOUS
 10
72.502282953
 20
160.4385042379
  0
VERTEX
  8
0
 62
7
  6
CONTINUOUS
 10
72.4906100132
 20
160.442415403
  0
VERTEX
  8
0
 62
7
  6
CONTINUOUS
 10
72.4802497814
 20
160.4463908155
  0
VERTEX
  8
0
 62
7
  6
CONTINUOUS
 10
72.4712291055
 20
160.450418455
  0
VERTEX
  8
0
 62
7
  6
CONTINUOUS
 10
72.4635711918
 20
160.4544875851
  0
VERTEX
  8
0
 62
7
  6
CONTINUOUS
 10
72.4572952656
 20
160.4585860793
  0
VERTEX
  8
0
 62
7
  6
CONTINUOUS
 10
72.4524168301
 20
160.4627023238
  0
VERTEX
  8
0
 62
7
  6
CONTINUOUS
 10
72.4489475744
 20
160.4668257197
  0
VERTEX
  8
0
 62
7
  6
CONTINUOUS
 10
72.4468952241
 20
160.4709391461
  0
VERTEX
  8
0
 62
7
  6
CONTINUOUS
 10
72.4462643212
 20
160.4750517481
  0
SEQEND
  0
POLYLINE
  8
0
 62
7
  6
CONTINUOUS
 66
1
 70
0
  0
VERTEX
  8
0
 62
7
  6
CONTINUOUS
 10
91.6586283558
 20
153.5488265285
  0
VERTEX
  8
0
 62
7
  6
CONTINUOUS
 10
91.6507035597
 20
153.5545204009
  0
VERTEX
  8
0
 62
7
  6
CONTINUOUS
 10
91.6420417012
 20
153.5598567903
  0
VERTEX
  8
0
 62
7
  6
CONTINUOUS
 10
91.6326280286
 20
153.5648726861
  0
VERTEX
  8
0
 62
7
  6
CONTINUOUS
 10
91.622506599
 20
153.5694586879
  0
VERTEX
  8
0
 62
7
  6
CONTINUOUS
 10
91.6117074221
 20
153.573526843
  0
VERTEX
  8
0
 62
7
  6
CONTINUOUS
 10
91.600257256
 20
153.5770498417
  0
VERTEX
  8
0
 62
7
  6
CONTINUOUS
 10
91.5881974638
 20
153.5799637573
  0
VERTEX
  8
0
 62
7
  6
CONTINUOUS
 10
91.5755137407
 20
153.5822904914
  0
SEQEND
  0
POLYLINE
  8
0
 62
7
  6
CONTINUOUS
 66
1
 70
0
  0
VERTEX
  8
0
 62
7
  6
CONTINUOUS
 10
91.6586283559
 20
153.5488265291
  0
VERTEX
  8
0
 62
7
  6
CONTINUOUS
 10
91.6798091404
 20
153.5328117686
  0
VERTEX
  8
0
 62
7
  6
CONTINUOUS
 10
91.7008541065
 20
153.5171852063
  0
VERTEX
  8
0
 62
7
  6
CONTINUOUS
 10
91.7217022791
 20
153.5019925367
  0
VERTEX
  8
0
 62
7
  6
CONTINUOUS
 10
91.7422928308
 20
153.4872762589
  0
VERTEX
  8
0
 62
7
  6
CONTINUOUS
 10
91.7625672246
 20
153.4730790956
  0
VERTEX
  8
0
 62
7
  6
CONTINUOUS
 10
91.7824661739
 20
153.4594405914
  0
VERTEX
  8
0
 62
7
  6
CONTINUOUS
 10
91.8019333434
 20
153.4464003096
  0
VERTEX
  8
0
 62
7
  6
CONTINUOUS
 10
91.8209120994
 20
153.4339941922
  0
VERTEX
  8
0
 62
7
  6
CONTINUOUS
 10
91.839349047
 20
153.4222580929
  0
VERTEX
  8
0
 62
7
  6
CONTINUOUS
 10
91.8571909383
 20
153.4112239084
  0
VERTEX
  8
0
 62
7
  6
CONTINUOUS
 10
91.8743879914
 20
153.4009233052
  0
VERTEX
  8
0
 62
7
  6
CONTINUOUS
 10
91.89089103
 20
153.3913837614
  0
VERTEX
  8
0
 62
7
  6
CONTINUOUS
 10
91.9066545008
 20
153.3826323495
  0
VERTEX
  8
0
 62
7
  6
CONTINUOUS
 10
91.9216338698
 20
153.3746918634
  0
VERTEX
  8
0
 62
7
  6
CONTINUOUS
 10
91.9357883164
 20
153.3675844806
  0
VERTEX
  8
0
 62
7
  6
CONTINUOUS
 10
91.9490784133
 20
153.3613281385
  0
VERTEX
  8
0
 62
7
  6
CONTINUOUS
 10
91.9614684671
 20
153.3559399201
  0
VERTEX
  8
0
 62
7
  6
CONTINUOUS
 10
91.9729245051
 20
153.3514328238
  0
VERTEX
  8
0
 62
7
  6
CONTINUOUS
 10
91.9834162477
 20
153.3478187362
  0
VERTEX
  8
0
 62
7
  6
CONTINUOUS
 10
91.9929154012
 20
153.3451057059
  0
VERTEX
  8
0
 62
7
  6
CONTINUOUS
 10
92.0013972876
 20
153.3433004255
  0
VERTEX
  8
0
 62
7
  6
CONTINUOUS
 10
92.0088393829
 20
153.3424059611
  0
VERTEX
  8
0
 62
7
  6
CONTINUOUS
 10
92.0152223398
 20
153.3424233735
  0
VERTEX
  8
0
 62
7
  6
CONTINUOUS
 10
92.0205304041
 20
153.3433520744
  0
VERTEX
  8
0
 62
7
  6
CONTINUOUS
 10
92.0247466656
 20
153.3451839305
  0
VERTEX
  8
0
 62
7
  6
CONTINUOUS
 10
92.0278735196
 20
153.347928861
  0
SEQEND
  0
POLYLINE
  8
0
 62
7
  6
CONTINUOUS
 66
1
 70
0
  0
VERTEX
  8
0
 62
7
  6
CONTINUOUS
 10
51.1154362978
 20
187.5686040317
  0
VERTEX
  8
0
 62
7
  6
CONTINUOUS
 10
51.0959868329
 20
187.5866820986
  0
VERTEX
  8
0
 62
7
  6
CONTINUOUS
 10
51.0769432533
 20
187.6046938204
  0
VERTEX
  8
0
 62
7
  6
CONTINUOUS
 10
51.0583611473
 20
187.6225870832
  0
VERTEX
  8
0
 62
7
  6
CONTINUOUS
 10
51.0402929311
 20
187.6403093634
  0
VERTEX
  8
0
 62
7
  6
CONTINUOUS
 10
51.0227908432
 20
187.6578104322
  0
VERTEX
  8
0
 62
7
  6
CONTINUOUS
 10
51.0059041223
 20
187.6750387705
  0
VERTEX
  8
0
 62
7
  6
CONTINUOUS
 10
50.9896815133
 20
187.6919457689
  0
VERTEX
  8
0
 62
7
  6
CONTINUOUS
 10
50.9741682466
 20
187.7084818955
  0
VERTEX
  8
0
 62
7
  6
CONTINUOUS
 10
50.9594089028
 20
187.7246007924
  0
VERTEX
  8
0
 62
7
  6
CONTINUOUS
 10
50.9454441407
 20
187.7402555595
  0
VERTEX
  8
0
 62
7
  6
CONTINUOUS
 10
50.9323137901
 20
187.7554026701
  0
VERTEX
  8
0
 62
7
  6
CONTINUOUS
 10
50.9200534512
 20
187.7699984664
  0
VERTEX
  8
0
 62
7
  6
CONTINUOUS
 10
50.9086976953
 20
187.7840027884
  0
VERTEX
  8
0
 62
7
  6
CONTINUOUS
 10
50.8982767034
 20
187.7973757367
  0
VERTEX
  8
0
 62
7
  6
CONTINUOUS
 10
50.8888194044
 20
187.810080962
  0
VERTEX
  8
0
 62
7
  6
CONTINUOUS
 10
50.8803503099
 20
187.8220827509
  0
VERTEX
  8
0
 62
7
  6
CONTINUOUS
 10
50.8728924413
 20
187.8333489186
  0
VERTEX
  8
0
 62
7
  6
CONTINUOUS
 10
50.866464499
 20
187.8438482659
  0
VERTEX
  8
0
 62
7
  6
CONTINUOUS
 10
50.861083447
 20
187.8535530372
  0
VERTEX
  8
0
 62
7
  6
CONTINUOUS
 10
50.8567621251
 20
187.8624367668
  0
VERTEX
  8
0
 62
7
  6
CONTINUOUS
 10
50.8535114093
 20
187.8704763133
  0
VERTEX
  8
0
 62
7
  6
CONTINUOUS
 10
50.8513382321
 20
187.8776500296
  0
VERTEX
  8
0
 62
7
  6
CONTINUOUS
 10
50.8502470047
 20
187.8839390538
  0
VERTEX
  8
0
 62
7
  6
CONTINUOUS
 10
50.8502398685
 20
187.8893277528
  0
VERTEX
  8
0
 62
7
  6
CONTINUOUS
 10
50.8513117365
 20
187.8937980456
  0
VERTEX
  8
0
 62
7
  6
CONTINUOUS
 10
50.8534719663
 20
187.8973540181
  0
SEQEND
  0
POLYLINE
  8
0
 62
7
  6
CONTINUOUS
 66
1
 70
0
  0
VERTEX
  8
0
 62
7
  6
CONTINUOUS
 10
51.1154362972
 20
187.5686040315
  0
VERTEX
  8
0
 62
7
  6
CONTINUOUS
 10
51.1224197932
 20
187.5617883614
  0
VERTEX
  8
0
 62
7
  6
CONTINUOUS
 10
51.1291792268
 20
187.5541847504
  0
VERTEX
  8
0
 62
7
  6
CONTINUOUS
 10
51.1357535868
 20
187.5457850938
  0
VERTEX
  8
0
 62
7
  6
CONTINUOUS
 10
51.1420274847
 20
187.5366137824
  0
VERTEX
  8
0
 62
7
  6
CONTINUOUS
 10
51.1479090927
 20
187.526685097
  0
VERTEX
  8
0
 62
7
  6
CONTINUOUS
 10
51.1533668696
 20
187.5160206471
  0
VERTEX
  8
0
 62
7
  6
CONTINUOUS
 10
51.1583306772
 20
187.5046500664
  0
VERTEX
  8
0
 62
7
  6
CONTINUOUS
 10
51.1628245683
 20
187.4925630709
  0
SEQEND
  0
POLYLINE
  8
0
 62
7
  6
CONTINUOUS
 66
1
 70
0
  0
VERTEX
  8
0
 62
7
  6
CONTINUOUS
 10
61.1189049212
 20
170.2420881226
  0
VERTEX
  8
0
 62
7
  6
CONTINUOUS
 10
61.1164941257
 20
170.2515438426
  0
VERTEX
  8
0
 62
7
  6
CONTINUOUS
 10
61.1132889222
 20
170.2611994894
  0
VERTEX
  8
0
 62
7
  6
CONTINUOUS
 10
61.1093017863
 20
170.2710928806
  0
VERTEX
  8
0
 62
7
  6
CONTINUOUS
 10
61.1044961465
 20
170.2811118913
  0
VERTEX
  8
0
 62
7
  6
CONTINUOUS
 10
61.0988384567
 20
170.2911698561
  0
VERTEX
  8
0
 62
7
  6
CONTINUOUS
 10
61.0923316606
 20
170.3012286546
  0
VERTEX
  8
0
 62
7
  6
CONTINUOUS
 10
61.0849663526
 20
170.3112127284
  0
VERTEX
  8
0
 62
7
  6
CONTINUOUS
 10
61.0767456529
 20
170.3211480501
  0
SEQEND
  0
POLYLINE
  8
0
 62
7
  6
CONTINUOUS
 66
1
 70
0
  0
VERTEX
  8
0
 62
7
  6
CONTINUOUS
 10
61.1189049217
 20
170.242088123
  0
VERTEX
  8
0
 62
7
  6
CONTINUOUS
 10
61.1248362543
 20
170.2162053589
  0
VERTEX
  8
0
 62
7
  6
CONTINUOUS
 10
61.130913073
 20
170.1907072742
  0
VERTEX
  8
0
 62
7
  6
CONTINUOUS
 10
61.13711804
 20
170.165668067
  0
VERTEX
  8
0
 62
7
  6
CONTINUOUS
 10
61.1434318766
 20
170.1411593927
  0
VERTEX
  8
0
 62
7
  6
CONTINUOUS
 10
61.1498372027
 20
170.1172516055
  0
VERTEX
  8
0
 62
7
  6
CONTINUOUS
 10
61.1563140207
 20
170.0940131071
  0
VERTEX
  8
0
 62
7
  6
CONTINUOUS
 10
61.1628446062
 20
170.0715104163
  0
VERTEX
  8
0
 62
7
  6
CONTINUOUS
 10
61.1694086782
 20
170.0498074699
  0
VERTEX
  8
0
 62
7
  6
CONTINUOUS
 10
61.1759883802
 20
170.0289660547
  0
VERTEX
  8
0
 62
7
  6
CONTINUOUS
 10
61.1825634248
 20
170.0090448323
  0
VERTEX
  8
0
 62
7
  6
CONTINUOUS
 10
61.1891160317
 20
169.9901000598
  0
VERTEX
  8
0
 62
7
  6
CONTINUOUS
 10
61.1956261922
 20
169.9721843965
  0
VERTEX
  8
0
 62
7
  6
CONTINUOUS
 10
61.2020764122
 20
169.9553478624
  0
VERTEX
  8
0
 62
7
  6
CONTINUOUS
 10
61.2084472286
 20
169.9396365443
  0
VERTEX
  8
0
 62
7
  6
CONTINUOUS
 10
61.2147216261
 20
169.9250936703
  0
VERTEX
  8
0
 62
7
  6
CONTINUOUS
 10
61.2208809319
 20
169.9117583246
  0
VERTEX
  8
0
 62
7
  6
CONTINUOUS
 10
61.2269087836
 20
169.8996665368
  0
VERTEX
  8
0
 62
7
  6
CONTINUOUS
 10
61.2327875123
 20
169.8888501014
  0
VERTEX
  8
0
 62
7
  6
CONTINUOUS
 10
61.2385015626
 20
169.8793375876
  0
VERTEX
  8
0
 62
7
  6
CONTINUOUS
 10
61.2440344341
 20
169.8711533476
  0
VERTEX
  8
0
 62
7
  6
CONTINUOUS
 10
61.2493715242
 20
169.8643183711
  0
VERTEX
  8
0
 62
7
  6
CONTINUOUS
 10
61.2544975493
 20
169.8588494849
  0
VERTEX
  8
0
 62
7
  6
CONTINUOUS
 10
61.2593983704
 20
169.854759938
  0
VERTEX
  8
0
 62
7
  6
CONTINUOUS
 10
61.264061541
 20
169.8520594062
  0
VERTEX
  8
0
 62
7
  6
CONTINUOUS
 10
61.2684688791
 20
169.8507525288
  0
VERTEX
  8
0
 62
7
  6
CONTINUOUS
 10
61.2726285955
 20
169.8508453645
  0
SEQEND
  0
POLYLINE
  8
0
 62
7
  6
CONTINUOUS
 66
1
 70
0
  0
VERTEX
  8
0
 62
7
  6
CONTINUOUS
 10
51.9285094022
 20
222.3634111471
  0
VERTEX
  8
0
 62
7
  6
CONTINUOUS
 10
51.9252306051
 20
222.3897616248
  0
VERTEX
  8
0
 62
7
  6
CONTINUOUS
 10
51.9222200884
 20
222.4158003813
  0
VERTEX
  8
0
 62
7
  6
CONTINUOUS
 10
51.9194869369
 20
222.4414517632
  0
VERTEX
  8
0
 62
7
  6
CONTINUOUS
 10
51.9170375425
 20
222.466641843
  0
VERTEX
  8
0
 62
7
  6
CONTINUOUS
 10
51.9148796355
 20
222.4912985648
  0
VERTEX
  8
0
 62
7
  6
CONTINUOUS
 10
51.9130178192
 20
222.5153508125
  0
VERTEX
  8
0
 62
7
  6
CONTINUOUS
 10
51.9114581888
 20
222.5387300168
  0
VERTEX
  8
0
 62
7
  6
CONTINUOUS
 10
51.9102035543
 20
222.5613691603
  0
VERTEX
  8
0
 62
7
  6
CONTINUOUS
 10
51.9092582682
 20
222.583204075
  0
VERTEX
  8
0
 62
7
  6
CONTINUOUS
 10
51.9086233301
 20
222.6041726984
  0
VERTEX
  8
0
 62
7
  6
CONTINUOUS
 10
51.908301273
 20
222.624216085
  0
VERTEX
  8
0
 62
7
  6
CONTINUOUS
 10
51.9082913056
 20
222.6432779076
  0
VERTEX
  8
0
 62
7
  6
CONTINUOUS
 10
51.9085940965
 20
222.6613051798
  0
VERTEX
  8
0
 62
7
  6
CONTINUOUS
 10
51.9092071191
 20
222.678247937
  0
VERTEX
  8
0
 62
7
  6
CONTINUOUS
 10
51.9101291691
 20
222.6940597389
  0
VERTEX
  8
0
 62
7
  6
CONTINUOUS
 10
51.9113560676
 20
222.7086974716
  0
VERTEX
  8
0
 62
7
  6
CONTINUOUS
 10
51.9128847617
 20
222.7221216823
  0
VERTEX
  8
0
 62
7
  6
CONTINUOUS
 10
51.9147095226
 20
222.7342964506
  0
VERTEX
  8
0
 62
7
  6
CONTINUOUS
 10
51.9168255044
 20
222.7451896103
  0
VERTEX
  8
0
 62
7
  6
CONTINUOUS
 10
51.919225531
 20
222.7547726341
  0
VERTEX
  8
0
 62
7
  6
CONTINUOUS
 10
51.9219030591
 20
222.7630208039
  0
VERTEX
  8
0
 62
7
  6
CONTINUOUS
 10
51.9248494848
 20
222.7699130808
  0
VERTEX
  8
0
 62
7
  6
CONTINUOUS
 10
51.9280560629
 20
222.7754321803
  0
VERTEX
  8
0
 62
7
  6
CONTINUOUS
 10
51.9315143852
 20
222.7795647503
  0
VERTEX
  8
0
 62
7
  6
CONTINUOUS
 10
51.9352089326
 20
222.7823002098
  0
VERTEX
  8
0
 62
7
  6
CONTINUOUS
 10
51.9391494997
 20
222.7836356738
  0
SEQEND
  0
LINE
  8
DEFAULT_3
 62
2
  6
PHANTOM
 10
86.821304153
 20
221.8964284104
 11
81.2735754635
 21
216.3486997209
  0
LINE
  8
DEFAULT_3
 62
2
  6
PHANTOM
 10
86.821304153
 20
185.8016867737
 11
81.2735754635
 21
191.3494154631
  0
LINE
  8
DEFAULT_3
 62
2
  6
PHANTOM
 10
75.1689797169
 20
199.7167529096
 11
79.411620404
 21
195.4741122225
  0
LINE
  8
DEFAULT_3
 62
2
  6
PHANTOM
 10
95.1886415994
 20
179.697091027
 11
90.9460009123
 21
183.9397317142
  0
LINE
  8
2_FEATURE
 62
7
  6
CONTINUOUS
 10
89.6079262019
 20
257.5039946592
 11
89.1564275316
 21
254.8059449942
  0
LINE
  8
0
 62
7
  6
CONTINUOUS
 10
72.3411410856
 20
159.4417166818
 11
71.8426237214
 21
156.7519576811
  0
LINE
  8
DEFAULT_3
 62
2
  6
PHANTOM
 10
79.411620404
 20
212.2240029616
 11
75.1689797169
 21
207.9813622745
  0
LINE
  8
DEFAULT_3
 62
2
  6
PHANTOM
 10
90.9460009123
 20
223.7583834699
 11
95.1886415994
 21
228.001024157
  0
LINE
  8
0
 62
7
  6
CONTINUOUS
 10
126.369069969
 20
251.1945329383
 11
124.2889290265
 21
249.4179247363
  0
LINE
  8
0
 62
7
  6
CONTINUOUS
 10
50.1087279186
 20
187.173345346
 11
47.9978977033
 21
185.4333111951
  0
LINE
  8
0
 62
7
  6
CONTINUOUS
 10
47.373158341
 20
202.6875313581
 11
44.7945000342
 21
203.6006821567
  0
LINE
  8
0
 62
7
  6
CONTINUOUS
 10
140.9309747805
 20
168.6098669217
 11
138.3686458948
 21
169.5678824359
  0
LINE
  8
0
 62
7
  6
CONTINUOUS
 10
57.3916124784
 20
238.7077150182
 11
58.7800173259
 21
236.350671314
  0
LINE
  8
0
 62
7
  6
CONTINUOUS
 10
107.1977049511
 20
152.4887763621
 11
108.5447622531
 21
150.1078606414
  0
LINE
  8
1_AXIS
 62
2
  6
CONTINUOUS
 10
99.3209462819
 20
204.729057592
 11
99.3209462819
 21
202.969057592
  0
LINE
  8
0
 62
2
  6
CONTINUOUS
 10
99.3209462819
 20
204.729057592
 11
99.3209462819
 21
202.969057592
  0
LINE
  8
1_AXIS
 62
2
  6
CENTER
 10
99.3209462819
 20
199.449057592
 11
99.3209462819
 21
188.134057592
  0
LINE
  8
DEFAULT_1
 62
2
  6
CENTER
 10
99.3209462819
 20
199.449057592
 11
99.3209462819
 21
154.989057592
  0
LINE
  8
1_AXIS
 62
2
  6
CENTER
 10
99.3209462819
 20
208.249057592
 11
99.3209462819
 21
219.564057592
  0
LINE
  8
DEFAULT_1
 62
2
  6
CENTER
 10
99.3209462819
 20
208.249057592
 11
99.3209462819
 21
252.709057592
  0
LINE
  8
0
 62
7
  6
CONTINUOUS
 10
96.8752954771
 20
155.7307211728
 11
96.8750024008
 21
155.7143082207
  0
LINE
  8
0
 62
7
  6
CONTINUOUS
 10
96.8750024008
 20
155.7143082207
 11
96.8749462819
 21
155.7111610447
  0
POLYLINE
  8
0
 62
7
  6
CONTINUOUS
 66
1
 70
0
  0
VERTEX
  8
0
 62
7
  6
CONTINUOUS
 10
96.8758333605
 20
155.7607201328
  0
VERTEX
  8
0
 62
7
  6
CONTINUOUS
 10
96.875627459
 20
155.7492557839
  0
VERTEX
  8
0
 62
7
  6
CONTINUOUS
 10
96.8752954771
 20
155.7307211728
  0
SEQEND
  0
POLYLINE
  8
0
 62
7
  6
CONTINUOUS
 66
1
 70
0
  0
VERTEX
  8
0
 62
7
  6
CONTINUOUS
 10
96.876909777
 20
155.8203290094
  0
VERTEX
  8
0
 62
7
  6
CONTINUOUS
 10
96.8766039567
 20
155.8034539693
  0
VERTEX
  8
0
 62
7
  6
CONTINUOUS
 10
96.8763222156
 20
155.7878620518
  0
VERTEX
  8
0
 62
7
  6
CONTINUOUS
 10
96.8758333605
 20
155.7607201328
  0
SEQEND
  0
POLYLINE
  8
0
 62
7
  6
CONTINUOUS
 66
1
 70
0
  0
VERTEX
  8
0
 62
7
  6
CONTINUOUS
 10
96.8779627368
 20
155.878101649
  0
VERTEX
  8
0
 62
7
  6
CONTINUOUS
 10
96.8775900494
 20
155.8577117658
  0
VERTEX
  8
0
 62
7
  6
CONTINUOUS
 10
96.876909777
 20
155.8203290094
  0
SEQEND
  0
POLYLINE
  8
0
 62
7
  6
CONTINUOUS
 66
1
 70
0
  0
VERTEX
  8
0
 62
7
  6
CONTINUOUS
 10
96.8791992118
 20
155.9452851195
  0
VERTEX
  8
0
 62
7
  6
CONTINUOUS
 10
96.8787684173
 20
155.9219573929
  0
VERTEX
  8
0
 62
7
  6
CONTINUOUS
 10
96.8779627368
 20
155.878101649
  0
SEQEND
  0
LINE
  8
0
 62
7
  6
CONTINUOUS
 10
96.8801106297
 20
155.9943732572
 11
96.8791992118
 21
155.9452851195
  0
POLYLINE
  8
0
 62
7
  6
CONTINUOUS
 66
1
 70
0
  0
VERTEX
  8
0
 62
7
  6
CONTINUOUS
 10
96.8815827269
 20
156.0729120045
  0
VERTEX
  8
0
 62
7
  6
CONTINUOUS
 10
96.8810798925
 20
156.0461862233
  0
VERTEX
  8
0
 62
7
  6
CONTINUOUS
 10
96.8801106297
 20
155.9943732572
  0
SEQEND
  0
LINE
  8
0
 62
7
  6
CONTINUOUS
 10
96.8826174234
 20
156.1275821039
 11
96.8815827269
 21
156.0729120045
  0
POLYLINE
  8
0
 62
7
  6
CONTINUOUS
 66
1
 70
0
  0
VERTEX
  8
0
 62
7
  6
CONTINUOUS
 10
96.8842182441
 20
156.2113377004
  0
VERTEX
  8
0
 62
7
  6
CONTINUOUS
 10
96.8836817165
 20
156.1833022657
  0
VERTEX
  8
0
 62
7
  6
CONTINUOUS
 10
96.8826174234
 20
156.1275821039
  0
SEQEND
  0
LINE
  8
0
 62
7
  6
CONTINUOUS
 10
113.3242307109
 20
249.447281518
 11
113.4865884079
 21
249.9204650283
  0
LINE
  8
0
 62
7
  6
CONTINUOUS
 10
66.5175986236
 20
168.5603074003
 11
66.5068240722
 21
168.5479227358
  0
LINE
  8
0
 62
7
  6
CONTINUOUS
 10
66.5068240722
 20
168.5479227358
 11
66.504758117
 21
168.5455479318
  0
POLYLINE
  8
0
 62
7
  6
CONTINUOUS
 66
1
 70
0
  0
VERTEX
  8
0
 62
7
  6
CONTINUOUS
 10
66.5372936254
 20
168.5829421915
  0
VERTEX
  8
0
 62
7
  6
CONTINUOUS
 10
66.5297667545
 20
168.5742923419
  0
VERTEX
  8
0
 62
7
  6
CONTINUOUS
 10
66.5175986236
 20
168.5603074003
  0
SEQEND
  0
POLYLINE
  8
0
 62
7
  6
CONTINUOUS
 66
1
 70
0
  0
VERTEX
  8
0
 62
7
  6
CONTINUOUS
 10
66.5764340549
 20
168.6279133322
  0
VERTEX
  8
0
 62
7
  6
CONTINUOUS
 10
66.5653527164
 20
168.6151828792
  0
VERTEX
  8
0
 62
7
  6
CONTINUOUS
 10
66.555114599
 20
168.6034198773
  0
VERTEX
  8
0
 62
7
  6
CONTINUOUS
 10
66.5372936254
 20
168.5829421915
  0
SEQEND
  0
POLYLINE
  8
0
 62
7
  6
CONTINUOUS
 66
1
 70
0
  0
VERTEX
  8
0
 62
7
  6
CONTINUOUS
 10
66.6143762054
 20
168.6714929118
  0
VERTEX
  8
0
 62
7
  6
CONTINUOUS
 10
66.6009843461
 20
168.6561129139
  0
VERTEX
  8
0
 62
7
  6
CONTINUOUS
 10
66.5764340549
 20
168.6279133322
  0
SEQEND
  0
POLYLINE
  8
0
 62
7
  6
CONTINUOUS
 66
1
 70
0
  0
VERTEX
  8
0
 62
7
  6
CONTINUOUS
 10
66.6585081026
 20
168.7221636451
  0
VERTEX
  8
0
 62
7
  6
CONTINUOUS
 10
66.6431833212
 20
168.7045704791
  0
VERTEX
  8
0
 62
7
  6
CONTINUOUS
 10
66.6143762054
 20
168.6714929118
  0
SEQEND
  0
LINE
  8
0
 62
7
  6
CONTINUOUS
 10
66.690759536
 20
168.7591814923
 11
66.6585081026
 21
168.7221636451
  0
POLYLINE
  8
0
 62
7
  6
CONTINUOUS
 66
1
 70
0
  0
VERTEX
  8
0
 62
7
  6
CONTINUOUS
 10
66.7423709621
 20
168.818399418
  0
VERTEX
  8
0
 62
7
  6
CONTINUOUS
 10
66.7248067673
 20
168.7982494973
  0
VERTEX
  8
0
 62
7
  6
CONTINUOUS
 10
66.690759536
 20
168.7591814923
  0
SEQEND
  0
LINE
  8
0
 62
7
  6
CONTINUOUS
 10
66.7783048486
 20
168.8596140543
 11
66.7423709621
 21
168.818399418
  0
POLYLINE
  8
0
 62
7
  6
CONTINUOUS
 66
1
 70
0
  0
VERTEX
  8
0
 62
7
  6
CONTINUOUS
 10
66.8333682091
 20
168.9227455771
  0
VERTEX
  8
0
 62
7
  6
CONTINUOUS
 10
66.8149363746
 20
168.901614061
  0
VERTEX
  8
0
 62
7
  6
CONTINUOUS
 10
66.7783048486
 20
168.8596140543
  0
SEQEND
  0
LINE
  8
0
 62
7
  6
CONTINUOUS
 10
139.7758322765
 20
230.0298358551
 11
139.7805264401
 21
230.0326588599
  0
POLYLINE
  8
0
 62
7
  6
CONTINUOUS
 66
1
 70
0
  0
VERTEX
  8
0
 62
7
  6
CONTINUOUS
 10
139.3580578675
 20
229.7781859207
  0
VERTEX
  8
0
 62
7
  6
CONTINUOUS
 10
139.7625165603
 20
230.0218271485
  0
VERTEX
  8
0
 62
7
  6
CONTINUOUS
 10
139.7758322765
 20
230.0298358551
  0
SEQEND
  0
LINE
  8
0
 62
7
  6
CONTINUOUS
 10
139.7805264401
 20
230.0326588599
 11
139.7865875766
 21
230.0363040033
  0
LINE
  8
0
 62
7
  6
CONTINUOUS
 10
52.3514349046
 20
193.083559358
 11
52.346058309
 21
193.0825120996
  0
POLYLINE
  8
0
 62
7
  6
CONTINUOUS
 66
1
 70
0
  0
VERTEX
  8
0
 62
7
  6
CONTINUOUS
 10
52.83008378
 20
193.177145681
  0
VERTEX
  8
0
 62
7
  6
CONTINUOUS
 10
52.3666867244
 20
193.0865308375
  0
VERTEX
  8
0
 62
7
  6
CONTINUOUS
 10
52.3514349046
 20
193.083559358
  0
SEQEND
  0
LINE
  8
0
 62
7
  6
CONTINUOUS
 10
52.346058309
 20
193.0825120996
 11
52.339115991
 21
193.081159816
  0
LINE
  8
1_AXIS
 62
2
  6
CONTINUOUS
 10
100.2009462819
 20
203.849057592
 11
98.4409462819
 21
203.849057592
  0
LINE
  8
0
 62
2
  6
CONTINUOUS
 10
100.2009462819
 20
203.849057592
 11
98.4409462819
 21
203.849057592
  0
LINE
  8
1_AXIS
 62
2
  6
CENTER
 10
94.9209462819
 20
203.849057592
 11
83.6059462819
 21
203.849057592
  0
LINE
  8
DEFAULT_1
 62
2
  6
CENTER
 10
94.9209462819
 20
203.849057592
 11
50.4609462819
 21
203.849057592
  0
LINE
  8
1_AXIS
 62
2
  6
CENTER
 10
103.7209462819
 20
203.849057592
 11
115.0359462819
 21
203.849057592
  0
LINE
  8
DEFAULT_1
 62
2
  6
CENTER
 10
103.7209462819
 20
203.849057592
 11
148.1809462819
 21
203.849057592
  0
LINE
  8
0
 62
7
  6
CONTINUOUS
 10
146.2835742441
 20
193.0849002868
 11
146.2996869545
 21
193.0817615837
  0
LINE
  8
0
 62
7
  6
CONTINUOUS
 10
146.2996869545
 20
193.0817615837
 11
146.3027765728
 21
193.081159816
  0
POLYLINE
  8
0
 62
7
  6
CONTINUOUS
 66
1
 70
0
  0
VERTEX
  8
0
 62
7
  6
CONTINUOUS
 10
146.2541244382
 20
193.0906392633
  0
VERTEX
  8
0
 62
7
  6
CONTINUOUS
 10
146.2653788635
 20
193.0884457266
  0
VERTEX
  8
0
 62
7
  6
CONTINUOUS
 10
146.2835742441
 20
193.0849002868
  0
SEQEND
  0
POLYLINE
  8
0
 62
7
  6
CONTINUOUS
 66
1
 70
0
  0
VERTEX
  8
0
 62
7
  6
CONTINUOUS
 10
146.1956080721
 20
193.1020502994
  0
VERTEX
  8
0
 62
7
  6
CONTINUOUS
 10
146.2121736373
 20
193.0988188052
  0
VERTEX
  8
0
 62
7
  6
CONTINUOUS
 10
146.2274797548
 20
193.0958338363
  0
VERTEX
  8
0
 62
7
  6
CONTINUOUS
 10
146.2541244382
 20
193.0906392633
  0
SEQEND
  0
POLYLINE
  8
0
 62
7
  6
CONTINUOUS
 66
1
 70
0
  0
VERTEX
  8
0
 62
7
  6
CONTINUOUS
 10
146.1388959733
 20
193.1131193759
  0
VERTEX
  8
0
 62
7
  6
CONTINUOUS
 10
146.1589113719
 20
193.1092116844
  0
VERTEX
  8
0
 62
7
  6
CONTINUOUS
 10
146.1956080721
 20
193.1020502994
  0
SEQEND
  0
POLYLINE
  8
0
 62
7
  6
CONTINUOUS
 66
1
 70
0
  0
VERTEX
  8
0
 62
7
  6
CONTINUOUS
 10
146.0729478823
 20
193.1260033533
  0
VERTEX
  8
0
 62
7
  6
CONTINUOUS
 10
146.0958464016
 20
193.1215282864
  0
VERTEX
  8
0
 62
7
  6
CONTINUOUS
 10
146.1388959733
 20
193.1131193759
  0
SEQEND
  0
LINE
  8
0
 62
7
  6
CONTINUOUS
 10
146.0247637698
 20
193.1354249904
 11
146.0729478823
 21
193.1260033533
  0
POLYLINE
  8
0
 62
7
  6
CONTINUOUS
 66
1
 70
0
  0
VERTEX
  8
0
 62
7
  6
CONTINUOUS
 10
145.9476738295
 20
193.1505128335
  0
VERTEX
  8
0
 62
7
  6
CONTINUOUS
 10
145.9739062698
 20
193.145376755
  0
VERTEX
  8
0
 62
7
  6
CONTINUOUS
 10
146.0247637698
 20
193.1354249904
  0
SEQEND
  0
LINE
  8
0
 62
7
  6
CONTINUOUS
 10
145.894013965
 20
193.1610251737
 11
145.9476738295
 21
193.1505128335
  0
POLYLINE
  8
0
 62
7
  6
CONTINUOUS
 66
1
 70
0
  0
VERTEX
  8
0
 62
7
  6
CONTINUOUS
 10
145.8118087837
 20
193.177145681
  0
VERTEX
  8
0
 62
7
  6
CONTINUOUS
 10
145.8393251301
 20
193.1717490023
  0
VERTEX
  8
0
 62
7
  6
CONTINUOUS
 10
145.894013965
 20
193.1610251737
  0
SEQEND
  0
LINE
  8
0
 62
7
  6
CONTINUOUS
 10
56.4202842179
 20
225.793627439
 11
56.4154923422
 21
225.7962812015
  0
POLYLINE
  8
0
 62
7
  6
CONTINUOUS
 66
1
 70
0
  0
VERTEX
  8
0
 62
7
  6
CONTINUOUS
 10
56.8471066585
 20
225.557649155
  0
VERTEX
  8
0
 62
7
  6
CONTINUOUS
 10
56.4338778194
 20
225.7861000439
  0
VERTEX
  8
0
 62
7
  6
CONTINUOUS
 10
56.4202842179
 20
225.793627439
  0
SEQEND
  0
LINE
  8
0
 62
7
  6
CONTINUOUS
 10
56.4154923422
 20
225.7962812015
 11
56.4093049872
 21
225.799707728
  0
LINE
  8
0
 62
7
  6
CONTINUOUS
 10
128.3773395225
 20
165.4162393305
 11
128.387665055
 21
165.4034778943
  0
LINE
  8
0
 62
7
  6
CONTINUOUS
 10
128.387665055
 20
165.4034778943
 11
128.389645031
 21
165.4010309452
  0
POLYLINE
  8
0
 62
7
  6
CONTINUOUS
 66
1
 70
0
  0
VERTEX
  8
0
 62
7
  6
CONTINUOUS
 10
128.3584686059
 20
165.4395656112
  0
VERTEX
  8
0
 62
7
  6
CONTINUOUS
 10
128.3656800174
 20
165.4306510597
  0
VERTEX
  8
0
 62
7
  6
CONTINUOUS
 10
128.3773395225
 20
165.4162393305
  0
SEQEND
  0
POLYLINE
  8
0
 62
7
  6
CONTINUOUS
 66
1
 70
0
  0
VERTEX
  8
0
 62
7
  6
CONTINUOUS
 10
128.3209773421
 20
165.4859205662
  0
VERTEX
  8
0
 62
7
  6
CONTINUOUS
 10
128.3315901367
 20
165.4727969582
  0
VERTEX
  8
0
 62
7
  6
CONTINUOUS
 10
128.3413966018
 20
165.4606717569
  0
VERTEX
  8
0
 62
7
  6
CONTINUOUS
 10
128.3584686059
 20
165.4395656112
  0
SEQEND
  0
POLYLINE
  8
0
 62
7
  6
CONTINUOUS
 66
1
 70
0
  0
VERTEX
  8
0
 62
7
  6
CONTINUOUS
 10
128.2846484196
 20
165.5308538048
  0
VERTEX
  8
0
 62
7
  6
CONTINUOUS
 10
128.2974692887
 20
165.5149946893
  0
VERTEX
  8
0
 62
7
  6
CONTINUOUS
 10
128.3209773421
 20
165.4859205662
  0
SEQEND
  0
POLYLINE
  8
0
 62
7
  6
CONTINUOUS
 66
1
 70
0
  0
VERTEX
  8
0
 62
7
  6
CONTINUOUS
 10
128.242410912
 20
165.5831141198
  0
VERTEX
  8
0
 62
7
  6
CONTINUOUS
 10
128.2570756779
 20
165.5649671351
  0
VERTEX
  8
0
 62
7
  6
CONTINUOUS
 10
128.2846484196
 20
165.5308538048
  0
SEQEND
  0
LINE
  8
0
 62
7
  6
CONTINUOUS
 10
128.2115558518
 20
165.6213036632
 11
128.242410912
 21
165.5831141198
  0
POLYLINE
  8
0
 62
7
  6
CONTINUOUS
 66
1
 70
0
  0
VERTEX
  8
0
 62
7
  6
CONTINUOUS
 10
128.1621998096
 20
165.6824140806
  0
VERTEX
  8
0
 62
7
  6
CONTINUOUS
 10
128.1789936173
 20
165.6616177284
  0
VERTEX
  8
0
 62
7
  6
CONTINUOUS
 10
128.2115558518
 20
165.6213036632
  0
SEQEND
  0
LINE
  8
0
 62
7
  6
CONTINUOUS
 10
128.1278511701
 20
165.7249588971
 11
128.1621998096
 21
165.6824140806
  0
POLYLINE
  8
0
 62
7
  6
CONTINUOUS
 66
1
 70
0
  0
VERTEX
  8
0
 62
7
  6
CONTINUOUS
 10
128.0752404092
 20
165.7901483953
  0
VERTEX
  8
0
 62
7
  6
CONTINUOUS
 10
128.0928502356
 20
165.7683271326
  0
VERTEX
  8
0
 62
7
  6
CONTINUOUS
 10
128.1278511701
 20
165.7249588971
  0
SEQEND
  0
LINE
  8
2_FEATURE
 62
7
  6
CONTINUOUS
 10
80.7381111409
 20
247.7804613725
 11
80.5583278549
 21
248.2473024871
  0
LINE
  8
0
 62
7
  6
CONTINUOUS
 10
101.7576743197
 20
156.2113377004
 11
101.7587464113
 21
156.1553545034
  0
POLYLINE
  8
0
 62
7
  6
CONTINUOUS
 66
1
 70
0
  0
VERTEX
  8
0
 62
7
  6
CONTINUOUS
 10
101.7587464113
 20
156.1553545034
  0
VERTEX
  8
0
 62
7
  6
CONTINUOUS
 10
101.759796801
 20
156.1000724378
  0
VERTEX
  8
0
 62
7
  6
CONTINUOUS
 10
101.7603098324
 20
156.0729120039
  0
SEQEND
  0
LINE
  8
0
 62
7
  6
CONTINUOUS
 10
101.7603098324
 20
156.0729120039
 11
101.7613038506
 21
156.0199791564
  0
POLYLINE
  8
0
 62
7
  6
CONTINUOUS
 66
1
 70
0
  0
VERTEX
  8
0
 62
7
  6
CONTINUOUS
 10
101.7613038506
 20
156.0199791564
  0
VERTEX
  8
0
 62
7
  6
CONTINUOUS
 10
101.7622455288
 20
155.9694490959
  0
VERTEX
  8
0
 62
7
  6
CONTINUOUS
 10
101.7626933519
 20
155.9452851195
  0
SEQEND
  0
POLYLINE
  8
0
 62
7
  6
CONTINUOUS
 66
1
 70
0
  0
VERTEX
  8
0
 62
7
  6
CONTINUOUS
 10
101.7626933519
 20
155.9452851195
  0
VERTEX
  8
0
 62
7
  6
CONTINUOUS
 10
101.7635366354
 20
155.8995393673
  0
VERTEX
  8
0
 62
7
  6
CONTINUOUS
 10
101.763929757
 20
155.8781016475
  0
SEQEND
  0
POLYLINE
  8
0
 62
7
  6
CONTINUOUS
 66
1
 70
0
  0
VERTEX
  8
0
 62
7
  6
CONTINUOUS
 10
101.763929757
 20
155.8781016475
  0
VERTEX
  8
0
 62
7
  6
CONTINUOUS
 10
101.7646537795
 20
155.8384339674
  0
VERTEX
  8
0
 62
7
  6
CONTINUOUS
 10
101.7649827868
 20
155.8203290094
  0
SEQEND
  0
POLYLINE
  8
0
 62
7
  6
CONTINUOUS
 66
1
 70
0
  0
VERTEX
  8
0
 62
7
  6
CONTINUOUS
 10
101.7649827868
 20
155.8203290094
  0
VERTEX
  8
0
 62
7
  6
CONTINUOUS
 10
101.7655703481
 20
155.7878620518
  0
VERTEX
  8
0
 62
7
  6
CONTINUOUS
 10
101.7658273844
 20
155.7736024443
  0
VERTEX
  8
0
 62
7
  6
CONTINUOUS
 10
101.7660592032
 20
155.7607201328
  0
SEQEND
  0
LINE
  8
0
 62
7
  6
CONTINUOUS
 10
101.7660592032
 20
155.7607201328
 11
101.7664444659
 21
155.7392455848
  0
LINE
  8
0
 62
7
  6
CONTINUOUS
 10
101.7664444659
 20
155.7392455848
 11
101.7667223512
 21
155.7237094825
  0
LINE
  8
0
 62
7
  6
CONTINUOUS
 10
101.7667223512
 20
155.7237094825
 11
101.7669462819
 21
155.7111610447
  0
LINE
  8
0
 62
7
  6
CONTINUOUS
 10
118.0810275827
 20
248.2407004094
 11
118.0835647088
 21
248.2473024871
  0
POLYLINE
  8
0
 62
7
  6
CONTINUOUS
 66
1
 70
0
  0
VERTEX
  8
0
 62
7
  6
CONTINUOUS
 10
117.9037814229
 20
247.7804613725
  0
VERTEX
  8
0
 62
7
  6
CONTINUOUS
 10
117.9138742775
 20
247.8066225609
  0
VERTEX
  8
0
 62
7
  6
CONTINUOUS
 10
118.0810275827
 20
248.2407004094
  0
SEQEND
  0
LINE
  8
0
 62
7
  6
CONTINUOUS
 10
70.5666521546
 20
165.7901483953
 11
70.5314881184
 21
165.7465736503
  0
POLYLINE
  8
0
 62
7
  6
CONTINUOUS
 66
1
 70
0
  0
VERTEX
  8
0
 62
7
  6
CONTINUOUS
 10
70.5314881184
 20
165.7465736503
  0
VERTEX
  8
0
 62
7
  6
CONTINUOUS
 10
70.4967581361
 20
165.7035499529
  0
VERTEX
  8
0
 62
7
  6
CONTINUOUS
 10
70.4796927503
 20
165.682414083
  0
SEQEND
  0
LINE
  8
0
 62
7
  6
CONTINUOUS
 10
70.4796927503
 20
165.682414083
 11
70.4464296336
 21
165.6412262262
  0
POLYLINE
  8
0
 62
7
  6
CONTINUOUS
 66
1
 70
0
  0
VERTEX
  8
0
 62
7
  6
CONTINUOUS
 10
70.4464296336
 20
165.6412262262
  0
VERTEX
  8
0
 62
7
  6
CONTINUOUS
 10
70.414670904
 20
165.6019126548
  0
VERTEX
  8
0
 62
7
  6
CONTINUOUS
 10
70.3994816517
 20
165.5831141198
  0
SEQEND
  0
POLYLINE
  8
0
 62
7
  6
CONTINUOUS
 66
1
 70
0
  0
VERTEX
  8
0
 62
7
  6
CONTINUOUS
 10
70.3994816517
 20
165.5831141198
  0
VERTEX
  8
0
 62
7
  6
CONTINUOUS
 10
70.3707228417
 20
165.5475287884
  0
VERTEX
  8
0
 62
7
  6
CONTINUOUS
 10
70.3572440896
 20
165.5308538486
  0
SEQEND
  0
POLYLINE
  8
0
 62
7
  6
CONTINUOUS
 66
1
 70
0
  0
VERTEX
  8
0
 62
7
  6
CONTINUOUS
 10
70.3572440896
 20
165.5308538486
  0
VERTEX
  8
0
 62
7
  6
CONTINUOUS
 10
70.3323008299
 20
165.5000012503
  0
VERTEX
  8
0
 62
7
  6
CONTINUOUS
 10
70.3209152216
 20
165.4859205662
  0
SEQEND
  0
POLYLINE
  8
0
 62
7
  6
CONTINUOUS
 66
1
 70
0
  0
VERTEX
  8
0
 62
7
  6
CONTINUOUS
 10
70.3209152216
 20
165.4859205662
  0
VERTEX
  8
0
 62
7
  6
CONTINUOUS
 10
70.300495962
 20
165.4606717569
  0
VERTEX
  8
0
 62
7
  6
CONTINUOUS
 10
70.2915269644
 20
165.4495830443
  0
VERTEX
  8
0
 62
7
  6
CONTINUOUS
 10
70.2834239579
 20
165.4395656112
  0
SEQEND
  0
LINE
  8
0
 62
7
  6
CONTINUOUS
 10
70.2834239579
 20
165.4395656112
 11
70.2699155132
 21
165.4228675114
  0
LINE
  8
0
 62
7
  6
CONTINUOUS
 10
70.2699155132
 20
165.4228675114
 11
70.2601419719
 21
165.4107875457
  0
LINE
  8
0
 62
7
  6
CONTINUOUS
 10
70.2601419719
 20
165.4107875457
 11
70.2522475328
 21
165.4010309452
  0
LINE
  8
0
 62
7
  6
CONTINUOUS
 10
142.2264002915
 20
225.7962810763
 11
142.2325875766
 21
225.799707728
  0
POLYLINE
  8
0
 62
7
  6
CONTINUOUS
 66
1
 70
0
  0
VERTEX
  8
0
 62
7
  6
CONTINUOUS
 10
141.7947859053
 20
225.557649155
  0
VERTEX
  8
0
 62
7
  6
CONTINUOUS
 10
141.8193335683
 20
225.5712022261
  0
VERTEX
  8
0
 62
7
  6
CONTINUOUS
 10
142.2264002915
 20
225.7962810763
  0
SEQEND
  0
LINE
  8
0
 62
7
  6
CONTINUOUS
 10
51.4966152362
 20
197.899943167
 11
51.4896291058
 21
197.8988393437
  0
POLYLINE
  8
0
 62
7
  6
CONTINUOUS
 66
1
 70
0
  0
VERTEX
  8
0
 62
7
  6
CONTINUOUS
 10
51.9838170136
 20
197.9765630083
  0
VERTEX
  8
0
 62
7
  6
CONTINUOUS
 10
51.9561143331
 20
197.9722230827
  0
VERTEX
  8
0
 62
7
  6
CONTINUOUS
 10
51.4966152362
 20
197.899943167
  0
SEQEND
  0
LINE
  8
0
 62
7
  6
CONTINUOUS
 10
146.6580755502
 20
197.9765630083
 11
146.7133944034
 21
197.9678974323
  0
POLYLINE
  8
0
 62
7
  6
CONTINUOUS
 66
1
 70
0
  0
VERTEX
  8
0
 62
7
  6
CONTINUOUS
 10
146.7133944034
 20
197.9678974323
  0
VERTEX
  8
0
 62
7
  6
CONTINUOUS
 10
146.7680190085
 20
197.9593322342
  0
VERTEX
  8
0
 62
7
  6
CONTINUOUS
 10
146.7948559014
 20
197.9551211116
  0
SEQEND
  0
LINE
  8
0
 62
7
  6
CONTINUOUS
 10
146.7948559014
 20
197.9551211116
 11
146.8471571894
 21
197.946908336
  0
POLYLINE
  8
0
 62
7
  6
CONTINUOUS
 66
1
 70
0
  0
VERTEX
  8
0
 62
7
  6
CONTINUOUS
 10
146.8471571894
 20
197.946908336
  0
VERTEX
  8
0
 62
7
  6
CONTINUOUS
 10
146.8970831054
 20
197.9390612551
  0
VERTEX
  8
0
 62
7
  6
CONTINUOUS
 10
146.9209577404
 20
197.9353062443
  0
SEQEND
  0
POLYLINE
  8
0
 62
7
  6
CONTINUOUS
 66
1
 70
0
  0
VERTEX
  8
0
 62
7
  6
CONTINUOUS
 10
146.9209577404
 20
197.9353062443
  0
VERTEX
  8
0
 62
7
  6
CONTINUOUS
 10
146.9661549465
 20
197.9281930499
  0
VERTEX
  8
0
 62
7
  6
CONTINUOUS
 10
146.987335244
 20
197.9248575781
  0
SEQEND
  0
POLYLINE
  8
0
 62
7
  6
CONTINUOUS
 66
1
 70
0
  0
VERTEX
  8
0
 62
7
  6
CONTINUOUS
 10
146.987335244
 20
197.9248575781
  0
VERTEX
  8
0
 62
7
  6
CONTINUOUS
 10
147.0265260081
 20
197.9186823807
  0
VERTEX
  8
0
 62
7
  6
CONTINUOUS
 10
147.0444130426
 20
197.9158624967
  0
SEQEND
  0
POLYLINE
  8
0
 62
7
  6
CONTINUOUS
 66
1
 70
0
  0
VERTEX
  8
0
 62
7
  6
CONTINUOUS
 10
147.0444130426
 20
197.9158624967
  0
VERTEX
  8
0
 62
7
  6
CONTINUOUS
 10
147.0764887831
 20
197.9108033036
  0
VERTEX
  8
0
 62
7
  6
CONTINUOUS
 10
147.090576389
 20
197.9085802801
  0
VERTEX
  8
0
 62
7
  6
CONTINUOUS
 10
147.1033032441
 20
197.9065715871
  0
SEQEND
  0
LINE
  8
0
 62
7
  6
CONTINUOUS
 10
147.1033032441
 20
197.9065715871
 11
147.1245184457
 21
197.9032219807
  0
LINE
  8
0
 62
7
  6
CONTINUOUS
 10
147.1245184457
 20
197.9032219807
 11
147.139866774
 21
197.9007978284
  0
LINE
  8
0
 62
7
  6
CONTINUOUS
 10
147.139866774
 20
197.9007978284
 11
147.1522634579
 21
197.8988393437
  0
LINE
  8
0
 62
7
  6
CONTINUOUS
 10
58.8613661972
 20
230.0326589831
 11
58.8553049872
 21
230.0363040033
  0
POLYLINE
  8
0
 62
7
  6
CONTINUOUS
 66
1
 70
0
  0
VERTEX
  8
0
 62
7
  6
CONTINUOUS
 10
59.2838346963
 20
229.7781859207
  0
VERTEX
  8
0
 62
7
  6
CONTINUOUS
 10
59.2598235609
 20
229.7926682849
  0
VERTEX
  8
0
 62
7
  6
CONTINUOUS
 10
58.8613661972
 20
230.0326589831
  0
SEQEND
  0
LINE
  8
0
 62
7
  6
CONTINUOUS
 10
131.8085243547
 20
168.9227455771
 11
131.8453309306
 21
168.8805490865
  0
POLYLINE
  8
0
 62
7
  6
CONTINUOUS
 66
1
 70
0
  0
VERTEX
  8
0
 62
7
  6
CONTINUOUS
 10
131.8453309306
 20
168.8805490865
  0
VERTEX
  8
0
 62
7
  6
CONTINUOUS
 10
131.8816702032
 20
168.8388757441
  0
VERTEX
  8
0
 62
7
  6
CONTINUOUS
 10
131.8995215987
 20
168.8183994146
  0
SEQEND
  0
LINE
  8
0
 62
7
  6
CONTINUOUS
 10
131.8995215987
 20
168.8183994146
 11
131.9343076397
 21
168.7784894431
  0
POLYLINE
  8
0
 62
7
  6
CONTINUOUS
 66
1
 70
0
  0
VERTEX
  8
0
 62
7
  6
CONTINUOUS
 10
131.9343076397
 20
168.7784894431
  0
VERTEX
  8
0
 62
7
  6
CONTINUOUS
 10
131.9675091041
 20
168.7403864699
  0
VERTEX
  8
0
 62
7
  6
CONTINUOUS
 10
131.9833844612
 20
168.7221636451
  0
SEQEND
  0
POLYLINE
  8
0
 62
7
  6
CONTINUOUS
 66
1
 70
0
  0
VERTEX
  8
0
 62
7
  6
CONTINUOUS
 10
131.9833844612
 20
168.7221636451
  0
VERTEX
  8
0
 62
7
  6
CONTINUOUS
 10
132.0134352565
 20
168.6876624181
  0
VERTEX
  8
0
 62
7
  6
CONTINUOUS
 10
132.0275163057
 20
168.6714928657
  0
SEQEND
  0
POLYLINE
  8
0
 62
7
  6
CONTINUOUS
 66
1
 70
0
  0
VERTEX
  8
0
 62
7
  6
CONTINUOUS
 10
132.0275163057
 20
168.6714928657
  0
VERTEX
  8
0
 62
7
  6
CONTINUOUS
 10
132.0535688322
 20
168.6415710527
  0
VERTEX
  8
0
 62
7
  6
CONTINUOUS
 10
132.0654585089
 20
168.6279133322
  0
SEQEND
  0
POLYLINE
  8
0
 62
7
  6
CONTINUOUS
 66
1
 70
0
  0
VERTEX
  8
0
 62
7
  6
CONTINUOUS
 10
132.0654585089
 20
168.6279133322
  0
VERTEX
  8
0
 62
7
  6
CONTINUOUS
 10
132.0867779648
 20
168.6034198773
  0
VERTEX
  8
0
 62
7
  6
CONTINUOUS
 10
132.0961407648
 20
168.5926616041
  0
VERTEX
  8
0
 62
7
  6
CONTINUOUS
 10
132.1045989383
 20
168.5829421915
  0
SEQEND
  0
LINE
  8
0
 62
7
  6
CONTINUOUS
 10
132.1045989383
 20
168.5829421915
 11
132.1186976397
 21
168.5667393759
  0
LINE
  8
0
 62
7
  6
CONTINUOUS
 10
132.1186976397
 20
168.5667393759
 11
132.1288969259
 21
168.5550166526
  0
LINE
  8
0
 62
7
  6
CONTINUOUS
 10
132.1288969259
 20
168.5550166526
 11
132.1371344467
 21
168.5455479318
  0
LINE
  8
2_FEATURE
 62
7
  6
CONTINUOUS
 10
85.1576043382
 20
249.9137767101
 11
85.1553041558
 21
249.9204650283
  0
POLYLINE
  8
2_FEATURE
 62
7
  6
CONTINUOUS
 66
1
 70
0
  0
VERTEX
  8
2_FEATURE
 62
7
  6
CONTINUOUS
 10
85.3176618528
 20
249.447281518
  0
VERTEX
  8
2_FEATURE
 62
7
  6
CONTINUOUS
 10
85.3085773403
 20
249.4738097129
  0
VERTEX
  8
2_FEATURE
 62
7
  6
CONTINUOUS
 10
85.1576043382
 20
249.9137767101
  0
SEQEND
  0
LINE
  8
0
 62
7
  6
CONTINUOUS
 10
91.4441876127
 20
152.4887763621
 11
90.0971303107
 21
150.1078606414
  0
LINE
  8
0
 62
7
  6
CONTINUOUS
 10
141.2502800853
 20
238.7077150182
 11
139.8618752379
 21
236.350671314
  0
LINE
  8
DEFAULT_3
 62
2
  6
PHANTOM
 10
107.6958916515
 20
183.9397317142
 11
103.4532509643
 21
179.697091027
  0
LINE
  8
DEFAULT_3
 62
2
  6
PHANTOM
 10
119.2302721598
 20
195.4741122225
 11
123.4729128469
 21
199.7167529096
  0
LINE
  8
0
 62
7
  6
CONTINUOUS
 10
60.2732466689
 20
169.5678824359
 11
57.7109177832
 21
168.6098669217
  0
LINE
  8
0
 62
7
  6
CONTINUOUS
 10
153.8473925296
 20
203.6006821567
 11
151.2687342228
 21
202.6875313581
  0
LINE
  8
0
 62
7
  6
CONTINUOUS
 10
150.4740960565
 20
222.7315971165
 11
147.7386339071
 21
222.7077251
  0
LINE
  8
0
 62
7
  6
CONTINUOUS
 10
50.9032586567
 20
222.7077251
 11
48.1677965073
 21
222.7315971165
  0
LINE
  8
0
 62
7
  6
CONTINUOUS
 10
150.6439948605
 20
185.4333111951
 11
148.5331646451
 21
187.173345346
  0
LINE
  8
2_FEATURE
 62
7
  6
CONTINUOUS
 10
72.2728225947
 20
251.1945329383
 11
74.3529635372
 21
249.4179247363
  0
LINE
  8
DEFAULT_3
 62
2
  6
PHANTOM
 10
103.4532509643
 20
228.001024157
 11
107.6958916515
 21
223.7583834699
  0
LINE
  8
DEFAULT_3
 62
2
  6
PHANTOM
 10
123.4729128469
 20
207.9813622745
 11
119.2302721598
 21
212.2240029616
  0
LINE
  8
DEFAULT_3
 62
2
  6
PHANTOM
 10
117.3683171002
 20
216.3486997209
 11
111.8205884108
 21
221.8964284104
  0
LINE
  8
0
 62
7
  6
CONTINUOUS
 10
126.3007514781
 20
159.4417166818
 11
126.7992688424
 21
156.7519576811
  0
LINE
  8
0
 62
7
  6
CONTINUOUS
 10
109.0339663618
 20
257.5039946592
 11
109.4854650322
 21
254.8059449942
  0
LINE
  8
DEFAULT_3
 62
2
  6
PHANTOM
 10
117.3683171002
 20
191.3494154631
 11
111.8205884108
 21
185.8016867737
  0
POLYLINE
  8
0
 62
7
  6
CONTINUOUS
 66
1
 70
0
  0
VERTEX
  8
0
 62
7
  6
CONTINUOUS
 10
146.7133831622
 20
222.3634111479
  0
VERTEX
  8
0
 62
7
  6
CONTINUOUS
 10
146.7124145221
 20
222.353701137
  0
VERTEX
  8
0
 62
7
  6
CONTINUOUS
 10
146.7121240025
 20
222.3435315528
  0
VERTEX
  8
0
 62
7
  6
CONTINUOUS
 10
146.7124869457
 20
222.3328711253
  0
VERTEX
  8
0
 62
7
  6
CONTINUOUS
 10
146.7135760664
 20
222.3218127092
  0
VERTEX
  8
0
 62
7
  6
CONTINUOUS
 10
146.7154525292
 20
222.3104262701
  0
VERTEX
  8
0
 62
7
  6
CONTINUOUS
 10
146.7181266059
 20
222.298748636
  0
VERTEX
  8
0
 62
7
  6
CONTINUOUS
 10
146.7216329771
 20
222.2868475918
  0
VERTEX
  8
0
 62
7
  6
CONTINUOUS
 10
146.7259598277
 20
222.2746997984
  0
SEQEND
  0
POLYLINE
  8
0
 62
7
  6
CONTINUOUS
 66
1
 70
0
  0
VERTEX
  8
0
 62
7
  6
CONTINUOUS
 10
146.7133831616
 20
222.3634111477
  0
VERTEX
  8
0
 62
7
  6
CONTINUOUS
 10
146.7166619588
 20
222.3897616254
  0
VERTEX
  8
0
 62
7
  6
CONTINUOUS
 10
146.7196724756
 20
222.4158003818
  0
VERTEX
  8
0
 62
7
  6
CONTINUOUS
 10
146.7224056272
 20
222.4414517637
  0
VERTEX
  8
0
 62
7
  6
CONTINUOUS
 10
146.7248550218
 20
222.4666418435
  0
VERTEX
  8
0
 62
7
  6
CONTINUOUS
 10
146.727012929
 20
222.4912985652
  0
VERTEX
  8
0
 62
7
  6
CONTINUOUS
 10
146.7288747454
 20
222.5153508129
  0
VERTEX
  8
0
 62
7
  6
CONTINUOUS
 10
146.730434376
 20
222.5387300171
  0
VERTEX
  8
0
 62
7
  6
CONTINUOUS
 10
146.7316890108
 20
222.5613691606
  0
VERTEX
  8
0
 62
7
  6
CONTINUOUS
 10
146.7326342972
 20
222.5832040753
  0
VERTEX
  8
0
 62
7
  6
CONTINUOUS
 10
146.7332692356
 20
222.6041726987
  0
VERTEX
  8
0
 62
7
  6
CONTINUOUS
 10
146.7335912931
 20
222.6242160851
  0
VERTEX
  8
0
 62
7
  6
CONTINUOUS
 10
146.733601261
 20
222.6432779077
  0
VERTEX
  8
0
 62
7
  6
CONTINUOUS
 10
146.7332984706
 20
222.6613051798
  0
VERTEX
  8
0
 62
7
  6
CONTINUOUS
 10
146.7326854488
 20
222.678247937
  0
VERTEX
  8
0
 62
7
  6
CONTINUOUS
 10
146.7317633996
 20
222.6940597387
  0
VERTEX
  8
0
 62
7
  6
CONTINUOUS
 10
146.7305365023
 20
222.7086974713
  0
VERTEX
  8
0
 62
7
  6
CONTINUOUS
 10
146.7290078095
 20
222.7221216818
  0
VERTEX
  8
0
 62
7
  6
CONTINUOUS
 10
146.7271830503
 20
222.7342964499
  0
VERTEX
  8
0
 62
7
  6
CONTINUOUS
 10
146.7250670707
 20
222.7451896093
  0
VERTEX
  8
0
 62
7
  6
CONTINUOUS
 10
146.7226670471
 20
222.7547726327
  0
VERTEX
  8
0
 62
7
  6
CONTINUOUS
 10
146.7199895226
 20
222.763020802
  0
VERTEX
  8
0
 62
7
  6
CONTINUOUS
 10
146.7170431039
 20
222.7699130779
  0
VERTEX
  8
0
 62
7
  6
CONTINUOUS
 10
146.7138365458
 20
222.7754321744
  0
VERTEX
  8
0
 62
7
  6
CONTINUOUS
 10
146.7103782351
 20
222.7795647425
  0
VERTEX
  8
0
 62
7
  6
CONTINUOUS
 10
146.7066836704
 20
222.782300204
  0
VERTEX
  8
0
 62
7
  6
CONTINUOUS
 10
146.7027430639
 20
222.7836356738
  0
SEQEND
  0
POLYLINE
  8
0
 62
7
  6
CONTINUOUS
 66
1
 70
0
  0
VERTEX
  8
0
 62
7
  6
CONTINUOUS
 10
137.5229876423
 20
170.2420881236
  0
VERTEX
  8
0
 62
7
  6
CONTINUOUS
 10
137.5170563096
 20
170.2162053595
  0
VERTEX
  8
0
 62
7
  6
CONTINUOUS
 10
137.5109794907
 20
170.1907072748
  0
VERTEX
  8
0
 62
7
  6
CONTINUOUS
 10
137.5047745236
 20
170.1656680676
  0
VERTEX
  8
0
 62
7
  6
CONTINUOUS
 10
137.4984606868
 20
170.1411593932
  0
VERTEX
  8
0
 62
7
  6
CONTINUOUS
 10
137.4920553606
 20
170.1172516061
  0
VERTEX
  8
0
 62
7
  6
CONTINUOUS
 10
137.4855785424
 20
170.0940131077
  0
VERTEX
  8
0
 62
7
  6
CONTINUOUS
 10
137.4790479567
 20
170.071510417
  0
VERTEX
  8
0
 62
7
  6
CONTINUOUS
 10
137.4724838844
 20
170.0498074706
  0
VERTEX
  8
0
 62
7
  6
CONTINUOUS
 10
137.4659041821
 20
170.0289660555
  0
VERTEX
  8
0
 62
7
  6
CONTINUOUS
 10
137.4593291372
 20
170.0090448332
  0
VERTEX
  8
0
 62
7
  6
CONTINUOUS
 10
137.4527765299
 20
169.9901000608
  0
VERTEX
  8
0
 62
7
  6
CONTINUOUS
 10
137.446266369
 20
169.9721843976
  0
VERTEX
  8
0
 62
7
  6
CONTINUOUS
 10
137.4398161483
 20
169.9553478636
  0
VERTEX
  8
0
 62
7
  6
CONTINUOUS
 10
137.4334453312
 20
169.9396365457
  0
VERTEX
  8
0
 62
7
  6
CONTINUOUS
 10
137.4271709329
 20
169.9250936719
  0
VERTEX
  8
0
 62
7
  6
CONTINUOUS
 10
137.4210116261
 20
169.9117583264
  0
VERTEX
  8
0
 62
7
  6
CONTINUOUS
 10
137.414983773
 20
169.8996665389
  0
VERTEX
  8
0
 62
7
  6
CONTINUOUS
 10
137.4091050427
 20
169.8888501039
  0
VERTEX
  8
0
 62
7
  6
CONTINUOUS
 10
137.4033909902
 20
169.8793375905
  0
VERTEX
  8
0
 62
7
  6
CONTINUOUS
 10
137.3978581156
 20
169.8711533512
  0
VERTEX
  8
0
 62
7
  6
CONTINUOUS
 10
137.392521022
 20
169.8643183755
  0
VERTEX
  8
0
 62
7
  6
CONTINUOUS
 10
137.38739499
 20
169.8588494906
  0
VERTEX
  8
0
 62
7
  6
CONTINUOUS
 10
137.382494149
 20
169.854759948
  0
VERTEX
  8
0
 62
7
  6
CONTINUOUS
 10
137.3778309669
 20
169.8520594182
  0
VERTEX
  8
0
 62
7
  6
CONTINUOUS
 10
137.3734236458
 20
169.8507525368
  0
VERTEX
  8
0
 62
7
  6
CONTINUOUS
 10
137.3692639683
 20
169.8508453645
  0
SEQEND
  0
POLYLINE
  8
0
 62
7
  6
CONTINUOUS
 66
1
 70
0
  0
VERTEX
  8
0
 62
7
  6
CONTINUOUS
 10
137.5229876428
 20
170.2420881232
  0
VERTEX
  8
0
 62
7
  6
CONTINUOUS
 10
137.5253984382
 20
170.2515438432
  0
VERTEX
  8
0
 62
7
  6
CONTINUOUS
 10
137.5286036417
 20
170.2611994899
  0
VERTEX
  8
0
 62
7
  6
CONTINUOUS
 10
137.5325907777
 20
170.271092881
  0
VERTEX
  8
0
 62
7
  6
CONTINUOUS
 10
137.5373964174
 20
170.2811118916
  0
VERTEX
  8
0
 62
7
  6
CONTINUOUS
 10
137.5430541072
 20
170.2911698563
  0
VERTEX
  8
0
 62
7
  6
CONTINUOUS
 10
137.5495609033
 20
170.3012286547
  0
VERTEX
  8
0
 62
7
  6
CONTINUOUS
 10
137.5569262112
 20
170.3112127285
  0
VERTEX
  8
0
 62
7
  6
CONTINUOUS
 10
137.5651469109
 20
170.3211480501
  0
SEQEND
  0
POLYLINE
  8
0
 62
7
  6
CONTINUOUS
 66
1
 70
0
  0
VERTEX
  8
0
 62
7
  6
CONTINUOUS
 10
147.526456267
 20
187.568604032
  0
VERTEX
  8
0
 62
7
  6
CONTINUOUS
 10
147.5194727709
 20
187.5617883619
  0
VERTEX
  8
0
 62
7
  6
CONTINUOUS
 10
147.5127133373
 20
187.5541847508
  0
VERTEX
  8
0
 62
7
  6
CONTINUOUS
 10
147.5061389772
 20
187.5457850942
  0
VERTEX
  8
0
 62
7
  6
CONTINUOUS
 10
147.4998650792
 20
187.5366137827
  0
VERTEX
  8
0
 62
7
  6
CONTINUOUS
 10
147.4939834712
 20
187.5266850973
  0
VERTEX
  8
0
 62
7
  6
CONTINUOUS
 10
147.4885256942
 20
187.5160206472
  0
VERTEX
  8
0
 62
7
  6
CONTINUOUS
 10
147.4835618866
 20
187.5046500665
  0
VERTEX
  8
0
 62
7
  6
CONTINUOUS
 10
147.4790679954
 20
187.4925630709
  0
SEQEND
  0
POLYLINE
  8
0
 62
7
  6
CONTINUOUS
 66
1
 70
0
  0
VERTEX
  8
0
 62
7
  6
CONTINUOUS
 10
147.5264562664
 20
187.5686040322
  0
VERTEX
  8
0
 62
7
  6
CONTINUOUS
 10
147.5459057313
 20
187.586682099
  0
VERTEX
  8
0
 62
7
  6
CONTINUOUS
 10
147.564949311
 20
187.6046938207
  0
VERTEX
  8
0
 62
7
  6
CONTINUOUS
 10
147.5835314171
 20
187.6225870833
  0
VERTEX
  8
0
 62
7
  6
CONTINUOUS
 10
147.6015996333
 20
187.6403093634
  0
VERTEX
  8
0
 62
7
  6
CONTINUOUS
 10
147.6191017214
 20
187.6578104321
  0
VERTEX
  8
0
 62
7
  6
CONTINUOUS
 10
147.6359884423
 20
187.6750387703
  0
VERTEX
  8
0
 62
7
  6
CONTINUOUS
 10
147.6522110514
 20
187.6919457685
  0
VERTEX
  8
0
 62
7
  6
CONTINUOUS
 10
147.6677243184
 20
187.7084818949
  0
VERTEX
  8
0
 62
7
  6
CONTINUOUS
 10
147.6824836624
 20
187.7246007916
  0
VERTEX
  8
0
 62
7
  6
CONTINUOUS
 10
147.6964484247
 20
187.7402555584
  0
VERTEX
  8
0
 62
7
  6
CONTINUOUS
 10
147.7095787756
 20
187.7554026687
  0
VERTEX
  8
0
 62
7
  6
CONTINUOUS
 10
147.7218391148
 20
187.7699984647
  0
VERTEX
  8
0
 62
7
  6
CONTINUOUS
 10
147.7331948711
 20
187.7840027862
  0
VERTEX
  8
0
 62
7
  6
CONTINUOUS
 10
147.7436158635
 20
187.797375734
  0
VERTEX
  8
0
 62
7
  6
CONTINUOUS
 10
147.7530731631
 20
187.8100809586
  0
VERTEX
  8
0
 62
7
  6
CONTINUOUS
 10
147.7615422583
 20
187.8220827468
  0
VERTEX
  8
0
 62
7
  6
CONTINUOUS
 10
147.7690001279
 20
187.8333489134
  0
VERTEX
  8
0
 62
7
  6
CONTINUOUS
 10
147.7754280713
 20
187.8438482595
  0
VERTEX
  8
0
 62
7
  6
CONTINUOUS
 10
147.7808091248
 20
187.8535530292
  0
VERTEX
  8
0
 62
7
  6
CONTINUOUS
 10
147.7851304488
 20
187.8624367564
  0
VERTEX
  8
0
 62
7
  6
CONTINUOUS
 10
147.788381167
 20
187.8704763002
  0
VERTEX
  8
0
 62
7
  6
CONTINUOUS
 10
147.7905543488
 20
187.8776500113
  0
VERTEX
  8
0
 62
7
  6
CONTINUOUS
 10
147.7916455898
 20
187.8839390204
  0
VERTEX
  8
0
 62
7
  6
CONTINUOUS
 10
147.7916527336
 20
187.8893277105
  0
VERTEX
  8
0
 62
7
  6
CONTINUOUS
 10
147.7905808536
 20
187.893798016
  0
VERTEX
  8
0
 62
7
  6
CONTINUOUS
 10
147.7884205973
 20
187.8973540182
  0
SEQEND
  0
POLYLINE
  8
0
 62
7
  6
CONTINUOUS
 66
1
 70
0
  0
VERTEX
  8
0
 62
7
  6
CONTINUOUS
 10
106.9832642084
 20
153.5488265294
  0
VERTEX
  8
0
 62
7
  6
CONTINUOUS
 10
106.9620834239
 20
153.532811769
  0
VERTEX
  8
0
 62
7
  6
CONTINUOUS
 10
106.9410384576
 20
153.5171852068
  0
VERTEX
  8
0
 62
7
  6
CONTINUOUS
 10
106.9201902849
 20
153.5019925372
  0
VERTEX
  8
0
 62
7
  6
CONTINUOUS
 10
106.8995997331
 20
153.4872762595
  0
VERTEX
  8
0
 62
7
  6
CONTINUOUS
 10
106.8793253392
 20
153.4730790963
  0
VERTEX
  8
0
 62
7
  6
CONTINUOUS
 10
106.8594263898
 20
153.4594405923
  0
VERTEX
  8
0
 62
7
  6
CONTINUOUS
 10
106.8399592202
 20
153.4464003107
  0
VERTEX
  8
0
 62
7
  6
CONTINUOUS
 10
106.820980464
 20
153.4339941935
  0
VERTEX
  8
0
 62
7
  6
CONTINUOUS
 10
106.8025435162
 20
153.4222580944
  0
VERTEX
  8
0
 62
7
  6
CONTINUOUS
 10
106.7847016247
 20
153.4112239102
  0
VERTEX
  8
0
 62
7
  6
CONTINUOUS
 10
106.7675045714
 20
153.4009233073
  0
VERTEX
  8
0
 62
7
  6
CONTINUOUS
 10
106.7510015324
 20
153.3913837639
  0
VERTEX
  8
0
 62
7
  6
CONTINUOUS
 10
106.7352380613
 20
153.3826323525
  0
VERTEX
  8
0
 62
7
  6
CONTINUOUS
 10
106.7202586918
 20
153.374691867
  0
VERTEX
  8
0
 62
7
  6
CONTINUOUS
 10
106.7061042447
 20
153.3675844848
  0
VERTEX
  8
0
 62
7
  6
CONTINUOUS
 10
106.6928141471
 20
153.3613281437
  0
VERTEX
  8
0
 62
7
  6
CONTINUOUS
 10
106.6804240926
 20
153.3559399263
  0
VERTEX
  8
0
 62
7
  6
CONTINUOUS
 10
106.6689680535
 20
153.3514328314
  0
VERTEX
  8
0
 62
7
  6
CONTINUOUS
 10
106.6584763096
 20
153.3478187455
  0
VERTEX
  8
0
 62
7
  6
CONTINUOUS
 10
106.6489771541
 20
153.3451057177
  0
VERTEX
  8
0
 62
7
  6
CONTINUOUS
 10
106.6404952655
 20
153.3433004401
  0
VERTEX
  8
0
 62
7
  6
CONTINUOUS
 10
106.6330531658
 20
153.3424059812
  0
VERTEX
  8
0
 62
7
  6
CONTINUOUS
 10
106.6266701964
 20
153.3424234096
  0
VERTEX
  8
0
 62
7
  6
CONTINUOUS
 10
106.6213621246
 20
153.3433521195
  0
VERTEX
  8
0
 62
7
  6
CONTINUOUS
 10
106.6171458735
 20
153.3451839616
  0
VERTEX
  8
0
 62
7
  6
CONTINUOUS
 10
106.6140190442
 20
153.3479288609
  0
SEQEND
  0
POLYLINE
  8
0
 62
7
  6
CONTINUOUS
 66
1
 70
0
  0
VERTEX
  8
0
 62
7
  6
CONTINUOUS
 10
106.9832642085
 20
153.5488265288
  0
VERTEX
  8
0
 62
7
  6
CONTINUOUS
 10
106.9911890046
 20
153.5545204012
  0
VERTEX
  8
0
 62
7
  6
CONTINUOUS
 10
106.999850863
 20
153.5598567906
  0
VERTEX
  8
0
 62
7
  6
CONTINUOUS
 10
107.0092645356
 20
153.5648726862
  0
VERTEX
  8
0
 62
7
  6
CONTINUOUS
 10
107.0193859651
 20
153.569458688
  0
VERTEX
  8
0
 62
7
  6
CONTINUOUS
 10
107.0301851419
 20
153.5735268431
  0
VERTEX
  8
0
 62
7
  6
CONTINUOUS
 10
107.041635308
 20
153.5770498418
  0
VERTEX
  8
0
 62
7
  6
CONTINUOUS
 10
107.0536951001
 20
153.5799637573
  0
VERTEX
  8
0
 62
7
  6
CONTINUOUS
 10
107.066378823
 20
153.5822904914
  0
SEQEND
  0
POLYLINE
  8
0
 62
7
  6
CONTINUOUS
 66
1
 70
0
  0
VERTEX
  8
0
 62
7
  6
CONTINUOUS
 10
109.3244149057
 20
253.7364806214
  0
VERTEX
  8
0
 62
7
  6
CONTINUOUS
 10
109.3150206142
 20
253.7338405715
  0
VERTEX
  8
0
 62
7
  6
CONTINUOUS
 10
109.3050559772
 20
253.7317885358
  0
VERTEX
  8
0
 62
7
  6
CONTINUOUS
 10
109.2944944811
 20
253.7302948013
  0
VERTEX
  8
0
 62
7
  6
CONTINUOUS
 10
109.2834149435
 20
253.7294471021
  0
VERTEX
  8
0
 62
7
  6
CONTINUOUS
 10
109.2718756457
 20
253.7293178228
  0
VERTEX
  8
0
 62
7
  6
CONTINUOUS
 10
109.2599110727
 20
253.7299234743
  0
VERTEX
  8
0
 62
7
  6
CONTINUOUS
 10
109.2475819572
 20
253.7313099812
  0
VERTEX
  8
0
 62
7
  6
CONTINUOUS
 10
109.2348673665
 20
253.7334616551
  0
SEQEND
  0
POLYLINE
  8
2_FEATURE
 62
7
  6
CONTINUOUS
 66
1
 70
0
  0
VERTEX
  8
2_FEATURE
 62
7
  6
CONTINUOUS
 10
89.3174776575
 20
253.7364806215
  0
VERTEX
  8
2_FEATURE
 62
7
  6
CONTINUOUS
 10
89.326871949
 20
253.7338405716
  0
VERTEX
  8
2_FEATURE
 62
7
  6
CONTINUOUS
 10
89.3368365861
 20
253.7317885359
  0
VERTEX
  8
2_FEATURE
 62
7
  6
CONTINUOUS
 10
89.3473980822
 20
253.7302948013
  0
VERTEX
  8
2_FEATURE
 62
7
  6
CONTINUOUS
 10
89.3584776199
 20
253.7294471021
  0
VERTEX
  8
2_FEATURE
 62
7
  6
CONTINUOUS
 10
89.3700169177
 20
253.7293178228
  0
VERTEX
  8
2_FEATURE
 62
7
  6
CONTINUOUS
 10
89.3819814909
 20
253.7299234743
  0
VERTEX
  8
2_FEATURE
 62
7
  6
CONTINUOUS
 10
89.3943106064
 20
253.7313099812
  0
VERTEX
  8
2_FEATURE
 62
7
  6
CONTINUOUS
 10
89.4070251973
 20
253.7334616551
  0
SEQEND
  0
POLYLINE
  8
2_FEATURE
 62
7
  6
CONTINUOUS
 66
1
 70
0
  0
VERTEX
  8
2_FEATURE
 62
7
  6
CONTINUOUS
 10
89.3174776576
 20
253.7364806209
  0
VERTEX
  8
2_FEATURE
 62
7
  6
CONTINUOUS
 10
89.29209686
 20
253.7442853183
  0
VERTEX
  8
2_FEATURE
 62
7
  6
CONTINUOUS
 10
89.2669764616
 20
253.7517716812
  0
VERTEX
  8
2_FEATURE
 62
7
  6
CONTINUOUS
 10
89.2421893886
 20
253.7589176258
  0
VERTEX
  8
2_FEATURE
 62
7
  6
CONTINUOUS
 10
89.2178073357
 20
253.76570402
  0
VERTEX
  8
2_FEATURE
 62
7
  6
CONTINUOUS
 10
89.1938999216
 20
253.7721107385
  0
VERTEX
  8
2_FEATURE
 62
7
  6
CONTINUOUS
 10
89.1705363826
 20
253.7781208988
  0
VERTEX
  8
2_FEATURE
 62
7
  6
CONTINUOUS
 10
89.1477831881
 20
253.7837165913
  0
VERTEX
  8
2_FEATURE
 62
7
  6
CONTINUOUS
 10
89.1257058491
 20
253.7888834113
  0
VERTEX
  8
2_FEATURE
 62
7
  6
CONTINUOUS
 10
89.1043668031
 20
253.7936059298
  0
VERTEX
  8
2_FEATURE
 62
7
  6
CONTINUOUS
 10
89.0838269961
 20
253.7978723854
  0
VERTEX
  8
2_FEATURE
 62
7
  6
CONTINUOUS
 10
89.0641440384
 20
253.8016700476
  0
VERTEX
  8
2_FEATURE
 62
7
  6
CONTINUOUS
 10
89.0453735386
 20
253.8049899149
  0
VERTEX
  8
2_FEATURE
 62
7
  6
CONTINUOUS
 10
89.0275675623
 20
253.8078221275
  0
VERTEX
  8
2_FEATURE
 62
7
  6
CONTINUOUS
 10
89.0107757536
 20
253.8101604977
  0
VERTEX
  8
2_FEATURE
 62
7
  6
CONTINUOUS
 10
88.9950440565
 20
253.8119981471
  0
VERTEX
  8
2_FEATURE
 62
7
  6
CONTINUOUS
 10
88.9804156555
 20
253.8133317047
  0
VERTEX
  8
2_FEATURE
 62
7
  6
CONTINUOUS
 10
88.9669299342
 20
253.8141573259
  0
VERTEX
  8
2_FEATURE
 62
7
  6
CONTINUOUS
 10
88.954623262
 20
253.8144744152
  0
VERTEX
  8
2_FEATURE
 62
7
  6
CONTINUOUS
 10
88.9435281582
 20
253.8142821593
  0
VERTEX
  8
2_FEATURE
 62
7
  6
CONTINUOUS
 10
88.9336739628
 20
253.8135826721
  0
VERTEX
  8
2_FEATURE
 62
7
  6
CONTINUOUS
 10
88.9250861545
 20
253.8123781047
  0
VERTEX
  8
2_FEATURE
 62
7
  6
CONTINUOUS
 10
88.9177869475
 20
253.8106732799
  0
VERTEX
  8
2_FEATURE
 62
7
  6
CONTINUOUS
 10
88.9117948854
 20
253.8084738177
  0
VERTEX
  8
2_FEATURE
 62
7
  6
CONTINUOUS
 10
88.907124571
 20
253.8057856594
  0
VERTEX
  8
2_FEATURE
 62
7
  6
CONTINUOUS
 10
88.9037891129
 20
253.8026222314
  0
VERTEX
  8
2_FEATURE
 62
7
  6
CONTINUOUS
 10
88.9017896527
 20
253.7989733934
  0
SEQEND
  0
POLYLINE
  8
0
 62
7
  6
CONTINUOUS
 66
1
 70
0
  0
VERTEX
  8
0
 62
7
  6
CONTINUOUS
 10
139.051065235
 20
235.6349350996
  0
VERTEX
  8
0
 62
7
  6
CONTINUOUS
 10
139.0755248167
 20
235.6245993823
  0
VERTEX
  8
0
 62
7
  6
CONTINUOUS
 10
139.0995802997
 20
235.614187188
  0
VERTEX
  8
0
 62
7
  6
CONTINUOUS
 10
139.1231616238
 20
235.6037284756
  0
VERTEX
  8
0
 62
7
  6
CONTINUOUS
 10
139.1462015701
 20
235.5932546736
  0
VERTEX
  8
0
 62
7
  6
CONTINUOUS
 10
139.168633871
 20
235.5827951149
  0
VERTEX
  8
0
 62
7
  6
CONTINUOUS
 10
139.1903946367
 20
235.5723813713
  0
VERTEX
  8
0
 62
7
  6
CONTINUOUS
 10
139.2114214366
 20
235.5620424487
  0
VERTEX
  8
0
 62
7
  6
CONTINUOUS
 10
139.2316548273
 20
235.5518094223
  0
VERTEX
  8
0
 62
7
  6
CONTINUOUS
 10
139.2510370612
 20
235.5417106067
  0
VERTEX
  8
0
 62
7
  6
CONTINUOUS
 10
139.2695138908
 20
235.5317761675
  0
VERTEX
  8
0
 62
7
  6
CONTINUOUS
 10
139.2870330013
 20
235.5220333839
  0
VERTEX
  8
0
 62
7
  6
CONTINUOUS
 10
139.3035460077
 20
235.5125111046
  0
VERTEX
  8
0
 62
7
  6
CONTINUOUS
 10
139.3190066878
 20
235.5032352438
  0
VERTEX
  8
0
 62
7
  6
CONTINUOUS
 10
139.3333730347
 20
235.4942329721
  0
VERTEX
  8
0
 62
7
  6
CONTINUOUS
 10
139.3466054318
 20
235.4855285524
  0
VERTEX
  8
0
 62
7
  6
CONTINUOUS
 10
139.358668631
 20
235.4771471608
  0
VERTEX
  8
0
 62
7
  6
CONTINUOUS
 10
139.3695299914
 20
235.4691111676
  0
VERTEX
  8
0
 62
7
  6
CONTINUOUS
 10
139.3791612696
 20
235.4614434941
  0
VERTEX
  8
0
 62
7
  6
CONTINUOUS
 10
139.3875370317
 20
235.4541644203
  0
VERTEX
  8
0
 62
7
  6
CONTINUOUS
 10
139.3946361605
 20
235.4472944243
  0
VERTEX
  8
0
 62
7
  6
CONTINUOUS
 10
139.400440521
 20
235.4408515321
  0
VERTEX
  8
0
 62
7
  6
CONTINUOUS
 10
139.404936195
 20
235.4348537141
  0
VERTEX
  8
0
 62
7
  6
CONTINUOUS
 10
139.4081125863
 20
235.4293171863
  0
VERTEX
  8
0
 62
7
  6
CONTINUOUS
 10
139.4099623358
 20
235.4242559063
  0
VERTEX
  8
0
 62
7
  6
CONTINUOUS
 10
139.4104840395
 20
235.4196886047
  0
VERTEX
  8
0
 62
7
  6
CONTINUOUS
 10
139.4096703017
 20
235.4156082415
  0
SEQEND
  0
POLYLINE
  8
0
 62
7
  6
CONTINUOUS
 66
1
 70
0
  0
VERTEX
  8
0
 62
7
  6
CONTINUOUS
 10
139.0510652355
 20
235.6349351
  0
VERTEX
  8
0
 62
7
  6
CONTINUOUS
 10
139.0421717994
 20
235.6389512385
  0
VERTEX
  8
0
 62
7
  6
CONTINUOUS
 10
139.0332194214
 20
235.6437844332
  0
VERTEX
  8
0
 62
7
  6
CONTINUOUS
 10
139.024168692
 20
235.649428965
  0
VERTEX
  8
0
 62
7
  6
CONTINUOUS
 10
139.0151363833
 20
235.6559013792
  0
VERTEX
  8
0
 62
7
  6
CONTINUOUS
 10
139.0062136692
 20
235.6632196632
  0
VERTEX
  8
0
 62
7
  6
CONTINUOUS
 10
138.9974375798
 20
235.6713742985
  0
VERTEX
  8
0
 62
7
  6
CONTINUOUS
 10
138.9888841589
 20
235.6803614271
  0
VERTEX
  8
0
 62
7
  6
CONTINUOUS
 10
138.9805272866
 20
235.6901824863
  0
SEQEND
  0
POLYLINE
  8
0
 62
7
  6
CONTINUOUS
 66
1
 70
0
  0
VERTEX
  8
0
 62
7
  6
CONTINUOUS
 10
123.7248621328
 20
248.495146471
  0
VERTEX
  8
0
 62
7
  6
CONTINUOUS
 10
123.7303615862
 20
248.4870855412
  0
VERTEX
  8
0
 62
7
  6
CONTINUOUS
 10
123.736675918
 20
248.4791084454
  0
VERTEX
  8
0
 62
7
  6
CONTINUOUS
 10
123.7438063393
 20
248.4711753795
  0
VERTEX
  8
0
 62
7
  6
CONTINUOUS
 10
123.751748867
 20
248.4634042146
  0
VERTEX
  8
0
 62
7
  6
CONTINUOUS
 10
123.7605053829
 20
248.4558878633
  0
VERTEX
  8
0
 62
7
  6
CONTINUOUS
 10
123.7700600829
 20
248.4486611399
  0
VERTEX
  8
0
 62
7
  6
CONTINUOUS
 10
123.7803959629
 20
248.4417982631
  0
VERTEX
  8
0
 62
7
  6
CONTINUOUS
 10
123.7915189739
 20
248.4352737594
  0
SEQEND
  0
POLYLINE
  8
0
 62
7
  6
CONTINUOUS
 66
1
 70
0
  0
VERTEX
  8
0
 62
7
  6
CONTINUOUS
 10
123.7248621325
 20
248.4951464704
  0
VERTEX
  8
0
 62
7
  6
CONTINUOUS
 10
123.7104360763
 20
248.5174396776
  0
VERTEX
  8
0
 62
7
  6
CONTINUOUS
 10
123.696004876
 20
248.5393216452
  0
VERTEX
  8
0
 62
7
  6
CONTINUOUS
 10
123.6816102011
 20
248.5607285798
  0
VERTEX
  8
0
 62
7
  6
CONTINUOUS
 10
123.6672946751
 20
248.5815997409
  0
VERTEX
  8
0
 62
7
  6
CONTINUOUS
 10
123.6530986926
 20
248.6018749616
  0
VERTEX
  8
0
 62
7
  6
CONTINUOUS
 10
123.63906444
 20
248.6214968048
  0
VERTEX
  8
0
 62
7
  6
CONTINUOUS
 10
123.6252313235
 20
248.6404088255
  0
VERTEX
  8
0
 62
7
  6
CONTINUOUS
 10
123.6116402686
 20
248.6585578792
  0
VERTEX
  8
0
 62
7
  6
CONTINUOUS
 10
123.5983291874
 20
248.6758920127
  0
VERTEX
  8
0
 62
7
  6
CONTINUOUS
 10
123.5853372072
 20
248.6923630406
  0
VERTEX
  8
0
 62
7
  6
CONTINUOUS
 10
123.572700277
 20
248.70792418
  0
VERTEX
  8
0
 62
7
  6
CONTINUOUS
 10
123.5604552095
 20
248.7225327906
  0
VERTEX
  8
0
 62
7
  6
CONTINUOUS
 10
123.5486355515
 20
248.7361478523
  0
VERTEX
  8
0
 62
7
  6
CONTINUOUS
 10
123.5372753551
 20
248.7487327144
  0
VERTEX
  8
0
 62
7
  6
CONTINUOUS
 10
123.5264053943
 20
248.7602525755
  0
VERTEX
  8
0
 62
7
  6
CONTINUOUS
 10
123.5160565832
 20
248.7706770948
  0
VERTEX
  8
0
 62
7
  6
CONTINUOUS
 10
123.5062566204
 20
248.7799780118
  0
VERTEX
  8
0
 62
7
  6
CONTINUOUS
 10
123.4970329837
 20
248.7881314927
  0
VERTEX
  8
0
 62
7
  6
CONTINUOUS
 10
123.4884100614
 20
248.7951160114
  0
VERTEX
  8
0
 62
7
  6
CONTINUOUS
 10
123.480411688
 20
248.8009143278
  0
VERTEX
  8
0
 62
7
  6
CONTINUOUS
 10
123.4730587642
 20
248.8055117125
  0
VERTEX
  8
0
 62
7
  6
CONTINUOUS
 10
123.4663714069
 20
248.8088975807
  0
VERTEX
  8
0
 62
7
  6
CONTINUOUS
 10
123.4603674341
 20
248.8110643182
  0
VERTEX
  8
0
 62
7
  6
CONTINUOUS
 10
123.4550618508
 20
248.8120070897
  0
VERTEX
  8
0
 62
7
  6
CONTINUOUS
 10
123.4504733293
 20
248.8117277544
  0
VERTEX
  8
0
 62
7
  6
CONTINUOUS
 10
123.4465962262
 20
248.8102178105
  0
SEQEND
  0
POLYLINE
  8
0
 62
7
  6
CONTINUOUS
 66
1
 70
0
  0
VERTEX
  8
0
 62
7
  6
CONTINUOUS
 10
150.1875513553
 20
202.6604242319
  0
VERTEX
  8
0
 62
7
  6
CONTINUOUS
 10
150.1996448109
 20
202.6367842971
  0
VERTEX
  8
0
 62
7
  6
CONTINUOUS
 10
150.2113795504
 20
202.6133455271
  0
VERTEX
  8
0
 62
7
  6
CONTINUOUS
 10
150.222721162
 20
202.5901759056
  0
VERTEX
  8
0
 62
7
  6
CONTINUOUS
 10
150.2336383546
 20
202.5673427158
  0
VERTEX
  8
0
 62
7
  6
CONTINUOUS
 10
150.2440992194
 20
202.5449110239
  0
VERTEX
  8
0
 62
7
  6
CONTINUOUS
 10
150.2540751077
 20
202.5229460829
  0
VERTEX
  8
0
 62
7
  6
CONTINUOUS
 10
150.2635368396
 20
202.5015102422
  0
VERTEX
  8
0
 62
7
  6
CONTINUOUS
 10
150.2724588535
 20
202.4806655163
  0
VERTEX
  8
0
 62
7
  6
CONTINUOUS
 10
150.2808151126
 20
202.460470715
  0
VERTEX
  8
0
 62
7
  6
CONTINUOUS
 10
150.2885834508
 20
202.4409838159
  0
VERTEX
  8
0
 62
7
  6
CONTINUOUS
 10
150.2957413274
 20
202.4222593435
  0
VERTEX
  8
0
 62
7
  6
CONTINUOUS
 10
150.302270221
 20
202.4043504985
  0
VERTEX
  8
0
 62
7
  6
CONTINUOUS
 10
150.3081513808
 20
202.3873068433
  0
VERTEX
  8
0
 62
7
  6
CONTINUOUS
 10
150.3133700923
 20
202.3711761932
  0
VERTEX
  8
0
 62
7
  6
CONTINUOUS
 10
150.3179116034
 20
202.3560026001
  0
VERTEX
  8
0
 62
7
  6
CONTINUOUS
 10
150.3217650954
 20
202.3418280066
  0
VERTEX
  8
0
 62
7
  6
CONTINUOUS
 10
150.3249199433
 20
202.3286905307
  0
VERTEX
  8
0
 62
7
  6
CONTINUOUS
 10
150.327369245
 20
202.3166258858
  0
VERTEX
  8
0
 62
7
  6
CONTINUOUS
 10
150.3291065525
 20
202.3056659556
  0
VERTEX
  8
0
 62
7
  6
CONTINUOUS
 10
150.3301288524
 20
202.2958400014
  0
VERTEX
  8
0
 62
7
  6
CONTINUOUS
 10
150.3304338392
 20
202.2871734885
  0
VERTEX
  8
0
 62
7
  6
CONTINUOUS
 10
150.3300224023
 20
202.2796891299
  0
VERTEX
  8
0
 62
7
  6
CONTINUOUS
 10
150.3288968476
 20
202.2734061586
  0
VERTEX
  8
0
 62
7
  6
CONTINUOUS
 10
150.3270605099
 20
202.2683399971
  0
VERTEX
  8
0
 62
7
  6
CONTINUOUS
 10
150.3245243533
 20
202.2645058964
  0
VERTEX
  8
0
 62
7
  6
CONTINUOUS
 10
150.321278187
 20
202.2619032174
  0
SEQEND
  0
POLYLINE
  8
0
 62
7
  6
CONTINUOUS
 66
1
 70
0
  0
VERTEX
  8
0
 62
7
  6
CONTINUOUS
 10
150.1875513559
 20
202.6604242319
  0
VERTEX
  8
0
 62
7
  6
CONTINUOUS
 10
150.1833201127
 20
202.6692173631
  0
VERTEX
  8
0
 62
7
  6
CONTINUOUS
 10
150.1795689109
 20
202.6786742826
  0
VERTEX
  8
0
 62
7
  6
CONTINUOUS
 10
150.1762638851
 20
202.6888159415
  0
VERTEX
  8
0
 62
7
  6
CONTINUOUS
 10
150.1735051228
 20
202.6995799546
  0
VERTEX
  8
0
 62
7
  6
CONTINUOUS
 10
150.1713740295
 20
202.7109214954
  0
VERTEX
  8
0
 62
7
  6
CONTINUOUS
 10
150.1698928536
 20
202.72280947
  0
VERTEX
  8
0
 62
7
  6
CONTINUOUS
 10
150.1691173679
 20
202.7351920429
  0
VERTEX
  8
0
 62
7
  6
CONTINUOUS
 10
150.1690284875
 20
202.7480871047
  0
SEQEND
  0
LINE
  8
0
 62
7
  6
CONTINUOUS
 10
44.4614034638
 20
99.5578310833
 11
44.4614034638
 21
87.3698004956
  0
POLYLINE
  8
0
 62
7
  6
CONTINUOUS
 66
1
 70
0
  0
VERTEX
  8
0
 62
7
  6
CONTINUOUS
 10
44.4614034638
 20
99.5578310833
  0
VERTEX
  8
0
 62
7
  6
CONTINUOUS
 10
44.4620841894
 20
99.5839129174
  0
VERTEX
  8
0
 62
7
  6
CONTINUOUS
 10
44.4641062737
 20
99.6097493339
  0
VERTEX
  8
0
 62
7
  6
CONTINUOUS
 10
44.4674501837
 20
99.6353562859
  0
VERTEX
  8
0
 62
7
  6
CONTINUOUS
 10
44.4720946559
 20
99.6606750938
  0
VERTEX
  8
0
 62
7
  6
CONTINUOUS
 10
44.4780176597
 20
99.6856519124
  0
VERTEX
  8
0
 62
7
  6
CONTINUOUS
 10
44.4852059752
 20
99.7102645173
  0
VERTEX
  8
0
 62
7
  6
CONTINUOUS
 10
44.4936636847
 20
99.7345214878
  0
VERTEX
  8
0
 62
7
  6
CONTINUOUS
 10
44.5033253377
 20
99.7582417376
  0
VERTEX
  8
0
 62
7
  6
CONTINUOUS
 10
44.5140803222
 20
99.7812186545
  0
VERTEX
  8
0
 62
7
  6
CONTINUOUS
 10
44.5259366462
 20
99.8035314104
  0
VERTEX
  8
0
 62
7
  6
CONTINUOUS
 10
44.5388736034
 20
99.8251670462
  0
VERTEX
  8
0
 62
7
  6
CONTINUOUS
 10
44.5529048581
 20
99.8461518927
  0
VERTEX
  8
0
 62
7
  6
CONTINUOUS
 10
44.5681138744
 20
99.8665757979
  0
VERTEX
  8
0
 62
7
  6
CONTINUOUS
 10
44.5843238471
 20
99.8861768807
  0
VERTEX
  8
0
 62
7
  6
CONTINUOUS
 10
44.6012828207
 20
99.9046929036
  0
VERTEX
  8
0
 62
7
  6
CONTINUOUS
 10
44.6191071631
 20
99.9222940342
  0
VERTEX
  8
0
 62
7
  6
CONTINUOUS
 10
44.6378848028
 20
99.939060248
  0
VERTEX
  8
0
 62
7
  6
CONTINUOUS
 10
44.657550664
 20
99.9549122791
  0
VERTEX
  8
0
 62
7
  6
CONTINUOUS
 10
44.6781255594
 20
99.9698427686
  0
VERTEX
  8
0
 62
7
  6
CONTINUOUS
 10
44.6994225557
 20
99.9837019602
  0
VERTEX
  8
0
 62
7
  6
CONTINUOUS
 10
44.7211435168
 20
99.9963229964
  0
VERTEX
  8
0
 62
7
  6
CONTINUOUS
 10
44.7435288791
 20
100.0078651546
  0
VERTEX
  8
0
 62
7
  6
CONTINUOUS
 10
44.7668054091
 20
100.0184085435
  0
VERTEX
  8
0
 62
7
  6
CONTINUOUS
 10
44.7901778872
 20
100.0275989003
  0
SEQEND
  0
LINE
  8
0
 62
7
  6
CONTINUOUS
 10
56.4093049872
 20
86.0638157895
 11
56.4093049872
 21
100.8638157895
  0
POLYLINE
  8
0
 62
7
  6
CONTINUOUS
 66
1
 70
0
  0
VERTEX
  8
0
 62
7
  6
CONTINUOUS
 10
51.9285094016
 20
101.3563576876
  0
VERTEX
  8
0
 62
7
  6
CONTINUOUS
 10
51.9294780417
 20
101.35797181
  0
VERTEX
  8
0
 62
7
  6
CONTINUOUS
 10
51.9297685612
 20
101.3594162772
  0
VERTEX
  8
0
 62
7
  6
CONTINUOUS
 10
51.929405618
 20
101.3607034501
  0
VERTEX
  8
0
 62
7
  6
CONTINUOUS
 10
51.9283164972
 20
101.3617962459
  0
VERTEX
  8
0
 62
7
  6
CONTINUOUS
 10
51.9264400344
 20
101.3626645319
  0
VERTEX
  8
0
 62
7
  6
CONTINUOUS
 10
51.9237659578
 20
101.3632998181
  0
VERTEX
  8
0
 62
7
  6
CONTINUOUS
 10
51.9202595866
 20
101.3636812539
  0
VERTEX
  8
0
 62
7
  6
CONTINUOUS
 10
51.915932736
 20
101.3638157895
  0
SEQEND
  0
POLYLINE
  8
0
 62
7
  6
CONTINUOUS
 66
1
 70
0
  0
VERTEX
  8
0
 62
7
  6
CONTINUOUS
 10
51.9285094022
 20
101.356357686
  0
VERTEX
  8
0
 62
7
  6
CONTINUOUS
 10
51.925230605
 20
101.3509753092
  0
VERTEX
  8
0
 62
7
  6
CONTINUOUS
 10
51.9222200883
 20
101.3441678503
  0
VERTEX
  8
0
 62
7
  6
CONTINUOUS
 10
51.919486937
 20
101.3359580289
  0
VERTEX
  8
0
 62
7
  6
CONTINUOUS
 10
51.9170375427
 20
101.3263723952
  0
VERTEX
  8
0
 62
7
  6
CONTINUOUS
 10
51.9148796359
 20
101.3154413528
  0
VERTEX
  8
0
 62
7
  6
CONTINUOUS
 10
51.9130178199
 20
101.3031993196
  0
VERTEX
  8
0
 62
7
  6
CONTINUOUS
 10
51.9114581899
 20
101.289684338
  0
VERTEX
  8
0
 62
7
  6
CONTINUOUS
 10
51.9102035557
 20
101.2749382116
  0
VERTEX
  8
0
 62
7
  6
CONTINUOUS
 10
51.9092582699
 20
101.259006168
  0
VERTEX
  8
0
 62
7
  6
CONTINUOUS
 10
51.9086233322
 20
101.2419368458
  0
VERTEX
  8
0
 62
7
  6
CONTINUOUS
 10
51.9083012754
 20
101.2237820656
  0
VERTEX
  8
0
 62
7
  6
CONTINUOUS
 10
51.9082913084
 20
101.2045966005
  0
VERTEX
  8
0
 62
7
  6
CONTINUOUS
 10
51.9085940997
 20
101.1844381208
  0
VERTEX
  8
0
 62
7
  6
CONTINUOUS
 10
51.9092071227
 20
101.163366746
  0
VERTEX
  8
0
 62
7
  6
CONTINUOUS
 10
51.9101291731
 20
101.1414451687
  0
VERTEX
  8
0
 62
7
  6
CONTINUOUS
 10
51.911356072
 20
101.1187380025
  0
VERTEX
  8
0
 62
7
  6
CONTINUOUS
 10
51.9128847666
 20
101.0953120793
  0
VERTEX
  8
0
 62
7
  6
CONTINUOUS
 10
51.9147095282
 20
101.0712356323
  0
VERTEX
  8
0
 62
7
  6
CONTINUOUS
 10
51.9168255107
 20
101.0465787283
  0
VERTEX
  8
0
 62
7
  6
CONTINUOUS
 10
51.9192255385
 20
101.0214123762
  0
VERTEX
  8
0
 62
7
  6
CONTINUOUS
 10
51.921903068
 20
100.9958090225
  0
VERTEX
  8
0
 62
7
  6
CONTINUOUS
 10
51.9248494961
 20
100.9698416077
  0
VERTEX
  8
0
 62
7
  6
CONTINUOUS
 10
51.9280560817
 20
100.9435840254
  0
VERTEX
  8
0
 62
7
  6
CONTINUOUS
 10
51.9315144079
 20
100.9171106263
  0
VERTEX
  8
0
 62
7
  6
CONTINUOUS
 10
51.9352089479
 20
100.8904957009
  0
VERTEX
  8
0
 62
7
  6
CONTINUOUS
 10
51.9391494991
 20
100.8638157895
  0
SEQEND
  0
POLYLINE
  8
0
 62
7
  6
CONTINUOUS
 66
1
 70
0
  0
VERTEX
  8
0
 62
7
  6
CONTINUOUS
 10
51.9285094022
 20
85.5712738932
  0
VERTEX
  8
0
 62
7
  6
CONTINUOUS
 10
51.9252306051
 20
85.5766562695
  0
VERTEX
  8
0
 62
7
  6
CONTINUOUS
 10
51.9222200884
 20
85.5834637279
  0
VERTEX
  8
0
 62
7
  6
CONTINUOUS
 10
51.9194869369
 20
85.5916735487
  0
VERTEX
  8
0
 62
7
  6
CONTINUOUS
 10
51.9170375425
 20
85.601259182
  0
VERTEX
  8
0
 62
7
  6
CONTINUOUS
 10
51.9148796355
 20
85.612190224
  0
VERTEX
  8
0
 62
7
  6
CONTINUOUS
 10
51.9130178192
 20
85.6244322569
  0
VERTEX
  8
0
 62
7
  6
CONTINUOUS
 10
51.9114581888
 20
85.6379472384
  0
VERTEX
  8
0
 62
7
  6
CONTINUOUS
 10
51.9102035543
 20
85.652693365
  0
VERTEX
  8
0
 62
7
  6
CONTINUOUS
 10
51.9092582682
 20
85.6686254088
  0
VERTEX
  8
0
 62
7
  6
CONTINUOUS
 10
51.9086233301
 20
85.6856947315
  0
VERTEX
  8
0
 62
7
  6
CONTINUOUS
 10
51.908301273
 20
85.7038495124
  0
VERTEX
  8
0
 62
7
  6
CONTINUOUS
 10
51.9082913056
 20
85.7230349783
  0
VERTEX
  8
0
 62
7
  6
CONTINUOUS
 10
51.9085940965
 20
85.743193459
  0
VERTEX
  8
0
 62
7
  6
CONTINUOUS
 10
51.9092071191
 20
85.7642648348
  0
VERTEX
  8
0
 62
7
  6
CONTINUOUS
 10
51.9101291691
 20
85.7861864132
  0
VERTEX
  8
0
 62
7
  6
CONTINUOUS
 10
51.9113560676
 20
85.8088935804
  0
VERTEX
  8
0
 62
7
  6
CONTINUOUS
 10
51.9128847617
 20
85.8323195047
  0
VERTEX
  8
0
 62
7
  6
CONTINUOUS
 10
51.9147095226
 20
85.8563959526
  0
VERTEX
  8
0
 62
7
  6
CONTINUOUS
 10
51.9168255044
 20
85.8810528573
  0
VERTEX
  8
0
 62
7
  6
CONTINUOUS
 10
51.919225531
 20
85.90621921
  0
VERTEX
  8
0
 62
7
  6
CONTINUOUS
 10
51.9219030591
 20
85.931822564
  0
VERTEX
  8
0
 62
7
  6
CONTINUOUS
 10
51.9248494848
 20
85.9577899789
  0
VERTEX
  8
0
 62
7
  6
CONTINUOUS
 10
51.9280560629
 20
85.9840475616
  0
VERTEX
  8
0
 62
7
  6
CONTINUOUS
 10
51.9315143852
 20
86.0105209601
  0
VERTEX
  8
0
 62
7
  6
CONTINUOUS
 10
51.9352089326
 20
86.0371358827
  0
VERTEX
  8
0
 62
7
  6
CONTINUOUS
 10
51.9391494997
 20
86.0638157895
  0
SEQEND
  0
POLYLINE
  8
0
 62
7
  6
CONTINUOUS
 66
1
 70
0
  0
VERTEX
  8
0
 62
7
  6
CONTINUOUS
 10
51.9285094016
 20
85.5712738915
  0
VERTEX
  8
0
 62
7
  6
CONTINUOUS
 10
51.9294780416
 20
85.5696597691
  0
VERTEX
  8
0
 62
7
  6
CONTINUOUS
 10
51.9297685612
 20
85.5682153019
  0
VERTEX
  8
0
 62
7
  6
CONTINUOUS
 10
51.929405618
 20
85.5669281289
  0
VERTEX
  8
0
 62
7
  6
CONTINUOUS
 10
51.9283164973
 20
85.5658353331
  0
VERTEX
  8
0
 62
7
  6
CONTINUOUS
 10
51.9264400345
 20
85.5649670471
  0
VERTEX
  8
0
 62
7
  6
CONTINUOUS
 10
51.9237659578
 20
85.5643317608
  0
VERTEX
  8
0
 62
7
  6
CONTINUOUS
 10
51.9202595867
 20
85.563950325
  0
VERTEX
  8
0
 62
7
  6
CONTINUOUS
 10
51.915932736
 20
85.5638157895
  0
SEQEND
  0
LINE
  8
0
 62
7
  6
CONTINUOUS
 10
57.3224270586
 20
99.5578310833
 11
57.3224270586
 21
87.3698004956
  0
LINE
  8
0
 62
7
  6
CONTINUOUS
 10
58.8553049872
 20
86.0638157895
 11
58.8553049872
 21
86.0693432416
  0
LINE
  8
0
 62
7
  6
CONTINUOUS
 10
58.8553049872
 20
100.8582884162
 11
58.8553049872
 21
100.8638157895
  0
POLYLINE
  8
0
 62
7
  6
CONTINUOUS
 66
1
 70
0
  0
VERTEX
  8
0
 62
7
  6
CONTINUOUS
 10
57.3224270586
 20
99.5578310833
  0
VERTEX
  8
0
 62
7
  6
CONTINUOUS
 10
57.3231400268
 20
99.5845230256
  0
VERTEX
  8
0
 62
7
  6
CONTINUOUS
 10
57.3252765821
 20
99.6111359017
  0
VERTEX
  8
0
 62
7
  6
CONTINUOUS
 10
57.3288303323
 20
99.6375949334
  0
VERTEX
  8
0
 62
7
  6
CONTINUOUS
 10
57.3337910822
 20
99.663825812
  0
VERTEX
  8
0
 62
7
  6
CONTINUOUS
 10
57.3401452801
 20
99.6897563883
  0
VERTEX
  8
0
 62
7
  6
CONTINUOUS
 10
57.3478738811
 20
99.7153089602
  0
VERTEX
  8
0
 62
7
  6
CONTINUOUS
 10
57.3569528585
 20
99.7404064623
  0
VERTEX
  8
0
 62
7
  6
CONTINUOUS
 10
57.3673572492
 20
99.7649819184
  0
VERTEX
  8
0
 62
7
  6
CONTINUOUS
 10
57.3790584221
 20
99.7889679521
  0
VERTEX
  8
0
 62
7
  6
CONTINUOUS
 10
57.3920232649
 20
99.8122963547
  0
VERTEX
  8
0
 62
7
  6
CONTINUOUS
 10
57.4062165496
 20
99.8349029371
  0
VERTEX
  8
0
 62
7
  6
CONTINUOUS
 10
57.4215950393
 20
99.8567185073
  0
VERTEX
  8
0
 62
7
  6
CONTINUOUS
 10
57.4381100457
 20
99.877675473
  0
VERTEX
  8
0
 62
7
  6
CONTINUOUS
 10
57.4557184644
 20
99.8977204872
  0
VERTEX
  8
0
 62
7
  6
CONTINUOUS
 10
57.4743737452
 20
99.9168002895
  0
VERTEX
  8
0
 62
7
  6
CONTINUOUS
 10
57.4940221842
 20
99.9348592499
  0
VERTEX
  8
0
 62
7
  6
CONTINUOUS
 10
57.5146095847
 20
99.9518468225
  0
VERTEX
  8
0
 62
7
  6
CONTINUOUS
 10
57.5360735467
 20
99.9677111465
  0
VERTEX
  8
0
 62
7
  6
CONTINUOUS
 10
57.542128963
 20
99.9718757398
  0
SEQEND
  0
LINE
  8
1_AXIS
 62
7
  6
CONTINUOUS
 10
67.8209462819
 20
112.6138157895
 11
67.8209462819
 21
101.3638157895
  0
LINE
  8
1_AXIS
 62
7
  6
CONTINUOUS
 10
67.8209462819
 20
85.5638157895
 11
67.8209462819
 21
74.3138157895
  0
POLYLINE
  8
0
 62
7
  6
CONTINUOUS
 66
1
 70
0
  0
VERTEX
  8
0
 62
7
  6
CONTINUOUS
 10
59.3908555026
 20
101.2590061702
  0
VERTEX
  8
0
 62
7
  6
CONTINUOUS
 10
59.3513977098
 20
101.2245253612
  0
VERTEX
  8
0
 62
7
  6
CONTINUOUS
 10
59.3026502083
 20
101.1835123621
  0
VERTEX
  8
0
 62
7
  6
CONTINUOUS
 10
59.249916687
 20
101.1408569568
  0
VERTEX
  8
0
 62
7
  6
CONTINUOUS
 10
59.1931565441
 20
101.0966315578
  0
VERTEX
  8
0
 62
7
  6
CONTINUOUS
 10
59.1323217348
 20
101.0508953739
  0
VERTEX
  8
0
 62
7
  6
CONTINUOUS
 10
59.0673561843
 20
101.0036960453
  0
VERTEX
  8
0
 62
7
  6
CONTINUOUS
 10
58.9982236807
 20
100.9550912728
  0
VERTEX
  8
0
 62
7
  6
CONTINUOUS
 10
58.9317408575
 20
100.9097374113
  0
SEQEND
  0
LINE
  8
0
 62
7
  6
CONTINUOUS
 10
58.2501367928
 20
100.4504504833
 11
57.5421301882
 21
99.9718765767
  0
LINE
  8
0
 62
7
  6
CONTINUOUS
 10
58.9317386325
 20
100.9097359053
 11
58.2501367928
 21
100.4504504833
  0
LINE
  8
0
 62
7
  6
CONTINUOUS
 10
58.249496258
 20
86.4776133896
 11
58.9317386327
 21
86.0178956735
  0
LINE
  8
0
 62
7
  6
CONTINUOUS
 10
57.5421301882
 20
86.9557550023
 11
58.249496258
 21
86.4776133896
  0
POLYLINE
  8
0
 62
7
  6
CONTINUOUS
 66
1
 70
0
  0
VERTEX
  8
0
 62
7
  6
CONTINUOUS
 10
58.9317410584
 20
86.0178940325
  0
VERTEX
  8
0
 62
7
  6
CONTINUOUS
 10
58.9976267789
 20
85.9729533061
  0
VERTEX
  8
0
 62
7
  6
CONTINUOUS
 10
59.0667862771
 20
85.9243427521
  0
VERTEX
  8
0
 62
7
  6
CONTINUOUS
 10
59.1317798772
 20
85.8771365704
  0
VERTEX
  8
0
 62
7
  6
CONTINUOUS
 10
59.1926437
 20
85.8313924271
  0
VERTEX
  8
0
 62
7
  6
CONTINUOUS
 10
59.249433737
 20
85.7871579165
  0
VERTEX
  8
0
 62
7
  6
CONTINUOUS
 10
59.3021979013
 20
85.744492231
  0
VERTEX
  8
0
 62
7
  6
CONTINUOUS
 10
59.3509766928
 20
85.7034677265
  0
SEQEND
  0
POLYLINE
  8
0
 62
7
  6
CONTINUOUS
 66
1
 70
0
  0
VERTEX
  8
0
 62
7
  6
CONTINUOUS
 10
57.542130201
 20
86.955755001
  0
VERTEX
  8
0
 62
7
  6
CONTINUOUS
 10
57.5199161304
 20
86.9716960666
  0
VERTEX
  8
0
 62
7
  6
CONTINUOUS
 10
57.4988354364
 20
86.9886332594
  0
VERTEX
  8
0
 62
7
  6
CONTINUOUS
 10
57.4790220139
 20
87.0063820382
  0
VERTEX
  8
0
 62
7
  6
CONTINUOUS
 10
57.4602571115
 20
87.0250789713
  0
VERTEX
  8
0
 62
7
  6
CONTINUOUS
 10
57.4423791948
 20
87.0448949383
  0
VERTEX
  8
0
 62
7
  6
CONTINUOUS
 10
57.425498846
 20
87.0657478785
  0
VERTEX
  8
0
 62
7
  6
CONTINUOUS
 10
57.4096452819
 20
87.0876459195
  0
VERTEX
  8
0
 62
7
  6
CONTINUOUS
 10
57.3949243037
 20
87.1104910386
  0
VERTEX
  8
0
 62
7
  6
CONTINUOUS
 10
57.3814205511
 20
87.1341879741
  0
VERTEX
  8
0
 62
7
  6
CONTINUOUS
 10
57.3691829222
 20
87.1586849992
  0
VERTEX
  8
0
 62
7
  6
CONTINUOUS
 10
57.3582662112
 20
87.1839115296
  0
VERTEX
  8
0
 62
7
  6
CONTINUOUS
 10
57.3487181602
 20
87.2098008721
  0
VERTEX
  8
0
 62
7
  6
CONTINUOUS
 10
57.3405862852
 20
87.2362734606
  0
VERTEX
  8
0
 62
7
  6
CONTINUOUS
 10
57.3339074977
 20
87.2632705066
  0
VERTEX
  8
0
 62
7
  6
CONTINUOUS
 10
57.3287198017
 20
87.2907236694
  0
VERTEX
  8
0
 62
7
  6
CONTINUOUS
 10
57.3250600127
 20
87.3185557729
  0
VERTEX
  8
0
 62
7
  6
CONTINUOUS
 10
57.3229612489
 20
87.3466941142
  0
VERTEX
  8
0
 62
7
  6
CONTINUOUS
 10
57.3224270588
 20
87.3698004956
  0
SEQEND
  0
LINE
  8
0
 62
7
  6
CONTINUOUS
 10
45.4184990856
 20
100.2564555698
 11
44.7903948304
 21
100.0276773937
  0
LINE
  8
1_AXIS
 62
7
  6
CONTINUOUS
 10
48.4609462819
 20
101.3638157895
 11
45.4169413572
 21
100.2558886039
  0
LINE
  8
1_AXIS
 62
7
  6
CONTINUOUS
 10
45.4169413572
 20
86.671742975
 11
48.4609462819
 21
85.5638157895
  0
LINE
  8
0
 62
7
  6
CONTINUOUS
 10
44.7901754062
 20
86.9000335829
 11
45.4184990856
 21
86.6711760092
  0
POLYLINE
  8
0
 62
7
  6
CONTINUOUS
 66
1
 70
0
  0
VERTEX
  8
0
 62
7
  6
CONTINUOUS
 10
44.7901754062
 20
86.9000335829
  0
VERTEX
  8
0
 62
7
  6
CONTINUOUS
 10
44.7657332768
 20
86.9096774928
  0
VERTEX
  8
0
 62
7
  6
CONTINUOUS
 10
44.7416592686
 20
86.9206763606
  0
VERTEX
  8
0
 62
7
  6
CONTINUOUS
 10
44.7176369794
 20
86.9332482095
  0
VERTEX
  8
0
 62
7
  6
CONTINUOUS
 10
44.6947485608
 20
86.9468404943
  0
VERTEX
  8
0
 62
7
  6
CONTINUOUS
 10
44.674317865
 20
86.9604328649
  0
VERTEX
  8
0
 62
7
  6
CONTINUOUS
 10
44.6550925151
 20
86.9746124357
  0
VERTEX
  8
0
 62
7
  6
CONTINUOUS
 10
44.6363655698
 20
86.9898658075
  0
VERTEX
  8
0
 62
7
  6
CONTINUOUS
 10
44.6181150643
 20
87.006271852
  0
VERTEX
  8
0
 62
7
  6
CONTINUOUS
 10
44.5997246597
 20
87.0245637065
  0
VERTEX
  8
0
 62
7
  6
CONTINUOUS
 10
44.5824939451
 20
87.043568099
  0
VERTEX
  8
0
 62
7
  6
CONTINUOUS
 10
44.5677313056
 20
87.0615437355
  0
VERTEX
  8
0
 62
7
  6
CONTINUOUS
 10
44.5540527515
 20
87.0798601618
  0
VERTEX
  8
0
 62
7
  6
CONTINUOUS
 10
44.5406269919
 20
87.0997131752
  0
VERTEX
  8
0
 62
7
  6
CONTINUOUS
 10
44.5278369397
 20
87.1207622071
  0
VERTEX
  8
0
 62
7
  6
CONTINUOUS
 10
44.5156675306
 20
87.1432624686
  0
VERTEX
  8
0
 62
7
  6
CONTINUOUS
 10
44.504558756
 20
87.1665939187
  0
VERTEX
  8
0
 62
7
  6
CONTINUOUS
 10
44.4948258076
 20
87.1900637695
  0
VERTEX
  8
0
 62
7
  6
CONTINUOUS
 10
44.4863641698
 20
87.2137951459
  0
VERTEX
  8
0
 62
7
  6
CONTINUOUS
 10
44.4792114901
 20
87.2375473277
  0
VERTEX
  8
0
 62
7
  6
CONTINUOUS
 10
44.4732223131
 20
87.2617303142
  0
VERTEX
  8
0
 62
7
  6
CONTINUOUS
 10
44.4683404413
 20
87.2868013639
  0
VERTEX
  8
0
 62
7
  6
CONTINUOUS
 10
44.4646984299
 20
87.3124933468
  0
VERTEX
  8
0
 62
7
  6
CONTINUOUS
 10
44.4623711055
 20
87.3387086092
  0
VERTEX
  8
0
 62
7
  6
CONTINUOUS
 10
44.4614233897
 20
87.3653367034
  0
VERTEX
  8
0
 62
7
  6
CONTINUOUS
 10
44.4614034638
 20
87.3698004956
  0
SEQEND
  0
LINE
  8
0
 62
7
  6
CONTINUOUS
 10
128.8209462819
 20
72.3138157895
 11
69.8209462819
 21
72.3138157895
  0
LINE
  8
2_FEATURE
 62
7
  6
CONTINUOUS
 10
80.5583278549
 20
86.0638157895
 11
80.5583278549
 21
100.8638157895
  0
POLYLINE
  8
0
 62
7
  6
CONTINUOUS
 66
1
 70
0
  0
VERTEX
  8
0
 62
7
  6
CONTINUOUS
 10
139.051065235
 20
85.5712738932
  0
VERTEX
  8
0
 62
7
  6
CONTINUOUS
 10
139.0755248167
 20
85.5766562695
  0
VERTEX
  8
0
 62
7
  6
CONTINUOUS
 10
139.0995802997
 20
85.5834637279
  0
VERTEX
  8
0
 62
7
  6
CONTINUOUS
 10
139.1231616238
 20
85.5916735487
  0
VERTEX
  8
0
 62
7
  6
CONTINUOUS
 10
139.1462015701
 20
85.601259182
  0
VERTEX
  8
0
 62
7
  6
CONTINUOUS
 10
139.168633871
 20
85.612190224
  0
VERTEX
  8
0
 62
7
  6
CONTINUOUS
 10
139.1903946367
 20
85.6244322569
  0
VERTEX
  8
0
 62
7
  6
CONTINUOUS
 10
139.2114214366
 20
85.6379472384
  0
VERTEX
  8
0
 62
7
  6
CONTINUOUS
 10
139.2316548273
 20
85.652693365
  0
VERTEX
  8
0
 62
7
  6
CONTINUOUS
 10
139.2510370612
 20
85.6686254088
  0
SEQEND
  0
POLYLINE
  8
0
 62
7
  6
CONTINUOUS
 66
1
 70
0
  0
VERTEX
  8
0
 62
7
  6
CONTINUOUS
 10
59.5908273282
 20
85.5712738933
  0
VERTEX
  8
0
 62
7
  6
CONTINUOUS
 10
59.5663677465
 20
85.5766562697
  0
VERTEX
  8
0
 62
7
  6
CONTINUOUS
 10
59.5423122635
 20
85.5834637281
  0
VERTEX
  8
0
 62
7
  6
CONTINUOUS
 10
59.5187309394
 20
85.5916735489
  0
VERTEX
  8
0
 62
7
  6
CONTINUOUS
 10
59.4956909931
 20
85.6012591822
  0
VERTEX
  8
0
 62
7
  6
CONTINUOUS
 10
59.4732586921
 20
85.6121902242
  0
VERTEX
  8
0
 62
7
  6
CONTINUOUS
 10
59.4514979263
 20
85.6244322572
  0
VERTEX
  8
0
 62
7
  6
CONTINUOUS
 10
59.4304711263
 20
85.6379472387
  0
VERTEX
  8
0
 62
7
  6
CONTINUOUS
 10
59.4102377355
 20
85.6526933653
  0
VERTEX
  8
0
 62
7
  6
CONTINUOUS
 10
59.3908555015
 20
85.6686254092
  0
VERTEX
  8
0
 62
7
  6
CONTINUOUS
 10
59.3509766928
 20
85.7034677265
  0
SEQEND
  0
LINE
  8
2_FEATURE
 62
7
  6
CONTINUOUS
 10
85.1553041558
 20
86.0638157895
 11
85.1553041558
 21
100.8638157895
  0
POLYLINE
  8
0
 62
7
  6
CONTINUOUS
 66
1
 70
0
  0
VERTEX
  8
0
 62
7
  6
CONTINUOUS
 10
139.0510652355
 20
85.5712738915
  0
VERTEX
  8
0
 62
7
  6
CONTINUOUS
 10
139.0421717994
 20
85.5696597691
  0
VERTEX
  8
0
 62
7
  6
CONTINUOUS
 10
139.0332194214
 20
85.5682153019
  0
VERTEX
  8
0
 62
7
  6
CONTINUOUS
 10
139.024168692
 20
85.5669281289
  0
VERTEX
  8
0
 62
7
  6
CONTINUOUS
 10
139.0151363833
 20
85.5658353331
  0
VERTEX
  8
0
 62
7
  6
CONTINUOUS
 10
139.0062136692
 20
85.5649670471
  0
VERTEX
  8
0
 62
7
  6
CONTINUOUS
 10
138.9974375798
 20
85.5643317608
  0
VERTEX
  8
0
 62
7
  6
CONTINUOUS
 10
138.9888841589
 20
85.563950325
  0
VERTEX
  8
0
 62
7
  6
CONTINUOUS
 10
138.9805272866
 20
85.5638157895
  0
SEQEND
  0
POLYLINE
  8
0
 62
7
  6
CONTINUOUS
 66
1
 70
0
  0
VERTEX
  8
0
 62
7
  6
CONTINUOUS
 10
59.5908273277
 20
85.5712738915
  0
VERTEX
  8
0
 62
7
  6
CONTINUOUS
 10
59.5997207639
 20
85.5696597692
  0
VERTEX
  8
0
 62
7
  6
CONTINUOUS
 10
59.6086731419
 20
85.568215302
  0
VERTEX
  8
0
 62
7
  6
CONTINUOUS
 10
59.6177238714
 20
85.5669281289
  0
VERTEX
  8
0
 62
7
  6
CONTINUOUS
 10
59.6267561802
 20
85.5658353331
  0
VERTEX
  8
0
 62
7
  6
CONTINUOUS
 10
59.6356788943
 20
85.5649670471
  0
VERTEX
  8
0
 62
7
  6
CONTINUOUS
 10
59.6444549838
 20
85.5643317608
  0
VERTEX
  8
0
 62
7
  6
CONTINUOUS
 10
59.6530084048
 20
85.563950325
  0
VERTEX
  8
0
 62
7
  6
CONTINUOUS
 10
59.6613652772
 20
85.5638157895
  0
SEQEND
  0
POLYLINE
  8
0
 62
7
  6
CONTINUOUS
 66
1
 70
0
  0
VERTEX
  8
0
 62
7
  6
CONTINUOUS
 10
109.3244149055
 20
85.5712738932
  0
VERTEX
  8
0
 62
7
  6
CONTINUOUS
 10
109.3497957032
 20
85.5766562695
  0
VERTEX
  8
0
 62
7
  6
CONTINUOUS
 10
109.3749161017
 20
85.5834637279
  0
VERTEX
  8
0
 62
7
  6
CONTINUOUS
 10
109.3997031747
 20
85.5916735487
  0
VERTEX
  8
0
 62
7
  6
CONTINUOUS
 10
109.4240852277
 20
85.601259182
  0
VERTEX
  8
0
 62
7
  6
CONTINUOUS
 10
109.4479926419
 20
85.612190224
  0
VERTEX
  8
0
 62
7
  6
CONTINUOUS
 10
109.4713561809
 20
85.6244322569
  0
VERTEX
  8
0
 62
7
  6
CONTINUOUS
 10
109.4941093755
 20
85.6379472384
  0
VERTEX
  8
0
 62
7
  6
CONTINUOUS
 10
109.5161867146
 20
85.652693365
  0
VERTEX
  8
0
 62
7
  6
CONTINUOUS
 10
109.5375257607
 20
85.6686254088
  0
VERTEX
  8
0
 62
7
  6
CONTINUOUS
 10
109.5580655678
 20
85.6856947315
  0
VERTEX
  8
0
 62
7
  6
CONTINUOUS
 10
109.5777485256
 20
85.7038495124
  0
VERTEX
  8
0
 62
7
  6
CONTINUOUS
 10
109.5965190255
 20
85.7230349783
  0
VERTEX
  8
0
 62
7
  6
CONTINUOUS
 10
109.614325002
 20
85.743193459
  0
VERTEX
  8
0
 62
7
  6
CONTINUOUS
 10
109.6311168109
 20
85.7642648348
  0
VERTEX
  8
0
 62
7
  6
CONTINUOUS
 10
109.6468485083
 20
85.7861864132
  0
VERTEX
  8
0
 62
7
  6
CONTINUOUS
 10
109.6614769096
 20
85.8088935804
  0
VERTEX
  8
0
 62
7
  6
CONTINUOUS
 10
109.6749626313
 20
85.8323195047
  0
VERTEX
  8
0
 62
7
  6
CONTINUOUS
 10
109.687269304
 20
85.8563959526
  0
VERTEX
  8
0
 62
7
  6
CONTINUOUS
 10
109.6983644085
 20
85.8810528573
  0
VERTEX
  8
0
 62
7
  6
CONTINUOUS
 10
109.7082186049
 20
85.90621921
  0
VERTEX
  8
0
 62
7
  6
CONTINUOUS
 10
109.7168064144
 20
85.931822564
  0
VERTEX
  8
0
 62
7
  6
CONTINUOUS
 10
109.7241056235
 20
85.9577899789
  0
VERTEX
  8
0
 62
7
  6
CONTINUOUS
 10
109.7300976919
 20
85.9840475616
  0
VERTEX
  8
0
 62
7
  6
CONTINUOUS
 10
109.7347680103
 20
86.0105209601
  0
VERTEX
  8
0
 62
7
  6
CONTINUOUS
 10
109.7381034634
 20
86.0371358827
  0
VERTEX
  8
0
 62
7
  6
CONTINUOUS
 10
109.740102911
 20
86.0638157895
  0
SEQEND
  0
POLYLINE
  8
0
 62
7
  6
CONTINUOUS
 66
1
 70
0
  0
VERTEX
  8
0
 62
7
  6
CONTINUOUS
 10
109.3244149057
 20
85.5712738915
  0
VERTEX
  8
0
 62
7
  6
CONTINUOUS
 10
109.3150206142
 20
85.5696597691
  0
VERTEX
  8
0
 62
7
  6
CONTINUOUS
 10
109.3050559772
 20
85.5682153019
  0
VERTEX
  8
0
 62
7
  6
CONTINUOUS
 10
109.2944944811
 20
85.5669281289
  0
VERTEX
  8
0
 62
7
  6
CONTINUOUS
 10
109.2834149435
 20
85.5658353331
  0
VERTEX
  8
0
 62
7
  6
CONTINUOUS
 10
109.2718756457
 20
85.5649670471
  0
VERTEX
  8
0
 62
7
  6
CONTINUOUS
 10
109.2599110727
 20
85.5643317608
  0
VERTEX
  8
0
 62
7
  6
CONTINUOUS
 10
109.2475819572
 20
85.563950325
  0
VERTEX
  8
0
 62
7
  6
CONTINUOUS
 10
109.2348673665
 20
85.5638157895
  0
SEQEND
  0
POLYLINE
  8
0
 62
7
  6
CONTINUOUS
 66
1
 70
0
  0
VERTEX
  8
0
 62
7
  6
CONTINUOUS
 10
113.3242307109
 20
85.5638157895
  0
VERTEX
  8
0
 62
7
  6
CONTINUOUS
 10
113.3333125468
 20
85.5646018779
  0
VERTEX
  8
0
 62
7
  6
CONTINUOUS
 10
113.3423706557
 20
85.5669577317
  0
VERTEX
  8
0
 62
7
  6
CONTINUOUS
 10
113.351372524
 20
85.5708760302
  0
VERTEX
  8
0
 62
7
  6
CONTINUOUS
 10
113.3602911926
 20
85.5763445493
  0
VERTEX
  8
0
 62
7
  6
CONTINUOUS
 10
113.3690985165
 20
85.5833461955
  0
VERTEX
  8
0
 62
7
  6
CONTINUOUS
 10
113.3777667578
 20
85.5918590562
  0
VERTEX
  8
0
 62
7
  6
CONTINUOUS
 10
113.3862685451
 20
85.6018564705
  0
VERTEX
  8
0
 62
7
  6
CONTINUOUS
 10
113.394577027
 20
85.613307106
  0
VERTEX
  8
0
 62
7
  6
CONTINUOUS
 10
113.4026659557
 20
85.6261750619
  0
VERTEX
  8
0
 62
7
  6
CONTINUOUS
 10
113.4105097063
 20
85.6404199732
  0
VERTEX
  8
0
 62
7
  6
CONTINUOUS
 10
113.4180834946
 20
85.6559971447
  0
VERTEX
  8
0
 62
7
  6
CONTINUOUS
 10
113.4253632477
 20
85.672857678
  0
VERTEX
  8
0
 62
7
  6
CONTINUOUS
 10
113.4323259662
 20
85.6909486363
  0
VERTEX
  8
0
 62
7
  6
CONTINUOUS
 10
113.4389494392
 20
85.7102131974
  0
VERTEX
  8
0
 62
7
  6
CONTINUOUS
 10
113.4452127532
 20
85.7305908425
  0
VERTEX
  8
0
 62
7
  6
CONTINUOUS
 10
113.4510958478
 20
85.7520175356
  0
VERTEX
  8
0
 62
7
  6
CONTINUOUS
 10
113.4565801704
 20
85.7744259334
  0
VERTEX
  8
0
 62
7
  6
CONTINUOUS
 10
113.461648074
 20
85.7977455889
  0
VERTEX
  8
0
 62
7
  6
CONTINUOUS
 10
113.4662836118
 20
85.8219031788
  0
VERTEX
  8
0
 62
7
  6
CONTINUOUS
 10
113.4704717833
 20
85.8468227311
  0
VERTEX
  8
0
 62
7
  6
CONTINUOUS
 10
113.4741994579
 20
85.8724258633
  0
VERTEX
  8
0
 62
7
  6
CONTINUOUS
 10
113.4774544826
 20
85.8986320391
  0
VERTEX
  8
0
 62
7
  6
CONTINUOUS
 10
113.4802267159
 20
85.9253588087
  0
VERTEX
  8
0
 62
7
  6
CONTINUOUS
 10
113.4825070156
 20
85.9525220857
  0
VERTEX
  8
0
 62
7
  6
CONTINUOUS
 10
113.484288361
 20
85.9800363907
  0
VERTEX
  8
0
 62
7
  6
CONTINUOUS
 10
113.4855647449
 20
86.0078151517
  0
VERTEX
  8
0
 62
7
  6
CONTINUOUS
 10
113.4863324612
 20
86.0357709553
  0
VERTEX
  8
0
 62
7
  6
CONTINUOUS
 10
113.4865884079
 20
86.0638157895
  0
SEQEND
  0
POLYLINE
  8
0
 62
7
  6
CONTINUOUS
 66
1
 70
0
  0
VERTEX
  8
0
 62
7
  6
CONTINUOUS
 10
117.9037814229
 20
85.5638157895
  0
VERTEX
  8
0
 62
7
  6
CONTINUOUS
 10
117.9138742775
 20
85.5646018779
  0
VERTEX
  8
0
 62
7
  6
CONTINUOUS
 10
117.9239362409
 20
85.5669577317
  0
VERTEX
  8
0
 62
7
  6
CONTINUOUS
 10
117.933931804
 20
85.5708760302
  0
VERTEX
  8
0
 62
7
  6
CONTINUOUS
 10
117.9438308647
 20
85.5763445493
  0
VERTEX
  8
0
 62
7
  6
CONTINUOUS
 10
117.9536023761
 20
85.5833461955
  0
VERTEX
  8
0
 62
7
  6
CONTINUOUS
 10
117.9632156416
 20
85.5918590562
  0
VERTEX
  8
0
 62
7
  6
CONTINUOUS
 10
117.9726405625
 20
85.6018564705
  0
VERTEX
  8
0
 62
7
  6
CONTINUOUS
 10
117.9818475289
 20
85.613307106
  0
VERTEX
  8
0
 62
7
  6
CONTINUOUS
 10
117.9908077645
 20
85.6261750619
  0
VERTEX
  8
0
 62
7
  6
CONTINUOUS
 10
117.9994931135
 20
85.6404199732
  0
VERTEX
  8
0
 62
7
  6
CONTINUOUS
 10
118.0078764803
 20
85.6559971447
  0
VERTEX
  8
0
 62
7
  6
CONTINUOUS
 10
118.0159315095
 20
85.672857678
  0
VERTEX
  8
0
 62
7
  6
CONTINUOUS
 10
118.0236331201
 20
85.6909486363
  0
VERTEX
  8
0
 62
7
  6
CONTINUOUS
 10
118.0309570825
 20
85.7102131974
  0
VERTEX
  8
0
 62
7
  6
CONTINUOUS
 10
118.0378806395
 20
85.7305908425
  0
VERTEX
  8
0
 62
7
  6
CONTINUOUS
 10
118.044381985
 20
85.7520175356
  0
VERTEX
  8
0
 62
7
  6
CONTINUOUS
 10
118.0504409656
 20
85.7744259334
  0
VERTEX
  8
0
 62
7
  6
CONTINUOUS
 10
118.0560384654
 20
85.7977455889
  0
VERTEX
  8
0
 62
7
  6
CONTINUOUS
 10
118.0611571815
 20
85.8219031788
  0
VERTEX
  8
0
 62
7
  6
CONTINUOUS
 10
118.0657809217
 20
85.8468227311
  0
VERTEX
  8
0
 62
7
  6
CONTINUOUS
 10
118.069895444
 20
85.8724258633
  0
VERTEX
  8
0
 62
7
  6
CONTINUOUS
 10
118.073487678
 20
85.8986320391
  0
VERTEX
  8
0
 62
7
  6
CONTINUOUS
 10
118.0765466151
 20
85.9253588087
  0
VERTEX
  8
0
 62
7
  6
CONTINUOUS
 10
118.0790624646
 20
85.9525220857
  0
VERTEX
  8
0
 62
7
  6
CONTINUOUS
 10
118.0810275827
 20
85.9800363907
  0
VERTEX
  8
0
 62
7
  6
CONTINUOUS
 10
118.0824355768
 20
86.0078151517
  0
VERTEX
  8
0
 62
7
  6
CONTINUOUS
 10
118.0832823411
 20
86.0357709553
  0
VERTEX
  8
0
 62
7
  6
CONTINUOUS
 10
118.0835647088
 20
86.0638157895
  0
SEQEND
  0
POLYLINE
  8
0
 62
7
  6
CONTINUOUS
 66
1
 70
0
  0
VERTEX
  8
0
 62
7
  6
CONTINUOUS
 10
139.3580578675
 20
85.5638157895
  0
VERTEX
  8
0
 62
7
  6
CONTINUOUS
 10
139.3820675419
 20
85.5646018779
  0
VERTEX
  8
0
 62
7
  6
CONTINUOUS
 10
139.4060046934
 20
85.5669577317
  0
VERTEX
  8
0
 62
7
  6
CONTINUOUS
 10
139.4297919282
 20
85.5708760302
  0
VERTEX
  8
0
 62
7
  6
CONTINUOUS
 10
139.4533551725
 20
85.5763445493
  0
VERTEX
  8
0
 62
7
  6
CONTINUOUS
 10
139.4766202829
 20
85.5833461955
  0
VERTEX
  8
0
 62
7
  6
CONTINUOUS
 10
139.4995140686
 20
85.5918590562
  0
VERTEX
  8
0
 62
7
  6
CONTINUOUS
 10
139.5219644649
 20
85.6018564705
  0
VERTEX
  8
0
 62
7
  6
CONTINUOUS
 10
139.5439007825
 20
85.613307106
  0
VERTEX
  8
0
 62
7
  6
CONTINUOUS
 10
139.5652539421
 20
85.6261750619
  0
VERTEX
  8
0
 62
7
  6
CONTINUOUS
 10
139.585956648
 20
85.6404199732
  0
VERTEX
  8
0
 62
7
  6
CONTINUOUS
 10
139.6059436823
 20
85.6559971447
  0
VERTEX
  8
0
 62
7
  6
CONTINUOUS
 10
139.6251519898
 20
85.672857678
  0
VERTEX
  8
0
 62
7
  6
CONTINUOUS
 10
139.6435210389
 20
85.6909486363
  0
VERTEX
  8
0
 62
7
  6
CONTINUOUS
 10
139.6609928157
 20
85.7102131974
  0
VERTEX
  8
0
 62
7
  6
CONTINUOUS
 10
139.677512246
 20
85.7305908425
  0
VERTEX
  8
0
 62
7
  6
CONTINUOUS
 10
139.6930270958
 20
85.7520175356
  0
VERTEX
  8
0
 62
7
  6
CONTINUOUS
 10
139.7074884512
 20
85.7744259334
  0
VERTEX
  8
0
 62
7
  6
CONTINUOUS
 10
139.7208505247
 20
85.7977455889
  0
VERTEX
  8
0
 62
7
  6
CONTINUOUS
 10
139.7330711887
 20
85.8219031788
  0
VERTEX
  8
0
 62
7
  6
CONTINUOUS
 10
139.744111688
 20
85.8468227311
  0
VERTEX
  8
0
 62
7
  6
CONTINUOUS
 10
139.7539372199
 20
85.8724258633
  0
VERTEX
  8
0
 62
7
  6
CONTINUOUS
 10
139.7625165603
 20
85.8986320391
  0
VERTEX
  8
0
 62
7
  6
CONTINUOUS
 10
139.7698226772
 20
85.9253588087
  0
VERTEX
  8
0
 62
7
  6
CONTINUOUS
 10
139.7758322765
 20
85.9525220857
  0
VERTEX
  8
0
 62
7
  6
CONTINUOUS
 10
139.7805264401
 20
85.9800363907
  0
VERTEX
  8
0
 62
7
  6
CONTINUOUS
 10
139.7838901019
 20
86.0078151517
  0
VERTEX
  8
0
 62
7
  6
CONTINUOUS
 10
139.7859127513
 20
86.0357709553
  0
VERTEX
  8
0
 62
7
  6
CONTINUOUS
 10
139.7865875766
 20
86.0638157895
  0
SEQEND
  0
POLYLINE
  8
0
 62
7
  6
CONTINUOUS
 66
1
 70
0
  0
VERTEX
  8
0
 62
7
  6
CONTINUOUS
 10
141.7947859053
 20
85.5638157895
  0
VERTEX
  8
0
 62
7
  6
CONTINUOUS
 10
141.8193335683
 20
85.5646018779
  0
VERTEX
  8
0
 62
7
  6
CONTINUOUS
 10
141.8438048228
 20
85.5669577317
  0
VERTEX
  8
0
 62
7
  6
CONTINUOUS
 10
141.8681207913
 20
85.5708760302
  0
VERTEX
  8
0
 62
7
  6
CONTINUOUS
 10
141.8922056917
 20
85.5763445493
  0
VERTEX
  8
0
 62
7
  6
CONTINUOUS
 10
141.9159838351
 20
85.5833461955
  0
VERTEX
  8
0
 62
7
  6
CONTINUOUS
 10
141.9393804581
 20
85.5918590562
  0
VERTEX
  8
0
 62
7
  6
CONTINUOUS
 10
141.9623220429
 20
85.6018564705
  0
VERTEX
  8
0
 62
7
  6
CONTINUOUS
 10
141.9847364347
 20
85.613307106
  0
VERTEX
  8
0
 62
7
  6
CONTINUOUS
 10
142.0065532063
 20
85.6261750619
  0
VERTEX
  8
0
 62
7
  6
CONTINUOUS
 10
142.0277037181
 20
85.6404199732
  0
VERTEX
  8
0
 62
7
  6
CONTINUOUS
 10
142.0481215192
 20
85.6559971447
  0
VERTEX
  8
0
 62
7
  6
CONTINUOUS
 10
142.0677423434
 20
85.672857678
  0
VERTEX
  8
0
 62
7
  6
CONTINUOUS
 10
142.0865045477
 20
85.6909486363
  0
VERTEX
  8
0
 62
7
  6
CONTINUOUS
 10
142.1043490482
 20
85.7102131974
  0
VERTEX
  8
0
 62
7
  6
CONTINUOUS
 10
142.1212197854
 20
85.7305908425
  0
VERTEX
  8
0
 62
7
  6
CONTINUOUS
 10
142.1370636007
 20
85.7520175356
  0
VERTEX
  8
0
 62
7
  6
CONTINUOUS
 10
142.151830724
 20
85.7744259334
  0
VERTEX
  8
0
 62
7
  6
CONTINUOUS
 10
142.165474591
 20
85.7977455889
  0
VERTEX
  8
0
 62
7
  6
CONTINUOUS
 10
142.1779523475
 20
85.8219031788
  0
VERTEX
  8
0
 62
7
  6
CONTINUOUS
 10
142.1892246094
 20
85.8468227311
  0
VERTEX
  8
0
 62
7
  6
CONTINUOUS
 10
142.1992559773
 20
85.8724258633
  0
VERTEX
  8
0
 62
7
  6
CONTINUOUS
 10
142.2080147443
 20
85.8986320391
  0
VERTEX
  8
0
 62
7
  6
CONTINUOUS
 10
142.2154734118
 20
85.9253588087
  0
VERTEX
  8
0
 62
7
  6
CONTINUOUS
 10
142.2216083458
 20
85.9525220857
  0
VERTEX
  8
0
 62
7
  6
CONTINUOUS
 10
142.2264002915
 20
85.9800363907
  0
VERTEX
  8
0
 62
7
  6
CONTINUOUS
 10
142.229833983
 20
86.0078151517
  0
VERTEX
  8
0
 62
7
  6
CONTINUOUS
 10
142.2318986896
 20
86.0357709553
  0
VERTEX
  8
0
 62
7
  6
CONTINUOUS
 10
142.2325875766
 20
86.0638157895
  0
SEQEND
  0
LINE
  8
0
 62
7
  6
CONTINUOUS
 10
150.1809463274
 20
85.5638157895
 11
89.4070251973
 21
85.5638157895
  0
LINE
  8
2_FEATURE
 62
7
  6
CONTINUOUS
 10
89.4070251973
 20
85.5638157895
 11
74.8503735899
 21
85.5638157895
  0
LINE
  8
0
 62
7
  6
CONTINUOUS
 10
74.8503735899
 20
85.5638157895
 11
51.9285094016
 21
85.5638157895
  0
LINE
  8
0
 62
7
  6
CONTINUOUS
 10
51.915932736
 20
85.5638157895
 11
48.4609462848
 21
85.5638157895
  0
POLYLINE
  8
0
 62
7
  6
CONTINUOUS
 66
1
 70
0
  0
VERTEX
  8
0
 62
7
  6
CONTINUOUS
 10
56.8471066585
 20
85.5638157895
  0
VERTEX
  8
0
 62
7
  6
CONTINUOUS
 10
56.8225576274
 20
85.5646018779
  0
VERTEX
  8
0
 62
7
  6
CONTINUOUS
 10
56.7980877409
 20
85.5669577317
  0
VERTEX
  8
0
 62
7
  6
CONTINUOUS
 10
56.7737717671
 20
85.5708760302
  0
VERTEX
  8
0
 62
7
  6
CONTINUOUS
 10
56.7496868721
 20
85.5763445493
  0
VERTEX
  8
0
 62
7
  6
CONTINUOUS
 10
56.7259087303
 20
85.5833461955
  0
VERTEX
  8
0
 62
7
  6
CONTINUOUS
 10
56.7025121057
 20
85.5918590562
  0
VERTEX
  8
0
 62
7
  6
CONTINUOUS
 10
56.6795705301
 20
85.6018564705
  0
VERTEX
  8
0
 62
7
  6
CONTINUOUS
 10
56.657156129
 20
85.613307106
  0
VERTEX
  8
0
 62
7
  6
CONTINUOUS
 10
56.6353393746
 20
85.6261750619
  0
VERTEX
  8
0
 62
7
  6
CONTINUOUS
 10
56.6141888456
 20
85.6404199732
  0
VERTEX
  8
0
 62
7
  6
CONTINUOUS
 10
56.5937710699
 20
85.6559971447
  0
VERTEX
  8
0
 62
7
  6
CONTINUOUS
 10
56.5741502204
 20
85.672857678
  0
VERTEX
  8
0
 62
7
  6
CONTINUOUS
 10
56.5553880497
 20
85.6909486363
  0
VERTEX
  8
0
 62
7
  6
CONTINUOUS
 10
56.5375435156
 20
85.7102131974
  0
VERTEX
  8
0
 62
7
  6
CONTINUOUS
 10
56.5206728201
 20
85.7305908425
  0
VERTEX
  8
0
 62
7
  6
CONTINUOUS
 10
56.5048289631
 20
85.7520175356
  0
VERTEX
  8
0
 62
7
  6
CONTINUOUS
 10
56.490061889
 20
85.7744259334
  0
VERTEX
  8
0
 62
7
  6
CONTINUOUS
 10
56.4764179727
 20
85.7977455889
  0
VERTEX
  8
0
 62
7
  6
CONTINUOUS
 10
56.4639402725
 20
85.8219031788
  0
VERTEX
  8
0
 62
7
  6
CONTINUOUS
 10
56.4526679544
 20
85.8468227311
  0
VERTEX
  8
0
 62
7
  6
CONTINUOUS
 10
56.4426366486
 20
85.8724258633
  0
VERTEX
  8
0
 62
7
  6
CONTINUOUS
 10
56.4338778194
 20
85.8986320391
  0
VERTEX
  8
0
 62
7
  6
CONTINUOUS
 10
56.4264192187
 20
85.9253588087
  0
VERTEX
  8
0
 62
7
  6
CONTINUOUS
 10
56.4202842179
 20
85.9525220857
  0
VERTEX
  8
0
 62
7
  6
CONTINUOUS
 10
56.4154923422
 20
85.9800363907
  0
VERTEX
  8
0
 62
7
  6
CONTINUOUS
 10
56.4120585808
 20
86.0078151517
  0
VERTEX
  8
0
 62
7
  6
CONTINUOUS
 10
56.4099940434
 20
86.0357709553
  0
VERTEX
  8
0
 62
7
  6
CONTINUOUS
 10
56.4093049872
 20
86.0638157895
  0
SEQEND
  0
POLYLINE
  8
0
 62
7
  6
CONTINUOUS
 66
1
 70
0
  0
VERTEX
  8
0
 62
7
  6
CONTINUOUS
 10
59.2838346963
 20
85.5638157895
  0
VERTEX
  8
0
 62
7
  6
CONTINUOUS
 10
59.2598235609
 20
85.5646018779
  0
VERTEX
  8
0
 62
7
  6
CONTINUOUS
 10
59.2358878704
 20
85.5669577317
  0
VERTEX
  8
0
 62
7
  6
CONTINUOUS
 10
59.2121006309
 20
85.5708760302
  0
VERTEX
  8
0
 62
7
  6
CONTINUOUS
 10
59.1885373912
 20
85.5763445493
  0
VERTEX
  8
0
 62
7
  6
CONTINUOUS
 10
59.1652722837
 20
85.5833461955
  0
VERTEX
  8
0
 62
7
  6
CONTINUOUS
 10
59.1423784951
 20
85.5918590562
  0
VERTEX
  8
0
 62
7
  6
CONTINUOUS
 10
59.1199281097
 20
85.6018564705
  0
VERTEX
  8
0
 62
7
  6
CONTINUOUS
 10
59.0979917813
 20
85.613307106
  0
VERTEX
  8
0
 62
7
  6
CONTINUOUS
 10
59.0766386408
 20
85.6261750619
  0
VERTEX
  8
0
 62
7
  6
CONTINUOUS
 10
59.0559359157
 20
85.6404199732
  0
VERTEX
  8
0
 62
7
  6
CONTINUOUS
 10
59.0359489091
 20
85.6559971447
  0
VERTEX
  8
0
 62
7
  6
CONTINUOUS
 10
59.016740574
 20
85.672857678
  0
VERTEX
  8
0
 62
7
  6
CONTINUOUS
 10
58.9983715611
 20
85.6909486363
  0
VERTEX
  8
0
 62
7
  6
CONTINUOUS
 10
58.9808997481
 20
85.7102131974
  0
VERTEX
  8
0
 62
7
  6
CONTINUOUS
 10
58.9643803623
 20
85.7305908425
  0
VERTEX
  8
0
 62
7
  6
CONTINUOUS
 10
58.948865468
 20
85.7520175356
  0
VERTEX
  8
0
 62
7
  6
CONTINUOUS
 10
58.9344041649
 20
85.7744259334
  0
VERTEX
  8
0
 62
7
  6
CONTINUOUS
 10
58.921042039
 20
85.7977455889
  0
VERTEX
  8
0
 62
7
  6
CONTINUOUS
 10
58.9088214345
 20
85.8219031788
  0
VERTEX
  8
0
 62
7
  6
CONTINUOUS
 10
58.8977808757
 20
85.8468227311
  0
VERTEX
  8
0
 62
7
  6
CONTINUOUS
 10
58.8879554094
 20
85.8724258633
  0
VERTEX
  8
0
 62
7
  6
CONTINUOUS
 10
58.8793760035
 20
85.8986320391
  0
VERTEX
  8
0
 62
7
  6
CONTINUOUS
 10
58.8720699567
 20
85.9253588087
  0
VERTEX
  8
0
 62
7
  6
CONTINUOUS
 10
58.8660602873
 20
85.9525220857
  0
VERTEX
  8
0
 62
7
  6
CONTINUOUS
 10
58.8613661972
 20
85.9800363907
  0
VERTEX
  8
0
 62
7
  6
CONTINUOUS
 10
58.8580024619
 20
86.0078151517
  0
VERTEX
  8
0
 62
7
  6
CONTINUOUS
 10
58.8559799903
 20
86.0357709553
  0
VERTEX
  8
0
 62
7
  6
CONTINUOUS
 10
58.8553049872
 20
86.0638157895
  0
SEQEND
  0
POLYLINE
  8
2_FEATURE
 62
7
  6
CONTINUOUS
 66
1
 70
0
  0
VERTEX
  8
2_FEATURE
 62
7
  6
CONTINUOUS
 10
80.7381111409
 20
85.5638157895
  0
VERTEX
  8
2_FEATURE
 62
7
  6
CONTINUOUS
 10
80.7280156462
 20
85.5646018779
  0
VERTEX
  8
2_FEATURE
 62
7
  6
CONTINUOUS
 10
80.7179563228
 20
85.5669577317
  0
VERTEX
  8
2_FEATURE
 62
7
  6
CONTINUOUS
 10
80.7079607503
 20
85.5708760302
  0
VERTEX
  8
2_FEATURE
 62
7
  6
CONTINUOUS
 10
80.698061699
 20
85.5763445493
  0
VERTEX
  8
2_FEATURE
 62
7
  6
CONTINUOUS
 10
80.6882901916
 20
85.5833461955
  0
VERTEX
  8
2_FEATURE
 62
7
  6
CONTINUOUS
 10
80.6786769222
 20
85.5918590562
  0
VERTEX
  8
2_FEATURE
 62
7
  6
CONTINUOUS
 10
80.6692520197
 20
85.6018564705
  0
VERTEX
  8
2_FEATURE
 62
7
  6
CONTINUOUS
 10
80.6600450349
 20
85.613307106
  0
VERTEX
  8
2_FEATURE
 62
7
  6
CONTINUOUS
 10
80.651084833
 20
85.6261750619
  0
VERTEX
  8
2_FEATURE
 62
7
  6
CONTINUOUS
 10
80.6423994502
 20
85.6404199732
  0
VERTEX
  8
2_FEATURE
 62
7
  6
CONTINUOUS
 10
80.6340161329
 20
85.6559971447
  0
VERTEX
  8
2_FEATURE
 62
7
  6
CONTINUOUS
 10
80.6259610542
 20
85.672857678
  0
VERTEX
  8
2_FEATURE
 62
7
  6
CONTINUOUS
 10
80.6182595088
 20
85.6909486363
  0
VERTEX
  8
2_FEATURE
 62
7
  6
CONTINUOUS
 10
80.6109354813
 20
85.7102131974
  0
VERTEX
  8
2_FEATURE
 62
7
  6
CONTINUOUS
 10
80.6040120047
 20
85.7305908425
  0
VERTEX
  8
2_FEATURE
 62
7
  6
CONTINUOUS
 10
80.5975105788
 20
85.7520175356
  0
VERTEX
  8
2_FEATURE
 62
7
  6
CONTINUOUS
 10
80.5914516931
 20
85.7744259334
  0
VERTEX
  8
2_FEATURE
 62
7
  6
CONTINUOUS
 10
80.5858540984
 20
85.7977455889
  0
VERTEX
  8
2_FEATURE
 62
7
  6
CONTINUOUS
 10
80.5807354904
 20
85.8219031788
  0
VERTEX
  8
2_FEATURE
 62
7
  6
CONTINUOUS
 10
80.576111642
 20
85.8468227311
  0
VERTEX
  8
2_FEATURE
 62
7
  6
CONTINUOUS
 10
80.571997239
 20
85.8724258633
  0
VERTEX
  8
2_FEATURE
 62
7
  6
CONTINUOUS
 10
80.5684048857
 20
85.8986320391
  0
VERTEX
  8
2_FEATURE
 62
7
  6
CONTINUOUS
 10
80.5653460767
 20
85.9253588087
  0
VERTEX
  8
2_FEATURE
 62
7
  6
CONTINUOUS
 10
80.5628300992
 20
85.9525220857
  0
VERTEX
  8
2_FEATURE
 62
7
  6
CONTINUOUS
 10
80.5608651151
 20
85.9800363907
  0
VERTEX
  8
2_FEATURE
 62
7
  6
CONTINUOUS
 10
80.559456987
 20
86.0078151517
  0
VERTEX
  8
2_FEATURE
 62
7
  6
CONTINUOUS
 10
80.558610547
 20
86.0357709553
  0
VERTEX
  8
2_FEATURE
 62
7
  6
CONTINUOUS
 10
80.5583278549
 20
86.0638157895
  0
SEQEND
  0
POLYLINE
  8
2_FEATURE
 62
7
  6
CONTINUOUS
 66
1
 70
0
  0
VERTEX
  8
2_FEATURE
 62
7
  6
CONTINUOUS
 10
85.3176618528
 20
85.5638157895
  0
VERTEX
  8
2_FEATURE
 62
7
  6
CONTINUOUS
 10
85.3085773403
 20
85.5646018779
  0
VERTEX
  8
2_FEATURE
 62
7
  6
CONTINUOUS
 10
85.299521908
 20
85.5669577317
  0
VERTEX
  8
2_FEATURE
 62
7
  6
CONTINUOUS
 10
85.2905200305
 20
85.5708760302
  0
VERTEX
  8
2_FEATURE
 62
7
  6
CONTINUOUS
 10
85.2816013711
 20
85.5763445493
  0
VERTEX
  8
2_FEATURE
 62
7
  6
CONTINUOUS
 10
85.2727940517
 20
85.5833461955
  0
VERTEX
  8
2_FEATURE
 62
7
  6
CONTINUOUS
 10
85.2641258059
 20
85.5918590562
  0
VERTEX
  8
2_FEATURE
 62
7
  6
CONTINUOUS
 10
85.2556240378
 20
85.6018564705
  0
VERTEX
  8
2_FEATURE
 62
7
  6
CONTINUOUS
 10
85.2473155368
 20
85.613307106
  0
VERTEX
  8
2_FEATURE
 62
7
  6
CONTINUOUS
 10
85.2392266426
 20
85.6261750619
  0
VERTEX
  8
2_FEATURE
 62
7
  6
CONTINUOUS
 10
85.2313828575
 20
85.6404199732
  0
VERTEX
  8
2_FEATURE
 62
7
  6
CONTINUOUS
 10
85.2238091195
 20
85.6559971447
  0
VERTEX
  8
2_FEATURE
 62
7
  6
CONTINUOUS
 10
85.216529316
 20
85.672857678
  0
VERTEX
  8
2_FEATURE
 62
7
  6
CONTINUOUS
 10
85.2095666637
 20
85.6909486363
  0
VERTEX
  8
2_FEATURE
 62
7
  6
CONTINUOUS
 10
85.2029431245
 20
85.7102131974
  0
VERTEX
  8
2_FEATURE
 62
7
  6
CONTINUOUS
 10
85.1966798922
 20
85.7305908425
  0
VERTEX
  8
2_FEATURE
 62
7
  6
CONTINUOUS
 10
85.190796716
 20
85.7520175356
  0
VERTEX
  8
2_FEATURE
 62
7
  6
CONTINUOUS
 10
85.1853124895
 20
85.7744259334
  0
VERTEX
  8
2_FEATURE
 62
7
  6
CONTINUOUS
 10
85.1802444897
 20
85.7977455889
  0
VERTEX
  8
2_FEATURE
 62
7
  6
CONTINUOUS
 10
85.1756090613
 20
85.8219031788
  0
VERTEX
  8
2_FEATURE
 62
7
  6
CONTINUOUS
 10
85.1714207804
 20
85.8468227311
  0
VERTEX
  8
2_FEATURE
 62
7
  6
CONTINUOUS
 10
85.1676932264
 20
85.8724258633
  0
VERTEX
  8
2_FEATURE
 62
7
  6
CONTINUOUS
 10
85.1644380812
 20
85.8986320391
  0
VERTEX
  8
2_FEATURE
 62
7
  6
CONTINUOUS
 10
85.1616659772
 20
85.9253588087
  0
VERTEX
  8
2_FEATURE
 62
7
  6
CONTINUOUS
 10
85.1593855481
 20
85.9525220857
  0
VERTEX
  8
2_FEATURE
 62
7
  6
CONTINUOUS
 10
85.1576043382
 20
85.9800363907
  0
VERTEX
  8
2_FEATURE
 62
7
  6
CONTINUOUS
 10
85.1563278188
 20
86.0078151517
  0
VERTEX
  8
2_FEATURE
 62
7
  6
CONTINUOUS
 10
85.1555604304
 20
86.0357709553
  0
VERTEX
  8
2_FEATURE
 62
7
  6
CONTINUOUS
 10
85.1553041558
 20
86.0638157895
  0
SEQEND
  0
POLYLINE
  8
2_FEATURE
 62
7
  6
CONTINUOUS
 66
1
 70
0
  0
VERTEX
  8
2_FEATURE
 62
7
  6
CONTINUOUS
 10
89.3174776575
 20
85.5712738915
  0
VERTEX
  8
2_FEATURE
 62
7
  6
CONTINUOUS
 10
89.326871949
 20
85.5696597692
  0
VERTEX
  8
2_FEATURE
 62
7
  6
CONTINUOUS
 10
89.3368365861
 20
85.568215302
  0
VERTEX
  8
2_FEATURE
 62
7
  6
CONTINUOUS
 10
89.3473980822
 20
85.5669281289
  0
VERTEX
  8
2_FEATURE
 62
7
  6
CONTINUOUS
 10
89.3584776199
 20
85.5658353331
  0
VERTEX
  8
2_FEATURE
 62
7
  6
CONTINUOUS
 10
89.3700169177
 20
85.5649670471
  0
VERTEX
  8
2_FEATURE
 62
7
  6
CONTINUOUS
 10
89.3819814909
 20
85.5643317608
  0
VERTEX
  8
2_FEATURE
 62
7
  6
CONTINUOUS
 10
89.3943106064
 20
85.563950325
  0
VERTEX
  8
2_FEATURE
 62
7
  6
CONTINUOUS
 10
89.4070251973
 20
85.5638157895
  0
SEQEND
  0
POLYLINE
  8
2_FEATURE
 62
7
  6
CONTINUOUS
 66
1
 70
0
  0
VERTEX
  8
2_FEATURE
 62
7
  6
CONTINUOUS
 10
89.3174776576
 20
85.5712738933
  0
VERTEX
  8
2_FEATURE
 62
7
  6
CONTINUOUS
 10
89.29209686
 20
85.5766562697
  0
VERTEX
  8
2_FEATURE
 62
7
  6
CONTINUOUS
 10
89.2669764616
 20
85.5834637281
  0
VERTEX
  8
2_FEATURE
 62
7
  6
CONTINUOUS
 10
89.2421893886
 20
85.5916735489
  0
VERTEX
  8
2_FEATURE
 62
7
  6
CONTINUOUS
 10
89.2178073357
 20
85.6012591822
  0
VERTEX
  8
2_FEATURE
 62
7
  6
CONTINUOUS
 10
89.1938999216
 20
85.6121902242
  0
VERTEX
  8
2_FEATURE
 62
7
  6
CONTINUOUS
 10
89.1705363826
 20
85.6244322572
  0
VERTEX
  8
2_FEATURE
 62
7
  6
CONTINUOUS
 10
89.1477831881
 20
85.6379472387
  0
VERTEX
  8
2_FEATURE
 62
7
  6
CONTINUOUS
 10
89.1257058491
 20
85.6526933653
  0
VERTEX
  8
2_FEATURE
 62
7
  6
CONTINUOUS
 10
89.1043668031
 20
85.6686254092
  0
VERTEX
  8
2_FEATURE
 62
7
  6
CONTINUOUS
 10
89.0838269961
 20
85.6856947319
  0
VERTEX
  8
2_FEATURE
 62
7
  6
CONTINUOUS
 10
89.0641440384
 20
85.7038495129
  0
VERTEX
  8
2_FEATURE
 62
7
  6
CONTINUOUS
 10
89.0453735386
 20
85.7230349789
  0
VERTEX
  8
2_FEATURE
 62
7
  6
CONTINUOUS
 10
89.0275675623
 20
85.7431934597
  0
VERTEX
  8
2_FEATURE
 62
7
  6
CONTINUOUS
 10
89.0107757536
 20
85.7642648355
  0
VERTEX
  8
2_FEATURE
 62
7
  6
CONTINUOUS
 10
88.9950440565
 20
85.7861864141
  0
VERTEX
  8
2_FEATURE
 62
7
  6
CONTINUOUS
 10
88.9804156555
 20
85.8088935814
  0
VERTEX
  8
2_FEATURE
 62
7
  6
CONTINUOUS
 10
88.9669299342
 20
85.8323195059
  0
VERTEX
  8
2_FEATURE
 62
7
  6
CONTINUOUS
 10
88.954623262
 20
85.8563959541
  0
VERTEX
  8
2_FEATURE
 62
7
  6
CONTINUOUS
 10
88.9435281582
 20
85.8810528592
  0
VERTEX
  8
2_FEATURE
 62
7
  6
CONTINUOUS
 10
88.9336739628
 20
85.9062192123
  0
VERTEX
  8
2_FEATURE
 62
7
  6
CONTINUOUS
 10
88.9250861545
 20
85.9318225668
  0
VERTEX
  8
2_FEATURE
 62
7
  6
CONTINUOUS
 10
88.9177869475
 20
85.9577899828
  0
VERTEX
  8
2_FEATURE
 62
7
  6
CONTINUOUS
 10
88.9117948854
 20
85.9840475686
  0
VERTEX
  8
2_FEATURE
 62
7
  6
CONTINUOUS
 10
88.907124571
 20
86.0105209689
  0
VERTEX
  8
2_FEATURE
 62
7
  6
CONTINUOUS
 10
88.9037891129
 20
86.0371358888
  0
VERTEX
  8
2_FEATURE
 62
7
  6
CONTINUOUS
 10
88.9017896527
 20
86.0638157895
  0
SEQEND
  0
LINE
  8
1_AXIS
 62
2
  6
CENTER
 10
99.3209462819
 20
70.3138157895
 11
99.3209462819
 21
116.6138157895
  0
POLYLINE
  8
2_FEATURE
 62
7
  6
CONTINUOUS
 66
1
 70
0
  0
VERTEX
  8
2_FEATURE
 62
7
  6
CONTINUOUS
 10
74.9170304309
 20
85.5712738932
  0
VERTEX
  8
2_FEATURE
 62
7
  6
CONTINUOUS
 10
74.9314564871
 20
85.5766562695
  0
VERTEX
  8
2_FEATURE
 62
7
  6
CONTINUOUS
 10
74.9458876876
 20
85.5834637279
  0
VERTEX
  8
2_FEATURE
 62
7
  6
CONTINUOUS
 10
74.9602823626
 20
85.5916735487
  0
VERTEX
  8
2_FEATURE
 62
7
  6
CONTINUOUS
 10
74.9745978888
 20
85.601259182
  0
VERTEX
  8
2_FEATURE
 62
7
  6
CONTINUOUS
 10
74.9887938714
 20
85.612190224
  0
VERTEX
  8
2_FEATURE
 62
7
  6
CONTINUOUS
 10
75.0028281242
 20
85.6244322569
  0
VERTEX
  8
2_FEATURE
 62
7
  6
CONTINUOUS
 10
75.0166612408
 20
85.6379472384
  0
VERTEX
  8
2_FEATURE
 62
7
  6
CONTINUOUS
 10
75.030252296
 20
85.652693365
  0
VERTEX
  8
2_FEATURE
 62
7
  6
CONTINUOUS
 10
75.0435633774
 20
85.6686254088
  0
VERTEX
  8
2_FEATURE
 62
7
  6
CONTINUOUS
 10
75.0565553579
 20
85.6856947315
  0
VERTEX
  8
2_FEATURE
 62
7
  6
CONTINUOUS
 10
75.0691922884
 20
85.7038495124
  0
VERTEX
  8
2_FEATURE
 62
7
  6
CONTINUOUS
 10
75.0814373563
 20
85.7230349783
  0
VERTEX
  8
2_FEATURE
 62
7
  6
CONTINUOUS
 10
75.0932570149
 20
85.743193459
  0
VERTEX
  8
2_FEATURE
 62
7
  6
CONTINUOUS
 10
75.1046172118
 20
85.7642648348
  0
VERTEX
  8
2_FEATURE
 62
7
  6
CONTINUOUS
 10
75.1154871734
 20
85.7861864132
  0
VERTEX
  8
2_FEATURE
 62
7
  6
CONTINUOUS
 10
75.1258359854
 20
85.8088935804
  0
VERTEX
  8
2_FEATURE
 62
7
  6
CONTINUOUS
 10
75.1356359493
 20
85.8323195047
  0
VERTEX
  8
2_FEATURE
 62
7
  6
CONTINUOUS
 10
75.1448595875
 20
85.8563959526
  0
VERTEX
  8
2_FEATURE
 62
7
  6
CONTINUOUS
 10
75.1534825117
 20
85.8810528573
  0
VERTEX
  8
2_FEATURE
 62
7
  6
CONTINUOUS
 10
75.1614808877
 20
85.90621921
  0
VERTEX
  8
2_FEATURE
 62
7
  6
CONTINUOUS
 10
75.1688338146
 20
85.931822564
  0
VERTEX
  8
2_FEATURE
 62
7
  6
CONTINUOUS
 10
75.1755211778
 20
85.9577899789
  0
VERTEX
  8
2_FEATURE
 62
7
  6
CONTINUOUS
 10
75.1815251679
 20
85.9840475616
  0
VERTEX
  8
2_FEATURE
 62
7
  6
CONTINUOUS
 10
75.1868307613
 20
86.0105209601
  0
VERTEX
  8
2_FEATURE
 62
7
  6
CONTINUOUS
 10
75.1914192682
 20
86.0371358827
  0
VERTEX
  8
2_FEATURE
 62
7
  6
CONTINUOUS
 10
75.1952963375
 20
86.0638157895
  0
SEQEND
  0
POLYLINE
  8
0
 62
7
  6
CONTINUOUS
 66
1
 70
0
  0
VERTEX
  8
0
 62
7
  6
CONTINUOUS
 10
123.7248621333
 20
101.3563576875
  0
VERTEX
  8
0
 62
7
  6
CONTINUOUS
 10
123.7303615867
 20
101.3579718099
  0
VERTEX
  8
0
 62
7
  6
CONTINUOUS
 10
123.7366759184
 20
101.3594162771
  0
VERTEX
  8
0
 62
7
  6
CONTINUOUS
 10
123.7438063397
 20
101.3607034501
  0
VERTEX
  8
0
 62
7
  6
CONTINUOUS
 10
123.7517488673
 20
101.3617962459
  0
VERTEX
  8
0
 62
7
  6
CONTINUOUS
 10
123.7605053832
 20
101.3626645318
  0
VERTEX
  8
0
 62
7
  6
CONTINUOUS
 10
123.7700600831
 20
101.3632998181
  0
VERTEX
  8
0
 62
7
  6
CONTINUOUS
 10
123.780395963
 20
101.3636812539
  0
VERTEX
  8
0
 62
7
  6
CONTINUOUS
 10
123.7915189739
 20
101.3638157895
  0
SEQEND
  0
POLYLINE
  8
0
 62
7
  6
CONTINUOUS
 66
1
 70
0
  0
VERTEX
  8
0
 62
7
  6
CONTINUOUS
 10
123.7248621328
 20
85.5712738915
  0
VERTEX
  8
0
 62
7
  6
CONTINUOUS
 10
123.7303615862
 20
85.5696597692
  0
VERTEX
  8
0
 62
7
  6
CONTINUOUS
 10
123.736675918
 20
85.568215302
  0
VERTEX
  8
0
 62
7
  6
CONTINUOUS
 10
123.7438063393
 20
85.5669281289
  0
VERTEX
  8
0
 62
7
  6
CONTINUOUS
 10
123.751748867
 20
85.5658353331
  0
VERTEX
  8
0
 62
7
  6
CONTINUOUS
 10
123.7605053829
 20
85.5649670471
  0
VERTEX
  8
0
 62
7
  6
CONTINUOUS
 10
123.7700600829
 20
85.5643317608
  0
VERTEX
  8
0
 62
7
  6
CONTINUOUS
 10
123.7803959629
 20
85.563950325
  0
VERTEX
  8
0
 62
7
  6
CONTINUOUS
 10
123.7915189739
 20
85.5638157895
  0
SEQEND
  0
POLYLINE
  8
2_FEATURE
 62
7
  6
CONTINUOUS
 66
1
 70
0
  0
VERTEX
  8
2_FEATURE
 62
7
  6
CONTINUOUS
 10
74.9170304302
 20
101.356357686
  0
VERTEX
  8
2_FEATURE
 62
7
  6
CONTINUOUS
 10
74.9314564878
 20
101.3509753092
  0
VERTEX
  8
2_FEATURE
 62
7
  6
CONTINUOUS
 10
74.9458876893
 20
101.3441678503
  0
VERTEX
  8
2_FEATURE
 62
7
  6
CONTINUOUS
 10
74.9602823651
 20
101.3359580289
  0
VERTEX
  8
2_FEATURE
 62
7
  6
CONTINUOUS
 10
74.9745978918
 20
101.3263723952
  0
VERTEX
  8
2_FEATURE
 62
7
  6
CONTINUOUS
 10
74.9887938748
 20
101.3154413528
  0
VERTEX
  8
2_FEATURE
 62
7
  6
CONTINUOUS
 10
75.0028281277
 20
101.3031993196
  0
VERTEX
  8
2_FEATURE
 62
7
  6
CONTINUOUS
 10
75.0166612444
 20
101.289684338
  0
VERTEX
  8
2_FEATURE
 62
7
  6
CONTINUOUS
 10
75.0302522994
 20
101.2749382116
  0
VERTEX
  8
2_FEATURE
 62
7
  6
CONTINUOUS
 10
75.0435633807
 20
101.259006168
  0
VERTEX
  8
2_FEATURE
 62
7
  6
CONTINUOUS
 10
75.0565553609
 20
101.2419368458
  0
VERTEX
  8
2_FEATURE
 62
7
  6
CONTINUOUS
 10
75.0691922911
 20
101.2237820656
  0
VERTEX
  8
2_FEATURE
 62
7
  6
CONTINUOUS
 10
75.0814373588
 20
101.2045966005
  0
VERTEX
  8
2_FEATURE
 62
7
  6
CONTINUOUS
 10
75.0932570171
 20
101.1844381208
  0
VERTEX
  8
2_FEATURE
 62
7
  6
CONTINUOUS
 10
75.104617214
 20
101.163366746
  0
VERTEX
  8
2_FEATURE
 62
7
  6
CONTINUOUS
 10
75.1154871755
 20
101.1414451687
  0
VERTEX
  8
2_FEATURE
 62
7
  6
CONTINUOUS
 10
75.1258359876
 20
101.1187380025
  0
VERTEX
  8
2_FEATURE
 62
7
  6
CONTINUOUS
 10
75.1356359519
 20
101.0953120793
  0
VERTEX
  8
2_FEATURE
 62
7
  6
CONTINUOUS
 10
75.1448595906
 20
101.0712356323
  0
VERTEX
  8
2_FEATURE
 62
7
  6
CONTINUOUS
 10
75.1534825154
 20
101.0465787283
  0
VERTEX
  8
2_FEATURE
 62
7
  6
CONTINUOUS
 10
75.1614808926
 20
101.0214123762
  0
VERTEX
  8
2_FEATURE
 62
7
  6
CONTINUOUS
 10
75.1688338209
 20
100.9958090225
  0
VERTEX
  8
2_FEATURE
 62
7
  6
CONTINUOUS
 10
75.1755211865
 20
100.9698416077
  0
VERTEX
  8
2_FEATURE
 62
7
  6
CONTINUOUS
 10
75.1815251832
 20
100.9435840254
  0
VERTEX
  8
2_FEATURE
 62
7
  6
CONTINUOUS
 10
75.1868307804
 20
100.9171106263
  0
VERTEX
  8
2_FEATURE
 62
7
  6
CONTINUOUS
 10
75.1914192814
 20
100.8904957009
  0
VERTEX
  8
2_FEATURE
 62
7
  6
CONTINUOUS
 10
75.195296337
 20
100.8638157895
  0
SEQEND
  0
POLYLINE
  8
0
 62
7
  6
CONTINUOUS
 66
1
 70
0
  0
VERTEX
  8
0
 62
7
  6
CONTINUOUS
 10
123.724862133
 20
101.3563576858
  0
VERTEX
  8
0
 62
7
  6
CONTINUOUS
 10
123.7104360767
 20
101.3509753095
  0
VERTEX
  8
0
 62
7
  6
CONTINUOUS
 10
123.6960048762
 20
101.3441678511
  0
VERTEX
  8
0
 62
7
  6
CONTINUOUS
 10
123.6816102012
 20
101.3359580303
  0
VERTEX
  8
0
 62
7
  6
CONTINUOUS
 10
123.667294675
 20
101.3263723971
  0
VERTEX
  8
0
 62
7
  6
CONTINUOUS
 10
123.6530986924
 20
101.3154413551
  0
VERTEX
  8
0
 62
7
  6
CONTINUOUS
 10
123.6390644396
 20
101.3031993221
  0
VERTEX
  8
0
 62
7
  6
CONTINUOUS
 10
123.625231323
 20
101.2896843406
  0
VERTEX
  8
0
 62
7
  6
CONTINUOUS
 10
123.6116402679
 20
101.2749382141
  0
VERTEX
  8
0
 62
7
  6
CONTINUOUS
 10
123.5983291865
 20
101.2590061702
  0
VERTEX
  8
0
 62
7
  6
CONTINUOUS
 10
123.585337206
 20
101.2419368475
  0
VERTEX
  8
0
 62
7
  6
CONTINUOUS
 10
123.5727002757
 20
101.2237820667
  0
VERTEX
  8
0
 62
7
  6
CONTINUOUS
 10
123.5604552079
 20
101.2045966007
  0
VERTEX
  8
0
 62
7
  6
CONTINUOUS
 10
123.5486355496
 20
101.1844381199
  0
VERTEX
  8
0
 62
7
  6
CONTINUOUS
 10
123.5372753529
 20
101.1633667441
  0
VERTEX
  8
0
 62
7
  6
CONTINUOUS
 10
123.5264053917
 20
101.1414451656
  0
VERTEX
  8
0
 62
7
  6
CONTINUOUS
 10
123.5160565803
 20
101.1187379983
  0
VERTEX
  8
0
 62
7
  6
CONTINUOUS
 10
123.506256617
 20
101.0953120739
  0
VERTEX
  8
0
 62
7
  6
CONTINUOUS
 10
123.4970329798
 20
101.0712356259
  0
VERTEX
  8
0
 62
7
  6
CONTINUOUS
 10
123.4884100568
 20
101.0465787209
  0
VERTEX
  8
0
 62
7
  6
CONTINUOUS
 10
123.4804116825
 20
101.0214123679
  0
VERTEX
  8
0
 62
7
  6
CONTINUOUS
 10
123.4730587577
 20
100.9958090135
  0
VERTEX
  8
0
 62
7
  6
CONTINUOUS
 10
123.4663713987
 20
100.9698415978
  0
VERTEX
  8
0
 62
7
  6
CONTINUOUS
 10
123.4603674206
 20
100.9435840129
  0
VERTEX
  8
0
 62
7
  6
CONTINUOUS
 10
123.4550618346
 20
100.9171106131
  0
VERTEX
  8
0
 62
7
  6
CONTINUOUS
 10
123.4504733183
 20
100.8904956922
  0
VERTEX
  8
0
 62
7
  6
CONTINUOUS
 10
123.4465962266
 20
100.8638157895
  0
SEQEND
  0
POLYLINE
  8
2_FEATURE
 62
7
  6
CONTINUOUS
 66
1
 70
0
  0
VERTEX
  8
2_FEATURE
 62
7
  6
CONTINUOUS
 10
74.9170304306
 20
85.5712738915
  0
VERTEX
  8
2_FEATURE
 62
7
  6
CONTINUOUS
 10
74.9115309772
 20
85.5696597691
  0
VERTEX
  8
2_FEATURE
 62
7
  6
CONTINUOUS
 10
74.9052166455
 20
85.5682153019
  0
VERTEX
  8
2_FEATURE
 62
7
  6
CONTINUOUS
 10
74.8980862241
 20
85.5669281289
  0
VERTEX
  8
2_FEATURE
 62
7
  6
CONTINUOUS
 10
74.8901436965
 20
85.5658353331
  0
VERTEX
  8
2_FEATURE
 62
7
  6
CONTINUOUS
 10
74.8813871807
 20
85.5649670471
  0
VERTEX
  8
2_FEATURE
 62
7
  6
CONTINUOUS
 10
74.8718324807
 20
85.5643317608
  0
VERTEX
  8
2_FEATURE
 62
7
  6
CONTINUOUS
 10
74.8614966008
 20
85.563950325
  0
VERTEX
  8
2_FEATURE
 62
7
  6
CONTINUOUS
 10
74.8503735899
 20
85.5638157895
  0
SEQEND
  0
POLYLINE
  8
2_FEATURE
 62
7
  6
CONTINUOUS
 66
1
 70
0
  0
VERTEX
  8
2_FEATURE
 62
7
  6
CONTINUOUS
 10
74.9170304299
 20
101.3563576876
  0
VERTEX
  8
2_FEATURE
 62
7
  6
CONTINUOUS
 10
74.9115309766
 20
101.35797181
  0
VERTEX
  8
2_FEATURE
 62
7
  6
CONTINUOUS
 10
74.905216645
 20
101.3594162772
  0
VERTEX
  8
2_FEATURE
 62
7
  6
CONTINUOUS
 10
74.8980862237
 20
101.3607034501
  0
VERTEX
  8
2_FEATURE
 62
7
  6
CONTINUOUS
 10
74.8901436961
 20
101.3617962459
  0
VERTEX
  8
2_FEATURE
 62
7
  6
CONTINUOUS
 10
74.8813871803
 20
101.3626645319
  0
VERTEX
  8
2_FEATURE
 62
7
  6
CONTINUOUS
 10
74.8718324804
 20
101.3632998181
  0
VERTEX
  8
2_FEATURE
 62
7
  6
CONTINUOUS
 10
74.8614966007
 20
101.3636812539
  0
VERTEX
  8
2_FEATURE
 62
7
  6
CONTINUOUS
 10
74.8503735899
 20
101.3638157895
  0
SEQEND
  0
POLYLINE
  8
0
 62
7
  6
CONTINUOUS
 66
1
 70
0
  0
VERTEX
  8
0
 62
7
  6
CONTINUOUS
 10
123.7248621325
 20
85.5712738933
  0
VERTEX
  8
0
 62
7
  6
CONTINUOUS
 10
123.7104360763
 20
85.5766562697
  0
VERTEX
  8
0
 62
7
  6
CONTINUOUS
 10
123.696004876
 20
85.5834637281
  0
VERTEX
  8
0
 62
7
  6
CONTINUOUS
 10
123.6816102011
 20
85.5916735489
  0
VERTEX
  8
0
 62
7
  6
CONTINUOUS
 10
123.6672946751
 20
85.6012591822
  0
VERTEX
  8
0
 62
7
  6
CONTINUOUS
 10
123.6530986926
 20
85.6121902242
  0
VERTEX
  8
0
 62
7
  6
CONTINUOUS
 10
123.63906444
 20
85.6244322572
  0
VERTEX
  8
0
 62
7
  6
CONTINUOUS
 10
123.6252313235
 20
85.6379472387
  0
VERTEX
  8
0
 62
7
  6
CONTINUOUS
 10
123.6116402686
 20
85.6526933653
  0
VERTEX
  8
0
 62
7
  6
CONTINUOUS
 10
123.5983291874
 20
85.6686254092
  0
VERTEX
  8
0
 62
7
  6
CONTINUOUS
 10
123.5853372072
 20
85.6856947319
  0
VERTEX
  8
0
 62
7
  6
CONTINUOUS
 10
123.572700277
 20
85.7038495129
  0
VERTEX
  8
0
 62
7
  6
CONTINUOUS
 10
123.5604552095
 20
85.7230349789
  0
VERTEX
  8
0
 62
7
  6
CONTINUOUS
 10
123.5486355515
 20
85.7431934597
  0
VERTEX
  8
0
 62
7
  6
CONTINUOUS
 10
123.5372753551
 20
85.7642648355
  0
VERTEX
  8
0
 62
7
  6
CONTINUOUS
 10
123.5264053943
 20
85.7861864141
  0
VERTEX
  8
0
 62
7
  6
CONTINUOUS
 10
123.5160565832
 20
85.8088935814
  0
VERTEX
  8
0
 62
7
  6
CONTINUOUS
 10
123.5062566204
 20
85.8323195059
  0
VERTEX
  8
0
 62
7
  6
CONTINUOUS
 10
123.4970329837
 20
85.8563959541
  0
VERTEX
  8
0
 62
7
  6
CONTINUOUS
 10
123.4884100614
 20
85.8810528592
  0
VERTEX
  8
0
 62
7
  6
CONTINUOUS
 10
123.480411688
 20
85.9062192123
  0
VERTEX
  8
0
 62
7
  6
CONTINUOUS
 10
123.4730587642
 20
85.9318225668
  0
VERTEX
  8
0
 62
7
  6
CONTINUOUS
 10
123.4663714069
 20
85.9577899828
  0
VERTEX
  8
0
 62
7
  6
CONTINUOUS
 10
123.4603674341
 20
85.9840475686
  0
VERTEX
  8
0
 62
7
  6
CONTINUOUS
 10
123.4550618508
 20
86.0105209689
  0
VERTEX
  8
0
 62
7
  6
CONTINUOUS
 10
123.4504733293
 20
86.0371358888
  0
VERTEX
  8
0
 62
7
  6
CONTINUOUS
 10
123.4465962262
 20
86.0638157895
  0
SEQEND
  0
LINE
  8
0
 62
7
  6
CONTINUOUS
 10
48.4609462848
 20
101.3638157895
 11
74.8503735899
 21
101.3638157895
  0
LINE
  8
2_FEATURE
 62
7
  6
CONTINUOUS
 10
74.8503735899
 20
101.3638157895
 11
89.4070251973
 21
101.3638157895
  0
LINE
  8
0
 62
7
  6
CONTINUOUS
 10
89.4070251973
 20
101.3638157895
 11
146.7133831621
 21
101.3638157895
  0
LINE
  8
0
 62
7
  6
CONTINUOUS
 10
146.7259598277
 20
101.3638157895
 11
150.1809463274
 21
101.3638157895
  0
POLYLINE
  8
2_FEATURE
 62
7
  6
CONTINUOUS
 66
1
 70
0
  0
VERTEX
  8
2_FEATURE
 62
7
  6
CONTINUOUS
 10
89.3174776584
 20
101.3563576858
  0
VERTEX
  8
2_FEATURE
 62
7
  6
CONTINUOUS
 10
89.2920968608
 20
101.3509753095
  0
VERTEX
  8
2_FEATURE
 62
7
  6
CONTINUOUS
 10
89.2669764623
 20
101.3441678511
  0
VERTEX
  8
2_FEATURE
 62
7
  6
CONTINUOUS
 10
89.2421893892
 20
101.3359580303
  0
VERTEX
  8
2_FEATURE
 62
7
  6
CONTINUOUS
 10
89.2178073362
 20
101.3263723971
  0
VERTEX
  8
2_FEATURE
 62
7
  6
CONTINUOUS
 10
89.193899922
 20
101.3154413551
  0
VERTEX
  8
2_FEATURE
 62
7
  6
CONTINUOUS
 10
89.170536383
 20
101.3031993221
  0
VERTEX
  8
2_FEATURE
 62
7
  6
CONTINUOUS
 10
89.1477831884
 20
101.2896843406
  0
VERTEX
  8
2_FEATURE
 62
7
  6
CONTINUOUS
 10
89.1257058493
 20
101.2749382141
  0
VERTEX
  8
2_FEATURE
 62
7
  6
CONTINUOUS
 10
89.1043668032
 20
101.2590061702
  0
VERTEX
  8
2_FEATURE
 62
7
  6
CONTINUOUS
 10
89.0838269961
 20
101.2419368475
  0
VERTEX
  8
2_FEATURE
 62
7
  6
CONTINUOUS
 10
89.0641440384
 20
101.2237820667
  0
VERTEX
  8
2_FEATURE
 62
7
  6
CONTINUOUS
 10
89.0453735385
 20
101.2045966007
  0
VERTEX
  8
2_FEATURE
 62
7
  6
CONTINUOUS
 10
89.027567562
 20
101.1844381199
  0
VERTEX
  8
2_FEATURE
 62
7
  6
CONTINUOUS
 10
89.0107757532
 20
101.1633667441
  0
VERTEX
  8
2_FEATURE
 62
7
  6
CONTINUOUS
 10
88.9950440559
 20
101.1414451656
  0
VERTEX
  8
2_FEATURE
 62
7
  6
CONTINUOUS
 10
88.9804156547
 20
101.1187379983
  0
VERTEX
  8
2_FEATURE
 62
7
  6
CONTINUOUS
 10
88.9669299333
 20
101.0953120739
  0
VERTEX
  8
2_FEATURE
 62
7
  6
CONTINUOUS
 10
88.9546232609
 20
101.0712356259
  0
VERTEX
  8
2_FEATURE
 62
7
  6
CONTINUOUS
 10
88.9435281568
 20
101.0465787209
  0
VERTEX
  8
2_FEATURE
 62
7
  6
CONTINUOUS
 10
88.933673961
 20
101.0214123679
  0
VERTEX
  8
2_FEATURE
 62
7
  6
CONTINUOUS
 10
88.9250861523
 20
100.9958090135
  0
VERTEX
  8
2_FEATURE
 62
7
  6
CONTINUOUS
 10
88.9177869447
 20
100.9698415978
  0
VERTEX
  8
2_FEATURE
 62
7
  6
CONTINUOUS
 10
88.9117948807
 20
100.9435840129
  0
VERTEX
  8
2_FEATURE
 62
7
  6
CONTINUOUS
 10
88.9071245651
 20
100.9171106131
  0
VERTEX
  8
2_FEATURE
 62
7
  6
CONTINUOUS
 10
88.9037891088
 20
100.8904956922
  0
VERTEX
  8
2_FEATURE
 62
7
  6
CONTINUOUS
 10
88.9017896529
 20
100.8638157895
  0
SEQEND
  0
POLYLINE
  8
2_FEATURE
 62
7
  6
CONTINUOUS
 66
1
 70
0
  0
VERTEX
  8
2_FEATURE
 62
7
  6
CONTINUOUS
 10
89.3174776583
 20
101.3563576875
  0
VERTEX
  8
2_FEATURE
 62
7
  6
CONTINUOUS
 10
89.3268719497
 20
101.3579718099
  0
VERTEX
  8
2_FEATURE
 62
7
  6
CONTINUOUS
 10
89.3368365867
 20
101.3594162771
  0
VERTEX
  8
2_FEATURE
 62
7
  6
CONTINUOUS
 10
89.3473980828
 20
101.3607034501
  0
VERTEX
  8
2_FEATURE
 62
7
  6
CONTINUOUS
 10
89.3584776203
 20
101.3617962459
  0
VERTEX
  8
2_FEATURE
 62
7
  6
CONTINUOUS
 10
89.3700169181
 20
101.3626645318
  0
VERTEX
  8
2_FEATURE
 62
7
  6
CONTINUOUS
 10
89.3819814911
 20
101.3632998181
  0
VERTEX
  8
2_FEATURE
 62
7
  6
CONTINUOUS
 10
89.3943106066
 20
101.3636812539
  0
VERTEX
  8
2_FEATURE
 62
7
  6
CONTINUOUS
 10
89.4070251973
 20
101.3638157895
  0
SEQEND
  0
POLYLINE
  8
2_FEATURE
 62
7
  6
CONTINUOUS
 66
1
 70
0
  0
VERTEX
  8
2_FEATURE
 62
7
  6
CONTINUOUS
 10
85.3176618528
 20
101.3638157895
  0
VERTEX
  8
2_FEATURE
 62
7
  6
CONTINUOUS
 10
85.308580017
 20
101.363029701
  0
VERTEX
  8
2_FEATURE
 62
7
  6
CONTINUOUS
 10
85.299521908
 20
101.3606738472
  0
VERTEX
  8
2_FEATURE
 62
7
  6
CONTINUOUS
 10
85.2905200398
 20
101.3567555488
  0
VERTEX
  8
2_FEATURE
 62
7
  6
CONTINUOUS
 10
85.2816013711
 20
101.3512870297
  0
VERTEX
  8
2_FEATURE
 62
7
  6
CONTINUOUS
 10
85.2727940473
 20
101.3442853834
  0
VERTEX
  8
2_FEATURE
 62
7
  6
CONTINUOUS
 10
85.2641258059
 20
101.3357725228
  0
VERTEX
  8
2_FEATURE
 62
7
  6
CONTINUOUS
 10
85.2556240187
 20
101.3257751084
  0
VERTEX
  8
2_FEATURE
 62
7
  6
CONTINUOUS
 10
85.2473155368
 20
101.3143244729
  0
VERTEX
  8
2_FEATURE
 62
7
  6
CONTINUOUS
 10
85.2392266081
 20
101.3014565171
  0
VERTEX
  8
2_FEATURE
 62
7
  6
CONTINUOUS
 10
85.2313828575
 20
101.2872116057
  0
VERTEX
  8
2_FEATURE
 62
7
  6
CONTINUOUS
 10
85.2238090691
 20
101.2716344343
  0
VERTEX
  8
2_FEATURE
 62
7
  6
CONTINUOUS
 10
85.216529316
 20
101.254773901
  0
VERTEX
  8
2_FEATURE
 62
7
  6
CONTINUOUS
 10
85.2095665975
 20
101.2366829426
  0
VERTEX
  8
2_FEATURE
 62
7
  6
CONTINUOUS
 10
85.2029431245
 20
101.2174183816
  0
VERTEX
  8
2_FEATURE
 62
7
  6
CONTINUOUS
 10
85.1966798105
 20
101.1970407364
  0
VERTEX
  8
2_FEATURE
 62
7
  6
CONTINUOUS
 10
85.190796716
 20
101.1756140433
  0
VERTEX
  8
2_FEATURE
 62
7
  6
CONTINUOUS
 10
85.1853123933
 20
101.1532056456
  0
VERTEX
  8
2_FEATURE
 62
7
  6
CONTINUOUS
 10
85.1802444897
 20
101.1298859901
  0
VERTEX
  8
2_FEATURE
 62
7
  6
CONTINUOUS
 10
85.1756089519
 20
101.1057284002
  0
VERTEX
  8
2_FEATURE
 62
7
  6
CONTINUOUS
 10
85.1714207804
 20
101.0808088478
  0
VERTEX
  8
2_FEATURE
 62
7
  6
CONTINUOUS
 10
85.1676931059
 20
101.0552057157
  0
VERTEX
  8
2_FEATURE
 62
7
  6
CONTINUOUS
 10
85.1644380812
 20
101.0289995398
  0
VERTEX
  8
2_FEATURE
 62
7
  6
CONTINUOUS
 10
85.1616658478
 20
101.0022727703
  0
VERTEX
  8
2_FEATURE
 62
7
  6
CONTINUOUS
 10
85.1593855481
 20
100.9751094932
  0
VERTEX
  8
2_FEATURE
 62
7
  6
CONTINUOUS
 10
85.1576042028
 20
100.9475951882
  0
VERTEX
  8
2_FEATURE
 62
7
  6
CONTINUOUS
 10
85.1563278188
 20
100.9198164273
  0
VERTEX
  8
2_FEATURE
 62
7
  6
CONTINUOUS
 10
85.1555601026
 20
100.8918606236
  0
VERTEX
  8
2_FEATURE
 62
7
  6
CONTINUOUS
 10
85.1553041558
 20
100.8638157895
  0
SEQEND
  0
POLYLINE
  8
2_FEATURE
 62
7
  6
CONTINUOUS
 66
1
 70
0
  0
VERTEX
  8
2_FEATURE
 62
7
  6
CONTINUOUS
 10
80.7381111409
 20
101.3638157895
  0
VERTEX
  8
2_FEATURE
 62
7
  6
CONTINUOUS
 10
80.7280182862
 20
101.363029701
  0
VERTEX
  8
2_FEATURE
 62
7
  6
CONTINUOUS
 10
80.7179563228
 20
101.3606738472
  0
VERTEX
  8
2_FEATURE
 62
7
  6
CONTINUOUS
 10
80.7079607598
 20
101.3567555488
  0
VERTEX
  8
2_FEATURE
 62
7
  6
CONTINUOUS
 10
80.698061699
 20
101.3512870297
  0
VERTEX
  8
2_FEATURE
 62
7
  6
CONTINUOUS
 10
80.6882901876
 20
101.3442853834
  0
VERTEX
  8
2_FEATURE
 62
7
  6
CONTINUOUS
 10
80.6786769222
 20
101.3357725228
  0
VERTEX
  8
2_FEATURE
 62
7
  6
CONTINUOUS
 10
80.6692520012
 20
101.3257751084
  0
VERTEX
  8
2_FEATURE
 62
7
  6
CONTINUOUS
 10
80.6600450349
 20
101.3143244729
  0
VERTEX
  8
2_FEATURE
 62
7
  6
CONTINUOUS
 10
80.6510847993
 20
101.3014565171
  0
VERTEX
  8
2_FEATURE
 62
7
  6
CONTINUOUS
 10
80.6423994502
 20
101.2872116057
  0
VERTEX
  8
2_FEATURE
 62
7
  6
CONTINUOUS
 10
80.6340160834
 20
101.2716344343
  0
VERTEX
  8
2_FEATURE
 62
7
  6
CONTINUOUS
 10
80.6259610542
 20
101.254773901
  0
VERTEX
  8
2_FEATURE
 62
7
  6
CONTINUOUS
 10
80.6182594436
 20
101.2366829426
  0
VERTEX
  8
2_FEATURE
 62
7
  6
CONTINUOUS
 10
80.6109354813
 20
101.2174183816
  0
VERTEX
  8
2_FEATURE
 62
7
  6
CONTINUOUS
 10
80.6040119242
 20
101.1970407364
  0
VERTEX
  8
2_FEATURE
 62
7
  6
CONTINUOUS
 10
80.5975105788
 20
101.1756140433
  0
VERTEX
  8
2_FEATURE
 62
7
  6
CONTINUOUS
 10
80.5914515981
 20
101.1532056456
  0
VERTEX
  8
2_FEATURE
 62
7
  6
CONTINUOUS
 10
80.5858540984
 20
101.1298859901
  0
VERTEX
  8
2_FEATURE
 62
7
  6
CONTINUOUS
 10
80.5807353823
 20
101.1057284002
  0
VERTEX
  8
2_FEATURE
 62
7
  6
CONTINUOUS
 10
80.576111642
 20
101.0808088478
  0
VERTEX
  8
2_FEATURE
 62
7
  6
CONTINUOUS
 10
80.5719971198
 20
101.0552057157
  0
VERTEX
  8
2_FEATURE
 62
7
  6
CONTINUOUS
 10
80.5684048857
 20
101.0289995398
  0
VERTEX
  8
2_FEATURE
 62
7
  6
CONTINUOUS
 10
80.5653459486
 20
101.0022727703
  0
VERTEX
  8
2_FEATURE
 62
7
  6
CONTINUOUS
 10
80.5628300992
 20
100.9751094932
  0
VERTEX
  8
2_FEATURE
 62
7
  6
CONTINUOUS
 10
80.560864981
 20
100.9475951882
  0
VERTEX
  8
2_FEATURE
 62
7
  6
CONTINUOUS
 10
80.559456987
 20
100.9198164273
  0
VERTEX
  8
2_FEATURE
 62
7
  6
CONTINUOUS
 10
80.5586102226
 20
100.8918606236
  0
VERTEX
  8
2_FEATURE
 62
7
  6
CONTINUOUS
 10
80.5583278549
 20
100.8638157895
  0
SEQEND
  0
POLYLINE
  8
0
 62
7
  6
CONTINUOUS
 66
1
 70
0
  0
VERTEX
  8
0
 62
7
  6
CONTINUOUS
 10
59.2838346963
 20
101.3638157895
  0
VERTEX
  8
0
 62
7
  6
CONTINUOUS
 10
59.2598250219
 20
101.363029701
  0
VERTEX
  8
0
 62
7
  6
CONTINUOUS
 10
59.2358878704
 20
101.3606738472
  0
VERTEX
  8
0
 62
7
  6
CONTINUOUS
 10
59.2121006355
 20
101.3567555488
  0
VERTEX
  8
0
 62
7
  6
CONTINUOUS
 10
59.1885373912
 20
101.3512870297
  0
VERTEX
  8
0
 62
7
  6
CONTINUOUS
 10
59.1652722808
 20
101.3442853834
  0
VERTEX
  8
0
 62
7
  6
CONTINUOUS
 10
59.1423784951
 20
101.3357725228
  0
VERTEX
  8
0
 62
7
  6
CONTINUOUS
 10
59.1199280989
 20
101.3257751084
  0
VERTEX
  8
0
 62
7
  6
CONTINUOUS
 10
59.0979917813
 20
101.3143244729
  0
VERTEX
  8
0
 62
7
  6
CONTINUOUS
 10
59.0766386217
 20
101.3014565171
  0
VERTEX
  8
0
 62
7
  6
CONTINUOUS
 10
59.0559359157
 20
101.2872116057
  0
VERTEX
  8
0
 62
7
  6
CONTINUOUS
 10
59.0359488814
 20
101.2716344343
  0
VERTEX
  8
0
 62
7
  6
CONTINUOUS
 10
59.016740574
 20
101.254773901
  0
VERTEX
  8
0
 62
7
  6
CONTINUOUS
 10
58.9983715249
 20
101.2366829426
  0
VERTEX
  8
0
 62
7
  6
CONTINUOUS
 10
58.9808997481
 20
101.2174183816
  0
VERTEX
  8
0
 62
7
  6
CONTINUOUS
 10
58.9643803177
 20
101.1970407364
  0
VERTEX
  8
0
 62
7
  6
CONTINUOUS
 10
58.948865468
 20
101.1756140433
  0
VERTEX
  8
0
 62
7
  6
CONTINUOUS
 10
58.9344041125
 20
101.1532056456
  0
VERTEX
  8
0
 62
7
  6
CONTINUOUS
 10
58.921042039
 20
101.1298859901
  0
VERTEX
  8
0
 62
7
  6
CONTINUOUS
 10
58.9088213751
 20
101.1057284002
  0
VERTEX
  8
0
 62
7
  6
CONTINUOUS
 10
58.8977808757
 20
101.0808088478
  0
VERTEX
  8
0
 62
7
  6
CONTINUOUS
 10
58.8879553439
 20
101.0552057157
  0
VERTEX
  8
0
 62
7
  6
CONTINUOUS
 10
58.8793760035
 20
101.0289995398
  0
VERTEX
  8
0
 62
7
  6
CONTINUOUS
 10
58.8720698865
 20
101.0022727703
  0
VERTEX
  8
0
 62
7
  6
CONTINUOUS
 10
58.8660602873
 20
100.9751094932
  0
VERTEX
  8
0
 62
7
  6
CONTINUOUS
 10
58.8613661237
 20
100.9475951882
  0
VERTEX
  8
0
 62
7
  6
CONTINUOUS
 10
58.8580024619
 20
100.9198164273
  0
VERTEX
  8
0
 62
7
  6
CONTINUOUS
 10
58.8559798125
 20
100.8918606236
  0
VERTEX
  8
0
 62
7
  6
CONTINUOUS
 10
58.8553049872
 20
100.8638157895
  0
SEQEND
  0
POLYLINE
  8
0
 62
7
  6
CONTINUOUS
 66
1
 70
0
  0
VERTEX
  8
0
 62
7
  6
CONTINUOUS
 10
56.8471066585
 20
101.3638157895
  0
VERTEX
  8
0
 62
7
  6
CONTINUOUS
 10
56.8225589955
 20
101.363029701
  0
VERTEX
  8
0
 62
7
  6
CONTINUOUS
 10
56.7980877409
 20
101.3606738472
  0
VERTEX
  8
0
 62
7
  6
CONTINUOUS
 10
56.7737717724
 20
101.3567555488
  0
VERTEX
  8
0
 62
7
  6
CONTINUOUS
 10
56.7496868721
 20
101.3512870297
  0
VERTEX
  8
0
 62
7
  6
CONTINUOUS
 10
56.7259087287
 20
101.3442853834
  0
VERTEX
  8
0
 62
7
  6
CONTINUOUS
 10
56.7025121057
 20
101.3357725228
  0
VERTEX
  8
0
 62
7
  6
CONTINUOUS
 10
56.6795705209
 20
101.3257751084
  0
VERTEX
  8
0
 62
7
  6
CONTINUOUS
 10
56.657156129
 20
101.3143244729
  0
VERTEX
  8
0
 62
7
  6
CONTINUOUS
 10
56.6353393575
 20
101.3014565171
  0
VERTEX
  8
0
 62
7
  6
CONTINUOUS
 10
56.6141888456
 20
101.2872116057
  0
VERTEX
  8
0
 62
7
  6
CONTINUOUS
 10
56.5937710445
 20
101.2716344343
  0
VERTEX
  8
0
 62
7
  6
CONTINUOUS
 10
56.5741502204
 20
101.254773901
  0
VERTEX
  8
0
 62
7
  6
CONTINUOUS
 10
56.555388016
 20
101.2366829426
  0
VERTEX
  8
0
 62
7
  6
CONTINUOUS
 10
56.5375435156
 20
101.2174183816
  0
VERTEX
  8
0
 62
7
  6
CONTINUOUS
 10
56.5206727784
 20
101.1970407364
  0
VERTEX
  8
0
 62
7
  6
CONTINUOUS
 10
56.5048289631
 20
101.1756140433
  0
VERTEX
  8
0
 62
7
  6
CONTINUOUS
 10
56.4900618397
 20
101.1532056456
  0
VERTEX
  8
0
 62
7
  6
CONTINUOUS
 10
56.4764179727
 20
101.1298859901
  0
VERTEX
  8
0
 62
7
  6
CONTINUOUS
 10
56.4639402163
 20
101.1057284002
  0
VERTEX
  8
0
 62
7
  6
CONTINUOUS
 10
56.4526679544
 20
101.0808088478
  0
VERTEX
  8
0
 62
7
  6
CONTINUOUS
 10
56.4426365865
 20
101.0552057157
  0
VERTEX
  8
0
 62
7
  6
CONTINUOUS
 10
56.4338778194
 20
101.0289995398
  0
VERTEX
  8
0
 62
7
  6
CONTINUOUS
 10
56.4264191519
 20
101.0022727703
  0
VERTEX
  8
0
 62
7
  6
CONTINUOUS
 10
56.4202842179
 20
100.9751094932
  0
VERTEX
  8
0
 62
7
  6
CONTINUOUS
 10
56.4154922723
 20
100.9475951882
  0
VERTEX
  8
0
 62
7
  6
CONTINUOUS
 10
56.4120585808
 20
100.9198164273
  0
VERTEX
  8
0
 62
7
  6
CONTINUOUS
 10
56.4099938741
 20
100.8918606236
  0
VERTEX
  8
0
 62
7
  6
CONTINUOUS
 10
56.4093049872
 20
100.8638157895
  0
SEQEND
  0
POLYLINE
  8
0
 62
7
  6
CONTINUOUS
 66
1
 70
0
  0
VERTEX
  8
0
 62
7
  6
CONTINUOUS
 10
141.7947859053
 20
101.3638157895
  0
VERTEX
  8
0
 62
7
  6
CONTINUOUS
 10
141.8193349363
 20
101.363029701
  0
VERTEX
  8
0
 62
7
  6
CONTINUOUS
 10
141.8438048228
 20
101.3606738472
  0
VERTEX
  8
0
 62
7
  6
CONTINUOUS
 10
141.8681207967
 20
101.3567555488
  0
VERTEX
  8
0
 62
7
  6
CONTINUOUS
 10
141.8922056917
 20
101.3512870297
  0
VERTEX
  8
0
 62
7
  6
CONTINUOUS
 10
141.9159838335
 20
101.3442853834
  0
VERTEX
  8
0
 62
7
  6
CONTINUOUS
 10
141.9393804581
 20
101.3357725228
  0
VERTEX
  8
0
 62
7
  6
CONTINUOUS
 10
141.9623220337
 20
101.3257751084
  0
VERTEX
  8
0
 62
7
  6
CONTINUOUS
 10
141.9847364347
 20
101.3143244729
  0
VERTEX
  8
0
 62
7
  6
CONTINUOUS
 10
142.0065531891
 20
101.3014565171
  0
VERTEX
  8
0
 62
7
  6
CONTINUOUS
 10
142.0277037181
 20
101.2872116057
  0
VERTEX
  8
0
 62
7
  6
CONTINUOUS
 10
142.0481214938
 20
101.2716344343
  0
VERTEX
  8
0
 62
7
  6
CONTINUOUS
 10
142.0677423434
 20
101.254773901
  0
VERTEX
  8
0
 62
7
  6
CONTINUOUS
 10
142.0865045141
 20
101.2366829426
  0
VERTEX
  8
0
 62
7
  6
CONTINUOUS
 10
142.1043490482
 20
101.2174183816
  0
VERTEX
  8
0
 62
7
  6
CONTINUOUS
 10
142.1212197437
 20
101.1970407364
  0
VERTEX
  8
0
 62
7
  6
CONTINUOUS
 10
142.1370636007
 20
101.1756140433
  0
VERTEX
  8
0
 62
7
  6
CONTINUOUS
 10
142.1518306747
 20
101.1532056456
  0
VERTEX
  8
0
 62
7
  6
CONTINUOUS
 10
142.165474591
 20
101.1298859901
  0
VERTEX
  8
0
 62
7
  6
CONTINUOUS
 10
142.1779522913
 20
101.1057284002
  0
VERTEX
  8
0
 62
7
  6
CONTINUOUS
 10
142.1892246094
 20
101.0808088478
  0
VERTEX
  8
0
 62
7
  6
CONTINUOUS
 10
142.1992559152
 20
101.0552057157
  0
VERTEX
  8
0
 62
7
  6
CONTINUOUS
 10
142.2080147443
 20
101.0289995398
  0
VERTEX
  8
0
 62
7
  6
CONTINUOUS
 10
142.2154733451
 20
101.0022727703
  0
VERTEX
  8
0
 62
7
  6
CONTINUOUS
 10
142.2216083458
 20
100.9751094932
  0
VERTEX
  8
0
 62
7
  6
CONTINUOUS
 10
142.2264002215
 20
100.9475951882
  0
VERTEX
  8
0
 62
7
  6
CONTINUOUS
 10
142.229833983
 20
100.9198164273
  0
VERTEX
  8
0
 62
7
  6
CONTINUOUS
 10
142.2318985204
 20
100.8918606236
  0
VERTEX
  8
0
 62
7
  6
CONTINUOUS
 10
142.2325875766
 20
100.8638157895
  0
SEQEND
  0
POLYLINE
  8
0
 62
7
  6
CONTINUOUS
 66
1
 70
0
  0
VERTEX
  8
0
 62
7
  6
CONTINUOUS
 10
139.3580578675
 20
101.3638157895
  0
VERTEX
  8
0
 62
7
  6
CONTINUOUS
 10
139.3820690028
 20
101.363029701
  0
VERTEX
  8
0
 62
7
  6
CONTINUOUS
 10
139.4060046934
 20
101.3606738472
  0
VERTEX
  8
0
 62
7
  6
CONTINUOUS
 10
139.4297919328
 20
101.3567555488
  0
VERTEX
  8
0
 62
7
  6
CONTINUOUS
 10
139.4533551725
 20
101.3512870297
  0
VERTEX
  8
0
 62
7
  6
CONTINUOUS
 10
139.4766202801
 20
101.3442853834
  0
VERTEX
  8
0
 62
7
  6
CONTINUOUS
 10
139.4995140686
 20
101.3357725228
  0
VERTEX
  8
0
 62
7
  6
CONTINUOUS
 10
139.5219644541
 20
101.3257751084
  0
VERTEX
  8
0
 62
7
  6
CONTINUOUS
 10
139.5439007825
 20
101.3143244729
  0
VERTEX
  8
0
 62
7
  6
CONTINUOUS
 10
139.565253923
 20
101.3014565171
  0
VERTEX
  8
0
 62
7
  6
CONTINUOUS
 10
139.585956648
 20
101.2872116057
  0
VERTEX
  8
0
 62
7
  6
CONTINUOUS
 10
139.6059436546
 20
101.2716344343
  0
VERTEX
  8
0
 62
7
  6
CONTINUOUS
 10
139.6251519898
 20
101.254773901
  0
VERTEX
  8
0
 62
7
  6
CONTINUOUS
 10
139.6435210026
 20
101.2366829426
  0
VERTEX
  8
0
 62
7
  6
CONTINUOUS
 10
139.6609928157
 20
101.2174183816
  0
VERTEX
  8
0
 62
7
  6
CONTINUOUS
 10
139.6775122015
 20
101.1970407364
  0
VERTEX
  8
0
 62
7
  6
CONTINUOUS
 10
139.6930270958
 20
101.1756140433
  0
VERTEX
  8
0
 62
7
  6
CONTINUOUS
 10
139.7074883988
 20
101.1532056456
  0
VERTEX
  8
0
 62
7
  6
CONTINUOUS
 10
139.7208505247
 20
101.1298859901
  0
VERTEX
  8
0
 62
7
  6
CONTINUOUS
 10
139.7330711292
 20
101.1057284002
  0
VERTEX
  8
0
 62
7
  6
CONTINUOUS
 10
139.744111688
 20
101.0808088478
  0
VERTEX
  8
0
 62
7
  6
CONTINUOUS
 10
139.7539371544
 20
101.0552057157
  0
VERTEX
  8
0
 62
7
  6
CONTINUOUS
 10
139.7625165603
 20
101.0289995398
  0
VERTEX
  8
0
 62
7
  6
CONTINUOUS
 10
139.769822607
 20
101.0022727703
  0
VERTEX
  8
0
 62
7
  6
CONTINUOUS
 10
139.7758322765
 20
100.9751094932
  0
VERTEX
  8
0
 62
7
  6
CONTINUOUS
 10
139.7805263666
 20
100.9475951882
  0
VERTEX
  8
0
 62
7
  6
CONTINUOUS
 10
139.7838901019
 20
100.9198164273
  0
VERTEX
  8
0
 62
7
  6
CONTINUOUS
 10
139.7859125735
 20
100.8918606236
  0
VERTEX
  8
0
 62
7
  6
CONTINUOUS
 10
139.7865875766
 20
100.8638157895
  0
SEQEND
  0
POLYLINE
  8
0
 62
7
  6
CONTINUOUS
 66
1
 70
0
  0
VERTEX
  8
0
 62
7
  6
CONTINUOUS
 10
117.9037814229
 20
101.3638157895
  0
VERTEX
  8
0
 62
7
  6
CONTINUOUS
 10
117.9138769176
 20
101.363029701
  0
VERTEX
  8
0
 62
7
  6
CONTINUOUS
 10
117.9239362409
 20
101.3606738472
  0
VERTEX
  8
0
 62
7
  6
CONTINUOUS
 10
117.9339318135
 20
101.3567555488
  0
VERTEX
  8
0
 62
7
  6
CONTINUOUS
 10
117.9438308647
 20
101.3512870297
  0
VERTEX
  8
0
 62
7
  6
CONTINUOUS
 10
117.9536023721
 20
101.3442853834
  0
VERTEX
  8
0
 62
7
  6
CONTINUOUS
 10
117.9632156416
 20
101.3357725228
  0
VERTEX
  8
0
 62
7
  6
CONTINUOUS
 10
117.9726405441
 20
101.3257751084
  0
VERTEX
  8
0
 62
7
  6
CONTINUOUS
 10
117.9818475289
 20
101.3143244729
  0
VERTEX
  8
0
 62
7
  6
CONTINUOUS
 10
117.9908077308
 20
101.3014565171
  0
VERTEX
  8
0
 62
7
  6
CONTINUOUS
 10
117.9994931135
 20
101.2872116057
  0
VERTEX
  8
0
 62
7
  6
CONTINUOUS
 10
118.0078764309
 20
101.2716344343
  0
VERTEX
  8
0
 62
7
  6
CONTINUOUS
 10
118.0159315095
 20
101.254773901
  0
VERTEX
  8
0
 62
7
  6
CONTINUOUS
 10
118.023633055
 20
101.2366829426
  0
VERTEX
  8
0
 62
7
  6
CONTINUOUS
 10
118.0309570825
 20
101.2174183816
  0
VERTEX
  8
0
 62
7
  6
CONTINUOUS
 10
118.037880559
 20
101.1970407364
  0
VERTEX
  8
0
 62
7
  6
CONTINUOUS
 10
118.044381985
 20
101.1756140433
  0
VERTEX
  8
0
 62
7
  6
CONTINUOUS
 10
118.0504408706
 20
101.1532056456
  0
VERTEX
  8
0
 62
7
  6
CONTINUOUS
 10
118.0560384654
 20
101.1298859901
  0
VERTEX
  8
0
 62
7
  6
CONTINUOUS
 10
118.0611570734
 20
101.1057284002
  0
VERTEX
  8
0
 62
7
  6
CONTINUOUS
 10
118.0657809217
 20
101.0808088478
  0
VERTEX
  8
0
 62
7
  6
CONTINUOUS
 10
118.0698953248
 20
101.0552057157
  0
VERTEX
  8
0
 62
7
  6
CONTINUOUS
 10
118.073487678
 20
101.0289995398
  0
VERTEX
  8
0
 62
7
  6
CONTINUOUS
 10
118.0765464871
 20
101.0022727703
  0
VERTEX
  8
0
 62
7
  6
CONTINUOUS
 10
118.0790624646
 20
100.9751094932
  0
VERTEX
  8
0
 62
7
  6
CONTINUOUS
 10
118.0810274487
 20
100.9475951882
  0
VERTEX
  8
0
 62
7
  6
CONTINUOUS
 10
118.0824355768
 20
100.9198164273
  0
VERTEX
  8
0
 62
7
  6
CONTINUOUS
 10
118.0832820167
 20
100.8918606236
  0
VERTEX
  8
0
 62
7
  6
CONTINUOUS
 10
118.0835647088
 20
100.8638157895
  0
SEQEND
  0
POLYLINE
  8
0
 62
7
  6
CONTINUOUS
 66
1
 70
0
  0
VERTEX
  8
0
 62
7
  6
CONTINUOUS
 10
113.3242307109
 20
101.3638157895
  0
VERTEX
  8
0
 62
7
  6
CONTINUOUS
 10
113.3333152235
 20
101.363029701
  0
VERTEX
  8
0
 62
7
  6
CONTINUOUS
 10
113.3423706557
 20
101.3606738472
  0
VERTEX
  8
0
 62
7
  6
CONTINUOUS
 10
113.3513725332
 20
101.3567555488
  0
VERTEX
  8
0
 62
7
  6
CONTINUOUS
 10
113.3602911926
 20
101.3512870297
  0
VERTEX
  8
0
 62
7
  6
CONTINUOUS
 10
113.369098512
 20
101.3442853834
  0
VERTEX
  8
0
 62
7
  6
CONTINUOUS
 10
113.3777667578
 20
101.3357725228
  0
VERTEX
  8
0
 62
7
  6
CONTINUOUS
 10
113.386268526
 20
101.3257751084
  0
VERTEX
  8
0
 62
7
  6
CONTINUOUS
 10
113.394577027
 20
101.3143244729
  0
VERTEX
  8
0
 62
7
  6
CONTINUOUS
 10
113.4026659212
 20
101.3014565171
  0
VERTEX
  8
0
 62
7
  6
CONTINUOUS
 10
113.4105097063
 20
101.2872116057
  0
VERTEX
  8
0
 62
7
  6
CONTINUOUS
 10
113.4180834443
 20
101.2716344343
  0
VERTEX
  8
0
 62
7
  6
CONTINUOUS
 10
113.4253632477
 20
101.254773901
  0
VERTEX
  8
0
 62
7
  6
CONTINUOUS
 10
113.4323259
 20
101.2366829426
  0
VERTEX
  8
0
 62
7
  6
CONTINUOUS
 10
113.4389494392
 20
101.2174183816
  0
VERTEX
  8
0
 62
7
  6
CONTINUOUS
 10
113.4452126716
 20
101.1970407364
  0
VERTEX
  8
0
 62
7
  6
CONTINUOUS
 10
113.4510958478
 20
101.1756140433
  0
VERTEX
  8
0
 62
7
  6
CONTINUOUS
 10
113.4565800742
 20
101.1532056456
  0
VERTEX
  8
0
 62
7
  6
CONTINUOUS
 10
113.461648074
 20
101.1298859901
  0
VERTEX
  8
0
 62
7
  6
CONTINUOUS
 10
113.4662835025
 20
101.1057284002
  0
VERTEX
  8
0
 62
7
  6
CONTINUOUS
 10
113.4704717833
 20
101.0808088478
  0
VERTEX
  8
0
 62
7
  6
CONTINUOUS
 10
113.4741993373
 20
101.0552057157
  0
VERTEX
  8
0
 62
7
  6
CONTINUOUS
 10
113.4774544826
 20
101.0289995398
  0
VERTEX
  8
0
 62
7
  6
CONTINUOUS
 10
113.4802265865
 20
101.0022727703
  0
VERTEX
  8
0
 62
7
  6
CONTINUOUS
 10
113.4825070156
 20
100.9751094932
  0
VERTEX
  8
0
 62
7
  6
CONTINUOUS
 10
113.4842882255
 20
100.9475951882
  0
VERTEX
  8
0
 62
7
  6
CONTINUOUS
 10
113.4855647449
 20
100.9198164273
  0
VERTEX
  8
0
 62
7
  6
CONTINUOUS
 10
113.4863321334
 20
100.8918606236
  0
VERTEX
  8
0
 62
7
  6
CONTINUOUS
 10
113.4865884079
 20
100.8638157895
  0
SEQEND
  0
POLYLINE
  8
0
 62
7
  6
CONTINUOUS
 66
1
 70
0
  0
VERTEX
  8
0
 62
7
  6
CONTINUOUS
 10
109.3244149047
 20
101.3563576876
  0
VERTEX
  8
0
 62
7
  6
CONTINUOUS
 10
109.3150206133
 20
101.35797181
  0
VERTEX
  8
0
 62
7
  6
CONTINUOUS
 10
109.3050559764
 20
101.3594162772
  0
VERTEX
  8
0
 62
7
  6
CONTINUOUS
 10
109.2944944805
 20
101.3607034501
  0
VERTEX
  8
0
 62
7
  6
CONTINUOUS
 10
109.283414943
 20
101.3617962459
  0
VERTEX
  8
0
 62
7
  6
CONTINUOUS
 10
109.2718756453
 20
101.3626645319
  0
VERTEX
  8
0
 62
7
  6
CONTINUOUS
 10
109.2599110724
 20
101.3632998181
  0
VERTEX
  8
0
 62
7
  6
CONTINUOUS
 10
109.2475819571
 20
101.3636812539
  0
VERTEX
  8
0
 62
7
  6
CONTINUOUS
 10
109.2348673665
 20
101.3638157895
  0
SEQEND
  0
POLYLINE
  8
0
 62
7
  6
CONTINUOUS
 66
1
 70
0
  0
VERTEX
  8
0
 62
7
  6
CONTINUOUS
 10
109.3244149046
 20
101.356357686
  0
VERTEX
  8
0
 62
7
  6
CONTINUOUS
 10
109.3497957043
 20
101.3509753092
  0
VERTEX
  8
0
 62
7
  6
CONTINUOUS
 10
109.3749161044
 20
101.3441678503
  0
VERTEX
  8
0
 62
7
  6
CONTINUOUS
 10
109.3997031785
 20
101.3359580289
  0
VERTEX
  8
0
 62
7
  6
CONTINUOUS
 10
109.4240852322
 20
101.3263723952
  0
VERTEX
  8
0
 62
7
  6
CONTINUOUS
 10
109.4479926466
 20
101.3154413528
  0
VERTEX
  8
0
 62
7
  6
CONTINUOUS
 10
109.4713561856
 20
101.3031993196
  0
VERTEX
  8
0
 62
7
  6
CONTINUOUS
 10
109.4941093799
 20
101.289684338
  0
VERTEX
  8
0
 62
7
  6
CONTINUOUS
 10
109.5161867185
 20
101.2749382116
  0
VERTEX
  8
0
 62
7
  6
CONTINUOUS
 10
109.537525764
 20
101.259006168
  0
VERTEX
  8
0
 62
7
  6
CONTINUOUS
 10
109.5580655703
 20
101.2419368458
  0
VERTEX
  8
0
 62
7
  6
CONTINUOUS
 10
109.5777485273
 20
101.2237820656
  0
VERTEX
  8
0
 62
7
  6
CONTINUOUS
 10
109.5965190265
 20
101.2045966005
  0
VERTEX
  8
0
 62
7
  6
CONTINUOUS
 10
109.6143250023
 20
101.1844381208
  0
VERTEX
  8
0
 62
7
  6
CONTINUOUS
 10
109.6311168107
 20
101.163366746
  0
VERTEX
  8
0
 62
7
  6
CONTINUOUS
 10
109.6468485076
 20
101.1414451687
  0
VERTEX
  8
0
 62
7
  6
CONTINUOUS
 10
109.6614769087
 20
101.1187380025
  0
VERTEX
  8
0
 62
7
  6
CONTINUOUS
 10
109.6749626303
 20
101.0953120793
  0
VERTEX
  8
0
 62
7
  6
CONTINUOUS
 10
109.6872693031
 20
101.0712356323
  0
VERTEX
  8
0
 62
7
  6
CONTINUOUS
 10
109.6983644079
 20
101.0465787283
  0
VERTEX
  8
0
 62
7
  6
CONTINUOUS
 10
109.7082186049
 20
101.0214123762
  0
VERTEX
  8
0
 62
7
  6
CONTINUOUS
 10
109.7168064152
 20
100.9958090225
  0
VERTEX
  8
0
 62
7
  6
CONTINUOUS
 10
109.7241056256
 20
100.9698416077
  0
VERTEX
  8
0
 62
7
  6
CONTINUOUS
 10
109.7300976967
 20
100.9435840254
  0
VERTEX
  8
0
 62
7
  6
CONTINUOUS
 10
109.7347680169
 20
100.9171106263
  0
VERTEX
  8
0
 62
7
  6
CONTINUOUS
 10
109.7381034682
 20
100.8904957009
  0
VERTEX
  8
0
 62
7
  6
CONTINUOUS
 10
109.7401029108
 20
100.8638157895
  0
SEQEND
  0
LINE
  8
0
 62
7
  6
CONTINUOUS
 10
113.4865884079
 20
86.0638157895
 11
113.4865884079
 21
100.8638157895
  0
POLYLINE
  8
0
 62
7
  6
CONTINUOUS
 66
1
 70
0
  0
VERTEX
  8
0
 62
7
  6
CONTINUOUS
 10
59.5908273284
 20
101.3563576875
  0
VERTEX
  8
0
 62
7
  6
CONTINUOUS
 10
59.5997207645
 20
101.3579718099
  0
VERTEX
  8
0
 62
7
  6
CONTINUOUS
 10
59.6086731425
 20
101.3594162771
  0
VERTEX
  8
0
 62
7
  6
CONTINUOUS
 10
59.6177238718
 20
101.3607034501
  0
VERTEX
  8
0
 62
7
  6
CONTINUOUS
 10
59.6267561806
 20
101.3617962459
  0
VERTEX
  8
0
 62
7
  6
CONTINUOUS
 10
59.6356788946
 20
101.3626645318
  0
VERTEX
  8
0
 62
7
  6
CONTINUOUS
 10
59.644454984
 20
101.3632998181
  0
VERTEX
  8
0
 62
7
  6
CONTINUOUS
 10
59.6530084049
 20
101.3636812539
  0
VERTEX
  8
0
 62
7
  6
CONTINUOUS
 10
59.6613652772
 20
101.3638157895
  0
SEQEND
  0
POLYLINE
  8
0
 62
7
  6
CONTINUOUS
 66
1
 70
0
  0
VERTEX
  8
0
 62
7
  6
CONTINUOUS
 10
139.0510652347
 20
101.3563576876
  0
VERTEX
  8
0
 62
7
  6
CONTINUOUS
 10
139.0421717986
 20
101.35797181
  0
VERTEX
  8
0
 62
7
  6
CONTINUOUS
 10
139.0332194207
 20
101.3594162772
  0
VERTEX
  8
0
 62
7
  6
CONTINUOUS
 10
139.0241686915
 20
101.3607034501
  0
VERTEX
  8
0
 62
7
  6
CONTINUOUS
 10
139.0151363828
 20
101.3617962459
  0
VERTEX
  8
0
 62
7
  6
CONTINUOUS
 10
139.0062136689
 20
101.3626645319
  0
VERTEX
  8
0
 62
7
  6
CONTINUOUS
 10
138.9974375796
 20
101.3632998181
  0
VERTEX
  8
0
 62
7
  6
CONTINUOUS
 10
138.9888841588
 20
101.3636812539
  0
VERTEX
  8
0
 62
7
  6
CONTINUOUS
 10
138.9805272866
 20
101.3638157895
  0
SEQEND
  0
LINE
  8
0
 62
7
  6
CONTINUOUS
 10
118.0835647088
 20
86.0638157895
 11
118.0835647088
 21
100.8638157895
  0
POLYLINE
  8
0
 62
7
  6
CONTINUOUS
 66
1
 70
0
  0
VERTEX
  8
0
 62
7
  6
CONTINUOUS
 10
59.5908273289
 20
101.3563576858
  0
VERTEX
  8
0
 62
7
  6
CONTINUOUS
 10
59.5663677473
 20
101.3509753095
  0
VERTEX
  8
0
 62
7
  6
CONTINUOUS
 10
59.5423122643
 20
101.3441678511
  0
VERTEX
  8
0
 62
7
  6
CONTINUOUS
 10
59.5187309402
 20
101.3359580303
  0
VERTEX
  8
0
 62
7
  6
CONTINUOUS
 10
59.4956909939
 20
101.3263723971
  0
VERTEX
  8
0
 62
7
  6
CONTINUOUS
 10
59.473258693
 20
101.3154413551
  0
VERTEX
  8
0
 62
7
  6
CONTINUOUS
 10
59.4514979273
 20
101.3031993221
  0
VERTEX
  8
0
 62
7
  6
CONTINUOUS
 10
59.4304711273
 20
101.2896843406
  0
VERTEX
  8
0
 62
7
  6
CONTINUOUS
 10
59.4102377366
 20
101.2749382141
  0
VERTEX
  8
0
 62
7
  6
CONTINUOUS
 10
59.3908555026
 20
101.2590061702
  0
SEQEND
  0
POLYLINE
  8
0
 62
7
  6
CONTINUOUS
 66
1
 70
0
  0
VERTEX
  8
0
 62
7
  6
CONTINUOUS
 10
139.0510652342
 20
101.356357686
  0
VERTEX
  8
0
 62
7
  6
CONTINUOUS
 10
139.0755248177
 20
101.3509753092
  0
VERTEX
  8
0
 62
7
  6
CONTINUOUS
 10
139.0995803021
 20
101.3441678503
  0
VERTEX
  8
0
 62
7
  6
CONTINUOUS
 10
139.1231616271
 20
101.3359580289
  0
VERTEX
  8
0
 62
7
  6
CONTINUOUS
 10
139.1462015738
 20
101.3263723952
  0
VERTEX
  8
0
 62
7
  6
CONTINUOUS
 10
139.1686338749
 20
101.3154413528
  0
VERTEX
  8
0
 62
7
  6
CONTINUOUS
 10
139.1903946403
 20
101.3031993196
  0
VERTEX
  8
0
 62
7
  6
CONTINUOUS
 10
139.2114214398
 20
101.289684338
  0
VERTEX
  8
0
 62
7
  6
CONTINUOUS
 10
139.2316548299
 20
101.2749382116
  0
VERTEX
  8
0
 62
7
  6
CONTINUOUS
 10
139.2510370629
 20
101.259006168
  0
VERTEX
  8
0
 62
7
  6
CONTINUOUS
 10
139.2909156297
 20
101.2241640572
  0
SEQEND
  0
LINE
  8
0
 62
7
  6
CONTINUOUS
 10
69.8209462819
 20
114.6138157895
 11
128.8209462819
 21
114.6138157895
  0
LINE
  8
0
 62
7
  6
CONTINUOUS
 10
153.223392956
 20
86.6711758191
 11
153.8514977334
 21
86.8999541853
  0
LINE
  8
1_AXIS
 62
7
  6
CONTINUOUS
 10
153.2249512492
 20
86.6717429905
 11
150.1809462819
 21
85.5638157895
  0
LINE
  8
1_AXIS
 62
7
  6
CONTINUOUS
 10
150.1809462819
 20
101.3638157895
 11
153.2249512492
 21
100.2558885884
  0
LINE
  8
0
 62
7
  6
CONTINUOUS
 10
153.8517171576
 20
100.027597996
 11
153.223392956
 21
100.2564557598
  0
POLYLINE
  8
0
 62
7
  6
CONTINUOUS
 66
1
 70
0
  0
VERTEX
  8
0
 62
7
  6
CONTINUOUS
 10
153.8517171576
 20
100.027597996
  0
VERTEX
  8
0
 62
7
  6
CONTINUOUS
 10
153.8761592869
 20
100.0179540861
  0
VERTEX
  8
0
 62
7
  6
CONTINUOUS
 10
153.9002332952
 20
100.0069552183
  0
VERTEX
  8
0
 62
7
  6
CONTINUOUS
 10
153.9242555843
 20
99.9943833694
  0
VERTEX
  8
0
 62
7
  6
CONTINUOUS
 10
153.9471440029
 20
99.9807910846
  0
VERTEX
  8
0
 62
7
  6
CONTINUOUS
 10
153.9675746987
 20
99.967198714
  0
VERTEX
  8
0
 62
7
  6
CONTINUOUS
 10
153.9868000486
 20
99.9530191432
  0
VERTEX
  8
0
 62
7
  6
CONTINUOUS
 10
154.0055269939
 20
99.9377657714
  0
VERTEX
  8
0
 62
7
  6
CONTINUOUS
 10
154.0237774995
 20
99.921359727
  0
VERTEX
  8
0
 62
7
  6
CONTINUOUS
 10
154.042167904
 20
99.9030678724
  0
VERTEX
  8
0
 62
7
  6
CONTINUOUS
 10
154.0593986187
 20
99.8840634799
  0
VERTEX
  8
0
 62
7
  6
CONTINUOUS
 10
154.0741612582
 20
99.8660878435
  0
VERTEX
  8
0
 62
7
  6
CONTINUOUS
 10
154.0878398122
 20
99.8477714172
  0
VERTEX
  8
0
 62
7
  6
CONTINUOUS
 10
154.1012655719
 20
99.8279184037
  0
VERTEX
  8
0
 62
7
  6
CONTINUOUS
 10
154.1140556241
 20
99.8068693718
  0
VERTEX
  8
0
 62
7
  6
CONTINUOUS
 10
154.1262250331
 20
99.7843691103
  0
VERTEX
  8
0
 62
7
  6
CONTINUOUS
 10
154.1373338078
 20
99.7610376602
  0
VERTEX
  8
0
 62
7
  6
CONTINUOUS
 10
154.1470667561
 20
99.7375678095
  0
VERTEX
  8
0
 62
7
  6
CONTINUOUS
 10
154.1555283939
 20
99.7138364331
  0
VERTEX
  8
0
 62
7
  6
CONTINUOUS
 10
154.1626810737
 20
99.6900842513
  0
VERTEX
  8
0
 62
7
  6
CONTINUOUS
 10
154.1686702506
 20
99.6659012648
  0
VERTEX
  8
0
 62
7
  6
CONTINUOUS
 10
154.1735521224
 20
99.640830215
  0
VERTEX
  8
0
 62
7
  6
CONTINUOUS
 10
154.1771941338
 20
99.6151382322
  0
VERTEX
  8
0
 62
7
  6
CONTINUOUS
 10
154.1795214582
 20
99.5889229697
  0
VERTEX
  8
0
 62
7
  6
CONTINUOUS
 10
154.1804691741
 20
99.5622948755
  0
VERTEX
  8
0
 62
7
  6
CONTINUOUS
 10
154.1804890999
 20
99.5578310833
  0
SEQEND
  0
LINE
  8
1_AXIS
 62
7
  6
CONTINUOUS
 10
130.8209462819
 20
112.6138157895
 11
130.8209462819
 21
101.3638157895
  0
LINE
  8
1_AXIS
 62
7
  6
CONTINUOUS
 10
130.8209462819
 20
85.5638157895
 11
130.8209462819
 21
74.3138157895
  0
LINE
  8
0
 62
7
  6
CONTINUOUS
 10
140.3917543212
 20
86.477180117
 11
141.0997623757
 21
86.9557550025
  0
LINE
  8
0
 62
7
  6
CONTINUOUS
 10
139.7101539306
 20
86.0178956731
 11
140.3917543212
 21
86.477180117
  0
LINE
  8
0
 62
7
  6
CONTINUOUS
 10
140.3923948559
 20
100.450019168
 11
139.7101539304
 21
100.9097359059
  0
LINE
  8
0
 62
7
  6
CONTINUOUS
 10
141.0997623757
 20
99.9718765764
 11
140.3923948559
 21
100.450019168
  0
POLYLINE
  8
0
 62
7
  6
CONTINUOUS
 66
1
 70
0
  0
VERTEX
  8
0
 62
7
  6
CONTINUOUS
 10
139.7101514719
 20
100.9097375657
  0
VERTEX
  8
0
 62
7
  6
CONTINUOUS
 10
139.6442654467
 20
100.9546785058
  0
VERTEX
  8
0
 62
7
  6
CONTINUOUS
 10
139.5751056973
 20
101.0032892487
  0
VERTEX
  8
0
 62
7
  6
CONTINUOUS
 10
139.510111984
 20
101.0504955269
  0
VERTEX
  8
0
 62
7
  6
CONTINUOUS
 10
139.4492481858
 20
101.0962396704
  0
VERTEX
  8
0
 62
7
  6
CONTINUOUS
 10
139.3924582214
 20
101.1404741426
  0
VERTEX
  8
0
 62
7
  6
CONTINUOUS
 10
139.3396942064
 20
101.1831397236
  0
VERTEX
  8
0
 62
7
  6
CONTINUOUS
 10
139.2909156297
 20
101.2241640572
  0
SEQEND
  0
POLYLINE
  8
0
 62
7
  6
CONTINUOUS
 66
1
 70
0
  0
VERTEX
  8
0
 62
7
  6
CONTINUOUS
 10
141.0997623627
 20
99.9718765779
  0
VERTEX
  8
0
 62
7
  6
CONTINUOUS
 10
141.1219764333
 20
99.9559355124
  0
VERTEX
  8
0
 62
7
  6
CONTINUOUS
 10
141.1430571274
 20
99.9389983196
  0
VERTEX
  8
0
 62
7
  6
CONTINUOUS
 10
141.1628705499
 20
99.9212495408
  0
VERTEX
  8
0
 62
7
  6
CONTINUOUS
 10
141.1816354523
 20
99.9025526077
  0
VERTEX
  8
0
 62
7
  6
CONTINUOUS
 10
141.1995133689
 20
99.8827366407
  0
VERTEX
  8
0
 62
7
  6
CONTINUOUS
 10
141.2163937177
 20
99.8618837005
  0
VERTEX
  8
0
 62
7
  6
CONTINUOUS
 10
141.2322472818
 20
99.8399856594
  0
VERTEX
  8
0
 62
7
  6
CONTINUOUS
 10
141.2469682601
 20
99.8171405403
  0
VERTEX
  8
0
 62
7
  6
CONTINUOUS
 10
141.2604720126
 20
99.7934436049
  0
VERTEX
  8
0
 62
7
  6
CONTINUOUS
 10
141.2727096415
 20
99.7689465797
  0
VERTEX
  8
0
 62
7
  6
CONTINUOUS
 10
141.2836263525
 20
99.7437200494
  0
VERTEX
  8
0
 62
7
  6
CONTINUOUS
 10
141.2931744035
 20
99.7178307069
  0
VERTEX
  8
0
 62
7
  6
CONTINUOUS
 10
141.3013062785
 20
99.6913581183
  0
VERTEX
  8
0
 62
7
  6
CONTINUOUS
 10
141.3079850661
 20
99.6643610723
  0
VERTEX
  8
0
 62
7
  6
CONTINUOUS
 10
141.313172762
 20
99.6369079095
  0
VERTEX
  8
0
 62
7
  6
CONTINUOUS
 10
141.316832551
 20
99.6090758061
  0
VERTEX
  8
0
 62
7
  6
CONTINUOUS
 10
141.3189313149
 20
99.5809374648
  0
VERTEX
  8
0
 62
7
  6
CONTINUOUS
 10
141.319465505
 20
99.5578310833
  0
SEQEND
  0
POLYLINE
  8
0
 62
7
  6
CONTINUOUS
 66
1
 70
0
  0
VERTEX
  8
0
 62
7
  6
CONTINUOUS
 10
139.2510370612
 20
85.6686254088
  0
VERTEX
  8
0
 62
7
  6
CONTINUOUS
 10
139.290494691
 20
85.7031060798
  0
VERTEX
  8
0
 62
7
  6
CONTINUOUS
 10
139.3392420388
 20
85.7441189563
  0
VERTEX
  8
0
 62
7
  6
CONTINUOUS
 10
139.3919754603
 20
85.7867742916
  0
VERTEX
  8
0
 62
7
  6
CONTINUOUS
 10
139.4487355627
 20
85.8309996716
  0
VERTEX
  8
0
 62
7
  6
CONTINUOUS
 10
139.509570345
 20
85.8767358479
  0
VERTEX
  8
0
 62
7
  6
CONTINUOUS
 10
139.5745359753
 20
85.9239352441
  0
VERTEX
  8
0
 62
7
  6
CONTINUOUS
 10
139.643668663
 20
85.9725401546
  0
VERTEX
  8
0
 62
7
  6
CONTINUOUS
 10
139.7101516738
 20
86.017894149
  0
SEQEND
  0
LINE
  8
0
 62
7
  6
CONTINUOUS
 10
139.7865875766
 20
86.0638157895
 11
139.7865875766
 21
86.0693431626
  0
LINE
  8
0
 62
7
  6
CONTINUOUS
 10
139.7865875766
 20
100.8582883375
 11
139.7865875766
 21
100.8638157895
  0
LINE
  8
0
 62
7
  6
CONTINUOUS
 10
141.3194655051
 20
87.3698004956
 11
141.3194655051
 21
99.5578310833
  0
LINE
  8
0
 62
7
  6
CONTINUOUS
 10
142.2325875766
 20
86.0638157895
 11
142.2325875766
 21
100.8638157895
  0
POLYLINE
  8
0
 62
7
  6
CONTINUOUS
 66
1
 70
0
  0
VERTEX
  8
0
 62
7
  6
CONTINUOUS
 10
141.3194655051
 20
87.3698004956
  0
VERTEX
  8
0
 62
7
  6
CONTINUOUS
 10
141.318752537
 20
87.3431085534
  0
VERTEX
  8
0
 62
7
  6
CONTINUOUS
 10
141.3166159817
 20
87.3164956772
  0
VERTEX
  8
0
 62
7
  6
CONTINUOUS
 10
141.3130622314
 20
87.2900366455
  0
VERTEX
  8
0
 62
7
  6
CONTINUOUS
 10
141.3081014816
 20
87.263805767
  0
VERTEX
  8
0
 62
7
  6
CONTINUOUS
 10
141.3017472836
 20
87.2378751906
  0
VERTEX
  8
0
 62
7
  6
CONTINUOUS
 10
141.2940186826
 20
87.2123226188
  0
VERTEX
  8
0
 62
7
  6
CONTINUOUS
 10
141.2849397052
 20
87.1872251166
  0
VERTEX
  8
0
 62
7
  6
CONTINUOUS
 10
141.2745353146
 20
87.1626496605
  0
VERTEX
  8
0
 62
7
  6
CONTINUOUS
 10
141.2628341417
 20
87.1386636269
  0
VERTEX
  8
0
 62
7
  6
CONTINUOUS
 10
141.2498692988
 20
87.1153352243
  0
VERTEX
  8
0
 62
7
  6
CONTINUOUS
 10
141.2356760142
 20
87.0927286419
  0
VERTEX
  8
0
 62
7
  6
CONTINUOUS
 10
141.2202975245
 20
87.0709130716
  0
VERTEX
  8
0
 62
7
  6
CONTINUOUS
 10
141.203782518
 20
87.049956106
  0
VERTEX
  8
0
 62
7
  6
CONTINUOUS
 10
141.1861740993
 20
87.0299110917
  0
VERTEX
  8
0
 62
7
  6
CONTINUOUS
 10
141.1675188186
 20
87.0108312895
  0
VERTEX
  8
0
 62
7
  6
CONTINUOUS
 10
141.1478703796
 20
86.992772329
  0
VERTEX
  8
0
 62
7
  6
CONTINUOUS
 10
141.127282979
 20
86.9757847564
  0
VERTEX
  8
0
 62
7
  6
CONTINUOUS
 10
141.1058190171
 20
86.9599204325
  0
VERTEX
  8
0
 62
7
  6
CONTINUOUS
 10
141.0997636008
 20
86.9557558392
  0
SEQEND
  0
POLYLINE
  8
0
 62
7
  6
CONTINUOUS
 66
1
 70
0
  0
VERTEX
  8
0
 62
7
  6
CONTINUOUS
 10
146.7133831622
 20
85.5712738915
  0
VERTEX
  8
0
 62
7
  6
CONTINUOUS
 10
146.7124145221
 20
85.5696597692
  0
VERTEX
  8
0
 62
7
  6
CONTINUOUS
 10
146.7121240025
 20
85.568215302
  0
VERTEX
  8
0
 62
7
  6
CONTINUOUS
 10
146.7124869457
 20
85.5669281289
  0
VERTEX
  8
0
 62
7
  6
CONTINUOUS
 10
146.7135760664
 20
85.5658353331
  0
VERTEX
  8
0
 62
7
  6
CONTINUOUS
 10
146.7154525292
 20
85.5649670471
  0
VERTEX
  8
0
 62
7
  6
CONTINUOUS
 10
146.7181266059
 20
85.5643317608
  0
VERTEX
  8
0
 62
7
  6
CONTINUOUS
 10
146.7216329771
 20
85.563950325
  0
VERTEX
  8
0
 62
7
  6
CONTINUOUS
 10
146.7259598277
 20
85.5638157895
  0
SEQEND
  0
POLYLINE
  8
0
 62
7
  6
CONTINUOUS
 66
1
 70
0
  0
VERTEX
  8
0
 62
7
  6
CONTINUOUS
 10
146.7133831616
 20
85.5712738933
  0
VERTEX
  8
0
 62
7
  6
CONTINUOUS
 10
146.7166619588
 20
85.5766562697
  0
VERTEX
  8
0
 62
7
  6
CONTINUOUS
 10
146.7196724756
 20
85.5834637281
  0
VERTEX
  8
0
 62
7
  6
CONTINUOUS
 10
146.7224056272
 20
85.5916735489
  0
VERTEX
  8
0
 62
7
  6
CONTINUOUS
 10
146.7248550218
 20
85.6012591822
  0
VERTEX
  8
0
 62
7
  6
CONTINUOUS
 10
146.727012929
 20
85.6121902242
  0
VERTEX
  8
0
 62
7
  6
CONTINUOUS
 10
146.7288747454
 20
85.6244322572
  0
VERTEX
  8
0
 62
7
  6
CONTINUOUS
 10
146.730434376
 20
85.6379472387
  0
VERTEX
  8
0
 62
7
  6
CONTINUOUS
 10
146.7316890108
 20
85.6526933653
  0
VERTEX
  8
0
 62
7
  6
CONTINUOUS
 10
146.7326342972
 20
85.6686254092
  0
VERTEX
  8
0
 62
7
  6
CONTINUOUS
 10
146.7332692356
 20
85.6856947319
  0
VERTEX
  8
0
 62
7
  6
CONTINUOUS
 10
146.7335912931
 20
85.7038495129
  0
VERTEX
  8
0
 62
7
  6
CONTINUOUS
 10
146.733601261
 20
85.7230349789
  0
VERTEX
  8
0
 62
7
  6
CONTINUOUS
 10
146.7332984706
 20
85.7431934597
  0
VERTEX
  8
0
 62
7
  6
CONTINUOUS
 10
146.7326854488
 20
85.7642648355
  0
VERTEX
  8
0
 62
7
  6
CONTINUOUS
 10
146.7317633996
 20
85.7861864141
  0
VERTEX
  8
0
 62
7
  6
CONTINUOUS
 10
146.7305365023
 20
85.8088935814
  0
VERTEX
  8
0
 62
7
  6
CONTINUOUS
 10
146.7290078095
 20
85.8323195059
  0
VERTEX
  8
0
 62
7
  6
CONTINUOUS
 10
146.7271830503
 20
85.8563959541
  0
VERTEX
  8
0
 62
7
  6
CONTINUOUS
 10
146.7250670707
 20
85.8810528592
  0
VERTEX
  8
0
 62
7
  6
CONTINUOUS
 10
146.7226670471
 20
85.9062192123
  0
VERTEX
  8
0
 62
7
  6
CONTINUOUS
 10
146.7199895226
 20
85.9318225668
  0
VERTEX
  8
0
 62
7
  6
CONTINUOUS
 10
146.7170431039
 20
85.9577899828
  0
VERTEX
  8
0
 62
7
  6
CONTINUOUS
 10
146.7138365458
 20
85.9840475686
  0
VERTEX
  8
0
 62
7
  6
CONTINUOUS
 10
146.7103782351
 20
86.0105209689
  0
VERTEX
  8
0
 62
7
  6
CONTINUOUS
 10
146.7066836704
 20
86.0371358888
  0
VERTEX
  8
0
 62
7
  6
CONTINUOUS
 10
146.7027430639
 20
86.0638157895
  0
SEQEND
  0
POLYLINE
  8
0
 62
7
  6
CONTINUOUS
 66
1
 70
0
  0
VERTEX
  8
0
 62
7
  6
CONTINUOUS
 10
146.7133831615
 20
101.3563576858
  0
VERTEX
  8
0
 62
7
  6
CONTINUOUS
 10
146.7166619586
 20
101.3509753095
  0
VERTEX
  8
0
 62
7
  6
CONTINUOUS
 10
146.7196724753
 20
101.3441678511
  0
VERTEX
  8
0
 62
7
  6
CONTINUOUS
 10
146.7224056267
 20
101.3359580303
  0
VERTEX
  8
0
 62
7
  6
CONTINUOUS
 10
146.7248550212
 20
101.3263723971
  0
VERTEX
  8
0
 62
7
  6
CONTINUOUS
 10
146.7270129282
 20
101.3154413551
  0
VERTEX
  8
0
 62
7
  6
CONTINUOUS
 10
146.7288747444
 20
101.3031993221
  0
VERTEX
  8
0
 62
7
  6
CONTINUOUS
 10
146.7304343748
 20
101.2896843406
  0
VERTEX
  8
0
 62
7
  6
CONTINUOUS
 10
146.7316890094
 20
101.2749382141
  0
VERTEX
  8
0
 62
7
  6
CONTINUOUS
 10
146.7326342956
 20
101.2590061702
  0
VERTEX
  8
0
 62
7
  6
CONTINUOUS
 10
146.7332692338
 20
101.2419368475
  0
VERTEX
  8
0
 62
7
  6
CONTINUOUS
 10
146.7335912911
 20
101.2237820667
  0
VERTEX
  8
0
 62
7
  6
CONTINUOUS
 10
146.7336012587
 20
101.2045966007
  0
VERTEX
  8
0
 62
7
  6
CONTINUOUS
 10
146.733298468
 20
101.1844381199
  0
VERTEX
  8
0
 62
7
  6
CONTINUOUS
 10
146.7326854458
 20
101.1633667441
  0
VERTEX
  8
0
 62
7
  6
CONTINUOUS
 10
146.7317633963
 20
101.1414451656
  0
VERTEX
  8
0
 62
7
  6
CONTINUOUS
 10
146.7305364985
 20
101.1187379983
  0
VERTEX
  8
0
 62
7
  6
CONTINUOUS
 10
146.7290078052
 20
101.0953120739
  0
VERTEX
  8
0
 62
7
  6
CONTINUOUS
 10
146.7271830454
 20
101.0712356259
  0
VERTEX
  8
0
 62
7
  6
CONTINUOUS
 10
146.7250670651
 20
101.0465787209
  0
VERTEX
  8
0
 62
7
  6
CONTINUOUS
 10
146.7226670405
 20
101.0214123679
  0
VERTEX
  8
0
 62
7
  6
CONTINUOUS
 10
146.7199895149
 20
100.9958090135
  0
VERTEX
  8
0
 62
7
  6
CONTINUOUS
 10
146.717043094
 20
100.9698415978
  0
VERTEX
  8
0
 62
7
  6
CONTINUOUS
 10
146.71383653
 20
100.9435840129
  0
VERTEX
  8
0
 62
7
  6
CONTINUOUS
 10
146.7103782161
 20
100.9171106131
  0
VERTEX
  8
0
 62
7
  6
CONTINUOUS
 10
146.7066836576
 20
100.8904956922
  0
VERTEX
  8
0
 62
7
  6
CONTINUOUS
 10
146.7027430644
 20
100.8638157895
  0
SEQEND
  0
POLYLINE
  8
0
 62
7
  6
CONTINUOUS
 66
1
 70
0
  0
VERTEX
  8
0
 62
7
  6
CONTINUOUS
 10
146.7133831621
 20
101.3563576875
  0
VERTEX
  8
0
 62
7
  6
CONTINUOUS
 10
146.7124145221
 20
101.3579718099
  0
VERTEX
  8
0
 62
7
  6
CONTINUOUS
 10
146.7121240025
 20
101.3594162771
  0
VERTEX
  8
0
 62
7
  6
CONTINUOUS
 10
146.7124869457
 20
101.3607034501
  0
VERTEX
  8
0
 62
7
  6
CONTINUOUS
 10
146.7135760665
 20
101.3617962459
  0
VERTEX
  8
0
 62
7
  6
CONTINUOUS
 10
146.7154525293
 20
101.3626645318
  0
VERTEX
  8
0
 62
7
  6
CONTINUOUS
 10
146.7181266059
 20
101.3632998181
  0
VERTEX
  8
0
 62
7
  6
CONTINUOUS
 10
146.7216329771
 20
101.3636812539
  0
VERTEX
  8
0
 62
7
  6
CONTINUOUS
 10
146.7259598277
 20
101.3638157895
  0
SEQEND
  0
LINE
  8
0
 62
7
  6
CONTINUOUS
 10
154.1804890999
 20
87.3698004956
 11
154.1804890999
 21
99.5578310833
  0
POLYLINE
  8
0
 62
7
  6
CONTINUOUS
 66
1
 70
0
  0
VERTEX
  8
0
 62
7
  6
CONTINUOUS
 10
154.1804890999
 20
87.3698004956
  0
VERTEX
  8
0
 62
7
  6
CONTINUOUS
 10
154.1798083744
 20
87.3437186616
  0
VERTEX
  8
0
 62
7
  6
CONTINUOUS
 10
154.17778629
 20
87.3178822451
  0
VERTEX
  8
0
 62
7
  6
CONTINUOUS
 10
154.1744423801
 20
87.292275293
  0
VERTEX
  8
0
 62
7
  6
CONTINUOUS
 10
154.1697979079
 20
87.2669564851
  0
VERTEX
  8
0
 62
7
  6
CONTINUOUS
 10
154.1638749041
 20
87.2419796666
  0
VERTEX
  8
0
 62
7
  6
CONTINUOUS
 10
154.1566865886
 20
87.2173670617
  0
VERTEX
  8
0
 62
7
  6
CONTINUOUS
 10
154.148228879
 20
87.1931100912
  0
VERTEX
  8
0
 62
7
  6
CONTINUOUS
 10
154.1385672261
 20
87.1693898414
  0
VERTEX
  8
0
 62
7
  6
CONTINUOUS
 10
154.1278122416
 20
87.1464129245
  0
VERTEX
  8
0
 62
7
  6
CONTINUOUS
 10
154.1159559176
 20
87.1241001686
  0
VERTEX
  8
0
 62
7
  6
CONTINUOUS
 10
154.1030189603
 20
87.1024645327
  0
VERTEX
  8
0
 62
7
  6
CONTINUOUS
 10
154.0889877056
 20
87.0814796862
  0
VERTEX
  8
0
 62
7
  6
CONTINUOUS
 10
154.0737786894
 20
87.0610557811
  0
VERTEX
  8
0
 62
7
  6
CONTINUOUS
 10
154.0575687167
 20
87.0414546983
  0
VERTEX
  8
0
 62
7
  6
CONTINUOUS
 10
154.040609743
 20
87.0229386753
  0
VERTEX
  8
0
 62
7
  6
CONTINUOUS
 10
154.0227854006
 20
87.0053375448
  0
VERTEX
  8
0
 62
7
  6
CONTINUOUS
 10
154.0040077609
 20
86.988571331
  0
VERTEX
  8
0
 62
7
  6
CONTINUOUS
 10
153.9843418998
 20
86.9727192999
  0
VERTEX
  8
0
 62
7
  6
CONTINUOUS
 10
153.9637670044
 20
86.9577888103
  0
VERTEX
  8
0
 62
7
  6
CONTINUOUS
 10
153.9424700081
 20
86.9439296188
  0
VERTEX
  8
0
 62
7
  6
CONTINUOUS
 10
153.9207490469
 20
86.9313085825
  0
VERTEX
  8
0
 62
7
  6
CONTINUOUS
 10
153.8983636847
 20
86.9197664244
  0
VERTEX
  8
0
 62
7
  6
CONTINUOUS
 10
153.8750871546
 20
86.9092230354
  0
VERTEX
  8
0
 62
7
  6
CONTINUOUS
 10
153.8517146765
 20
86.9000326786
  0
SEQEND
  0
ARC
  8
0
 62
7
  6
CONTINUOUS
 10
45.2534847848
 20
196.7017578896
 40
6.35
 50
10.8662369103
 51
70.5
  0
ARC
  8
0
 62
7
  6
CONTINUOUS
 10
46.0696312199
 20
192.0731614505
 40
6.35
 50
309.5
 51
9.1337630897
  0
ARC
  8
0
 62
7
  6
CONTINUOUS
 10
62.4970635399
 20
163.6200140342
 40
6.35
 50
50.8662369103
 51
110.5
  0
ARC
  8
0
 62
7
  6
CONTINUOUS
 10
66.0974724226
 20
160.5989122687
 40
6.35
 50
349.5
 51
49.1337630897
  0
ARC
  8
0
 62
7
  6
CONTINUOUS
 10
96.9709462819
 20
149.3618867555
 40
6.35
 50
90.8662369103
 51
150.5
  0
ARC
  8
DEFAULT_3
 62
2
  6
PHANTOM
 10
72.9062380171
 20
197.4540112098
 40
3.2
 50
45.0
 51
87.7455692247
  0
ARC
  8
DEFAULT_3
 62
2
  6
PHANTOM
 10
77.1488787042
 20
193.2113705227
 40
3.2
 50
3.5903778907
 51
45.0
  0
ARC
  8
DEFAULT_3
 62
2
  6
PHANTOM
 10
83.5363171633
 20
193.6121571629
 40
3.2
 50
183.5903778907
 51
225.0
  0
ARC
  8
DEFAULT_3
 62
2
  6
PHANTOM
 10
89.0840458528
 20
188.0644284735
 40
3.2
 50
225.0
 51
266.4096221093
  0
ARC
  8
DEFAULT_3
 62
2
  6
PHANTOM
 10
88.6832592125
 20
181.6769900144
 40
3.2
 50
45.0
 51
86.4096221093
  0
ARC
  8
DEFAULT_3
 62
2
  6
PHANTOM
 10
92.9258998996
 20
177.4343493272
 40
3.2
 50
2.2544307753
 51
45.0
  0
ARC
  8
0
 62
7
  6
CONTINUOUS
 10
48.3159368134
 20
185.0474989035
 40
0.5
 50
129.5
 51
200.2349864082
  0
ARC
  8
0
 62
7
  6
CONTINUOUS
 10
57.5358140926
 20
169.0782030164
 40
0.5
 50
219.7650135918
 51
290.5
  0
ARC
  8
0
 62
7
  6
CONTINUOUS
 10
72.3342511751
 20
156.6608399184
 40
0.5
 50
169.5
 51
240.2349864082
  0
ARC
  8
0
 62
7
  6
CONTINUOUS
 10
89.6619524627
 20
150.3540724214
 40
0.5
 50
259.7650135918
 51
330.5
  0
ARC
  8
2_FEATURE
 62
7
  6
CONTINUOUS
 10
82.8935139618
 20
255.8539972915
 40
6.35
 50
290.8662369103
 51
350.5
  0
ARC
  8
2_FEATURE
 62
7
  6
CONTINUOUS
 10
78.4769586441
 20
254.2465026178
 40
6.35
 50
229.5
 51
289.1337630897
  0
ARC
  8
0
 62
7
  6
CONTINUOUS
 10
53.3086721571
 20
233.1278027092
 40
6.35
 50
330.8662369103
 51
30.5
  0
ARC
  8
0
 62
7
  6
CONTINUOUS
 10
50.9586721571
 20
229.0574833114
 40
6.35
 50
269.5
 51
329.1337630897
  0
ARC
  8
DEFAULT_3
 62
2
  6
PHANTOM
 10
72.9062380171
 20
210.2441039743
 40
3.2
 50
272.2544307753
 51
315.0
  0
ARC
  8
DEFAULT_3
 62
2
  6
PHANTOM
 10
73.157995378
 20
203.849057592
 40
3.2
 50
92.2544307753
 51
267.7455692247
  0
ARC
  8
DEFAULT_3
 62
2
  6
PHANTOM
 10
92.9258998996
 20
230.2637658568
 40
3.2
 50
315.0
 51
357.7455692247
  0
ARC
  8
DEFAULT_3
 62
2
  6
PHANTOM
 10
88.6832592125
 20
226.0211251697
 40
3.2
 50
273.5903778907
 51
315.0
  0
ARC
  8
DEFAULT_3
 62
2
  6
PHANTOM
 10
89.0840458528
 20
219.6336867106
 40
3.2
 50
93.5903778907
 51
135.0
  0
ARC
  8
DEFAULT_3
 62
2
  6
PHANTOM
 10
83.5363171633
 20
214.0859580211
 40
3.2
 50
135.0
 51
176.4096221093
  0
ARC
  8
DEFAULT_3
 62
2
  6
PHANTOM
 10
77.1488787042
 20
214.4867446614
 40
3.2
 50
315.0
 51
356.4096221093
  0
ARC
  8
2_FEATURE
 62
7
  6
CONTINUOUS
 10
90.1010690027
 20
257.4214708563
 40
0.5
 50
99.7650135918
 51
170.5
  0
ARC
  8
0
 62
7
  6
CONTINUOUS
 10
57.8224270586
 20
238.9614841997
 40
0.5
 50
139.7650135918
 51
210.5
  0
ARC
  8
2_FEATURE
 62
7
  6
CONTINUOUS
 10
71.9480985706
 20
250.8143299555
 40
0.5
 50
49.5
 51
120.2349864081
  0
ARC
  8
0
 62
7
  6
CONTINUOUS
 10
48.1634332395
 20
222.231616155
 40
0.5
 50
89.5
 51
160.2349864082
  0
ARC
  8
0
 62
7
  6
CONTINUOUS
 10
44.9614034638
 20
204.0720029022
 40
0.5
 50
179.7650135918
 51
250.5
  0
ARC
  8
0
 62
7
  6
CONTINUOUS
 10
101.6709462819
 20
149.3618867555
 40
6.35
 50
29.5
 51
89.1337630897
  0
ARC
  8
0
 62
7
  6
CONTINUOUS
 10
153.3884077789
 20
196.7017578896
 40
6.35
 50
109.5
 51
169.1337630897
  0
ARC
  8
0
 62
7
  6
CONTINUOUS
 10
132.5444201412
 20
160.5989122687
 40
6.35
 50
130.8662369103
 51
190.5
  0
ARC
  8
0
 62
7
  6
CONTINUOUS
 10
136.1448290238
 20
163.6200140342
 40
6.35
 50
69.5
 51
129.1337630897
  0
ARC
  8
0
 62
7
  6
CONTINUOUS
 10
152.5722613439
 20
192.0731614505
 40
6.35
 50
170.8662369103
 51
230.5
  0
ARC
  8
DEFAULT_3
 62
2
  6
PHANTOM
 10
99.3209462819
 20
177.6861066881
 40
3.2
 50
182.2544307753
 51
357.7455692247
  0
ARC
  8
DEFAULT_3
 62
2
  6
PHANTOM
 10
105.7159926641
 20
177.4343493272
 40
3.2
 50
135.0
 51
177.7455692247
  0
ARC
  8
DEFAULT_3
 62
2
  6
PHANTOM
 10
109.9586333513
 20
181.6769900144
 40
3.2
 50
93.5903778907
 51
135.0
  0
ARC
  8
DEFAULT_3
 62
2
  6
PHANTOM
 10
109.557846711
 20
188.0644284735
 40
3.2
 50
273.5903778907
 51
315.0
  0
ARC
  8
DEFAULT_3
 62
2
  6
PHANTOM
 10
115.1055754004
 20
193.6121571629
 40
3.2
 50
315.0
 51
356.4096221093
  0
ARC
  8
DEFAULT_3
 62
2
  6
PHANTOM
 10
121.4930138596
 20
193.2113705227
 40
3.2
 50
135.0
 51
176.4096221093
  0
ARC
  8
DEFAULT_3
 62
2
  6
PHANTOM
 10
125.7356545467
 20
197.4540112098
 40
3.2
 50
92.2544307753
 51
135.0
  0
ARC
  8
0
 62
7
  6
CONTINUOUS
 10
108.979940101
 20
150.3540724214
 40
0.5
 50
209.5
 51
280.2349864082
  0
ARC
  8
0
 62
7
  6
CONTINUOUS
 10
126.3076413886
 20
156.6608399184
 40
0.5
 50
299.7650135918
 51
10.5
  0
ARC
  8
0
 62
7
  6
CONTINUOUS
 10
141.1060784712
 20
169.0782030164
 40
0.5
 50
249.5
 51
320.2349864081
  0
ARC
  8
0
 62
7
  6
CONTINUOUS
 10
150.3259557504
 20
185.0474989035
 40
0.5
 50
339.7650135919
 51
50.5
  0
ARC
  8
0
 62
7
  6
CONTINUOUS
 10
99.3209462819
 20
203.849057592
 40
54.86
 50
120.2349864082
 51
139.7650135918
  0
ARC
  8
0
 62
7
  6
CONTINUOUS
 10
99.3209462819
 20
203.849057592
 40
54.86
 50
160.2349864082
 51
179.7650135918
  0
ARC
  8
0
 62
7
  6
CONTINUOUS
 10
99.3209462819
 20
203.849057592
 40
54.86
 50
200.2349864082
 51
219.7650135918
  0
ARC
  8
0
 62
7
  6
CONTINUOUS
 10
99.3209462819
 20
203.849057592
 40
54.86
 50
240.2349864082
 51
259.7650135918
  0
ARC
  8
0
 62
7
  6
CONTINUOUS
 10
99.3209462819
 20
203.849057592
 40
54.86
 50
280.2349864082
 51
299.7650135918
  0
ARC
  8
0
 62
7
  6
CONTINUOUS
 10
99.3209462819
 20
203.849057592
 40
54.86
 50
320.2349864082
 51
339.7650135918
  0
ARC
  8
0
 62
7
  6
CONTINUOUS
 10
99.3209462819
 20
203.849057592
 40
54.86
 50
0.2349864082
 51
19.7650135918
  0
ARC
  8
0
 62
7
  6
CONTINUOUS
 10
99.3209462819
 20
203.849057592
 40
54.86
 50
40.2349864082
 51
59.7650135918
  0
ARC
  8
0
 62
7
  6
CONTINUOUS
 10
99.3209462819
 20
203.849057592
 40
54.86
 50
80.2349864082
 51
99.7650135918
  0
ARC
  8
1_AXIS
 62
7
  6
CONTINUOUS
 10
99.3209462819
 20
203.849057592
 40
54.86
 50
40.2349864082
 51
59.7650135918
  0
ARC
  8
0
 62
7
  6
CONTINUOUS
 10
99.3209462819
 20
203.849057592
 40
50.86
 50
118.7596167929
 51
141.2403832071
  0
ARC
  8
0
 62
7
  6
CONTINUOUS
 10
99.3209462819
 20
203.849057592
 40
50.86
 50
158.7596167929
 51
181.2403832071
  0
ARC
  8
0
 62
7
  6
CONTINUOUS
 10
99.3209462819
 20
203.849057592
 40
50.86
 50
198.7596167929
 51
221.2403832071
  0
ARC
  8
0
 62
7
  6
CONTINUOUS
 10
99.3209462819
 20
203.849057592
 40
50.86
 50
238.7596167929
 51
261.2403832071
  0
ARC
  8
0
 62
7
  6
CONTINUOUS
 10
99.3209462819
 20
203.849057592
 40
50.86
 50
278.7596167929
 51
301.2403832071
  0
ARC
  8
0
 62
7
  6
CONTINUOUS
 10
99.3209462819
 20
203.849057592
 40
50.86
 50
318.7596167929
 51
341.2403832071
  0
ARC
  8
0
 62
7
  6
CONTINUOUS
 10
99.3209462819
 20
203.849057592
 40
50.86
 50
358.7596167929
 51
21.2403832071
  0
ARC
  8
0
 62
7
  6
CONTINUOUS
 10
99.3209462819
 20
203.849057592
 40
50.86
 50
38.7596167929
 51
61.2403832071
  0
ARC
  8
0
 62
7
  6
CONTINUOUS
 10
99.3209462819
 20
203.849057592
 40
50.86
 50
78.7596167929
 51
101.2403832071
  0
ARC
  8
2_FEATURE
 62
7
  6
CONTINUOUS
 10
99.3209462819
 20
203.849057592
 40
48.2
 50
107.0911680906
 51
112.9088319094
  0
ARC
  8
0
 62
7
  6
CONTINUOUS
 10
99.3209462819
 20
203.849057592
 40
48.2
 50
147.0911680906
 51
152.9088319094
  0
ARC
  8
0
 62
7
  6
CONTINUOUS
 10
99.3209462819
 20
203.849057592
 40
48.2
 50
187.0911680906
 51
192.9088319094
  0
ARC
  8
0
 62
7
  6
CONTINUOUS
 10
99.3209462819
 20
203.849057592
 40
48.2
 50
67.0911680906
 51
72.9088319094
  0
ARC
  8
0
 62
7
  6
CONTINUOUS
 10
99.3209462819
 20
203.849057592
 40
48.2
 50
227.0911680906
 51
232.9088319094
  0
ARC
  8
0
 62
7
  6
CONTINUOUS
 10
99.3209462819
 20
203.849057592
 40
48.2
 50
27.0911680906
 51
32.9088319094
  0
ARC
  8
0
 62
7
  6
CONTINUOUS
 10
99.3209462819
 20
203.849057592
 40
48.2
 50
267.0911680906
 51
272.9088319094
  0
ARC
  8
0
 62
7
  6
CONTINUOUS
 10
99.3209462819
 20
203.849057592
 40
48.2
 50
307.0911680906
 51
312.9088319094
  0
ARC
  8
0
 62
7
  6
CONTINUOUS
 10
99.3209462819
 20
203.849057592
 40
48.2
 50
347.0911680906
 51
352.9088319094
  0
CIRCLE
  8
0
 62
7
  6
CONTINUOUS
 10
99.3209462819
 20
203.849057592
 40
31.5
  0
CIRCLE
  8
DEFAULT_3
 62
2
  6
PHANTOM
 10
99.3209462819
 20
203.849057592
 40
8.0
  0
ARC
  8
DEFAULT_3
 62
2
  6
PHANTOM
 10
109.557846711
 20
219.6336867106
 40
3.2
 50
45.0
 51
86.4096221093
  0
ARC
  8
DEFAULT_3
 62
2
  6
PHANTOM
 10
109.9586333513
 20
226.0211251697
 40
3.2
 50
225.0
 51
266.4096221093
  0
ARC
  8
DEFAULT_3
 62
2
  6
PHANTOM
 10
105.7159926641
 20
230.2637658568
 40
3.2
 50
182.2544307753
 51
225.0
  0
ARC
  8
DEFAULT_3
 62
2
  6
PHANTOM
 10
99.3209462819
 20
230.0120084959
 40
3.2
 50
2.2544307753
 51
177.7455692247
  0
ARC
  8
DEFAULT_3
 62
2
  6
PHANTOM
 10
125.4838971858
 20
203.849057592
 40
3.2
 50
272.2544307753
 51
87.7455692247
  0
ARC
  8
DEFAULT_3
 62
2
  6
PHANTOM
 10
125.7356545467
 20
210.2441039743
 40
3.2
 50
225.0
 51
267.7455692247
  0
ARC
  8
DEFAULT_3
 62
2
  6
PHANTOM
 10
121.4930138596
 20
214.4867446614
 40
3.2
 50
183.5903778907
 51
225.0
  0
ARC
  8
DEFAULT_3
 62
2
  6
PHANTOM
 10
115.1055754004
 20
214.0859580211
 40
3.2
 50
3.5903778907
 51
45.0
  0
ARC
  8
0
 62
7
  6
CONTINUOUS
 10
115.748378602
 20
255.8539972915
 40
6.35
 50
189.5
 51
249.1337630897
  0
ARC
  8
0
 62
7
  6
CONTINUOUS
 10
120.1649339197
 20
254.2465026178
 40
6.35
 50
250.8662369103
 51
310.5
  0
ARC
  8
0
 62
7
  6
CONTINUOUS
 10
108.5408235611
 20
257.4214708563
 40
0.5
 50
9.5
 51
80.2349864082
  0
ARC
  8
0
 62
7
  6
CONTINUOUS
 10
147.6832204067
 20
229.0574833114
 40
6.35
 50
210.8662369103
 51
270.5
  0
ARC
  8
0
 62
7
  6
CONTINUOUS
 10
150.4784593243
 20
222.231616155
 40
0.5
 50
19.7650135918
 51
90.5
  0
ARC
  8
0
 62
7
  6
CONTINUOUS
 10
153.6804890999
 20
204.0720029022
 40
0.5
 50
289.5
 51
0.2349864082
  0
ARC
  8
0
 62
7
  6
CONTINUOUS
 10
145.3332204067
 20
233.1278027092
 40
6.35
 50
149.5
 51
209.1337630897
  0
ARC
  8
0
 62
7
  6
CONTINUOUS
 10
126.6937939932
 20
250.8143299555
 40
0.5
 50
59.7650135918
 51
130.5
  0
ARC
  8
0
 62
7
  6
CONTINUOUS
 10
140.8194655051
 20
238.9614841997
 40
0.5
 50
329.5
 51
40.2349864082
  0
ARC
  8
0
 62
7
  6
CONTINUOUS
 10
128.8209462819
 20
112.6138157895
 40
2.0
 50
0.0
 51
90.0
  0
ARC
  8
0
 62
7
  6
CONTINUOUS
 10
69.8209462819
 20
112.6138157895
 40
2.0
 50
90.0
 51
180.0
  0
ARC
  8
0
 62
7
  6
CONTINUOUS
 10
128.8209462819
 20
74.3138157895
 40
2.0
 50
270.0
 51
360.0
  0
ARC
  8
0
 62
7
  6
CONTINUOUS
 10
69.8209462819
 20
74.3138157895
 40
2.0
 50
180.0
 51
270.0
  0
ENDSEC
  0
EOF
