  0
SECTION
  2
HEADER
  9
$EXTMAX
 10
210.0
 20
297.0
 30
0.0
  9
$EXTMIN
 10
0.0
 20
0.0
 30
0.0
  9
$LIMMIN
 10
0.0
 20
0.0
  9
$LIMMAX
 10
210.0
 20
297.0
  9
$VIEWCTR
 10
105.0
 20
148.5
  9
$VIEWSIZE
 40
297.0
  9
$CLAYER
  8
0
  9
$LTSCALE
 40
19.36
  9
$CELTYPE
  6
BYLAYER
  9
$DIMSCALE
 40
1.0
  9
$DIMASZ
 40
3.5
  9
$DIMEXO
 40
1.0
  9
$DIMDLI
 40
13.376
  9
$DIMEXE
 40
2.0
  9
$DIMCEN
 40
3.168
  9
$DIMLFAC
 40
1.0
  9
$DIMBLK
  1
_FILLED
  9
$DIMTXT
 40
3.5
  9
$PDMODE
 70
3
  9
$PDSIZE
 40
0.3125
  9
$TILEMODE
 70
1
  0
ENDSEC
  0
SECTION
  2
TABLES
  0
TABLE
  2
LTYPE
 70
6
  0
LTYPE
  2
BYBLOCK
 70
0
  3

 72
65
 73
0
 40
0.0
  0
LTYPE
  2
BYLAYER
 70
0
  3

 72
65
 73
0
 40
0.0
  0
LTYPE
  2
CONTINUOUS
 70
64
  3
Solid line
 72
65
 73
0
 40
0.0
  0
LTYPE
  2
CENTER
 70
64
  3
____ _ ____ _ ____ _ ____ _ ____ _ ____ _ ____
 72
65
 73
4
 40
0.6
 49
0.375
 49
-0.075
 49
0.075
 49
-0.075
  0
LTYPE
  2
HIDDEN
 70
64
  3
- - - - - - - - - - - - - - - - - - - -
 72
65
 73
2
 40
0.2
 49
0.1
 49
-0.1
  0
LTYPE
  2
PHANTOM
 70
64
  3
_____ _ _ _____ _ _ _____ _ _ _____
 72
65
 73
6
 40
0.8
 49
0.45
 49
-0.05
 49
0.1
 49
-0.05
 49
0.1
 49
-0.05
  0
LTYPE
  2
DOT
 70
64
  3
. . . . . . . . . . . . . . . . . . . .
 72
65
 73
2
 40
0.2
 49
0.1
 49
-0.1
  0
LTYPE
  2
DASHED
 70
64
  3
- - - - - - - - - - - - - - - - - - - -
 72
65
 73
2
 40
0.2
 49
0.1
 49
-0.1
  0
ENDTAB
  0
TABLE
  2
LAYER
 70
36
  0
LAYER
  2
0
 70
0
 62
7
  6
CONTINUOUS
  0
LAYER
  2
DEFAULT_1
 70
0
 62
7
  6
CENTER
  0
LAYER
  2
DEFAULT_2
 70
0
 62
8
  6
HIDDEN
  0
LAYER
  2
DEFAULT_3
 70
0
 62
7
  6
PHANTOM
  0
LAYER
  2
CURVE
 70
0
 62
7
  6
CONTINUOUS
  0
LAYER
  2
NOTES
 70
0
 62
7
  6
CONTINUOUS
  0
LAYER
  2
PLANES
 70
0
 62
7
  6
CONTINUOUS
  0
LAYER
  2
QUILT
 70
0
 62
7
  6
CONTINUOUS
  0
LAYER
  2
SURFACE
 70
0
 62
7
  6
CONTINUOUS
  0
ENDTAB
  0
TABLE
  2
STYLE
 70
1
  0
STYLE
  2
STANDARD
 70
0
 40
0.0
 41
0.8
 50
0.0
 71
0
 42
0.2
  3
txt
  4

  0
STYLE
  2
TEXTSTYLE_1
 70
0
 40
0.0
 41
0.8
 50
0.0
 71
0
 42
0.2
  3
gdt
  4

  0
STYLE
  2
TEXTSTYLE_2
 70
0
 40
0.0
 41
0.6
 50
0.0
 71
0
 42
0.2
  3
txt
  4

  0
STYLE
  2
TEXTSTYLE_3
 70
0
 40
0.0
 41
1.0
 50
0.0
 71
0
 42
0.2
  3
ftb_____.ttf
  4

  0
STYLE
  2
TEXTSTYLE_4
 70
0
 40
0.0
 41
1.0
 50
0.0
 71
0
 42
0.2
  3
fti_____.ttf
  4

  0
STYLE
  2
TEXTSTYLE_5
 70
0
 40
0.0
 41
0.8
 50
0.0
 71
0
 42
0.2
  3
txt
  4

  0
ENDTAB
  0
ENDSEC
  0
SECTION
  2
BLOCKS
  0
BLOCK
  8
0
 62
2
  6
CONTINUOUS
  2
SYMBOL_11_BL1
 70
64
 10
173.3924355793
 20
35.4837666925
  0
TEXT
  8
0
 62
7
  6
CONTINUOUS
 10
164.4507205878
 20
30.5765230696
  7
TEXTSTYLE_4
 40
1.0655737705
  1
The brand for plastic modular belts and chains
 41
1.0
 72
0
  0
LINE
  8
0
 62
7
  6
CONTINUOUS
 10
149.3705039683
 20
36.0575371843
 11
149.3705039683
 21
33.9263896433
  0
LINE
  8
0
 62
7
  6
CONTINUOUS
 10
149.6595664615
 20
30.9354583476
 11
149.6595664615
 21
31.0322494069
  0
LINE
  8
0
 62
7
  6
CONTINUOUS
 10
149.3705039683
 20
30.9999857205
 11
149.4283164701
 21
30.8064036019
  0
LINE
  8
0
 62
7
  6
CONTINUOUS
 10
150.7639465913
 20
33.8444224302
 11
150.7639465913
 21
36.0575371843
  0
LINE
  8
0
 62
7
  6
CONTINUOUS
 10
151.6830039132
 20
32.0001601351
 11
151.6830039132
 21
30.4837666925
  0
LINE
  8
0
 62
7
  6
CONTINUOUS
 10
151.9720664683
 20
30.4837666925
 11
151.9720664683
 21
31.2258315706
  0
LINE
  8
0
 62
7
  6
CONTINUOUS
 10
151.9720664683
 20
31.3548863163
 11
151.9720664683
 21
32.0001601351
  0
LINE
  8
0
 62
7
  6
CONTINUOUS
 10
149.4283164701
 20
31.1935678842
 11
149.3705039683
 21
30.9999857205
  0
LINE
  8
0
 62
7
  6
CONTINUOUS
 10
149.7751914546
 20
30.7741399155
 11
149.6595664615
 21
30.9354583476
  0
LINE
  8
0
 62
7
  6
CONTINUOUS
 10
150.8736290235
 20
31.2903589434
 11
150.9314414683
 21
31.1935678842
  0
LINE
  8
0
 62
7
  6
CONTINUOUS
 10
151.2205040235
 20
31.1935678842
 11
151.1626914132
 21
31.3226226299
  0
LINE
  8
0
 62
7
  6
CONTINUOUS
 10
152.6491924929
 20
36.0575371843
 11
152.6491924929
 21
34.2542584958
  0
LINE
  8
0
 62
7
  6
CONTINUOUS
 10
152.6491924929
 20
32.9427830859
 11
152.6491924929
 21
32.287045381
  0
LINE
  8
0
 62
7
  6
CONTINUOUS
 10
153.0126914683
 20
31.1290405113
 11
153.0126914683
 21
30.4837666925
  0
LINE
  8
0
 62
7
  6
CONTINUOUS
 10
153.3017538581
 20
30.4837666925
 11
153.3017538581
 21
31.1290405113
  0
LINE
  8
0
 62
7
  6
CONTINUOUS
 10
149.6595664615
 20
31.0322494069
 11
149.7173789683
 21
31.1613041978
  0
LINE
  8
0
 62
7
  6
CONTINUOUS
 10
149.4283164701
 20
30.8064036019
 11
149.5439414683
 21
30.6773488336
  0
LINE
  8
0
 62
7
  6
CONTINUOUS
 10
152.9548788581
 20
31.258095257
 11
153.0126914683
 21
31.1290405113
  0
LINE
  8
0
 62
7
  6
CONTINUOUS
 10
153.7642540786
 20
30.7741399155
 11
153.8220663581
 21
30.6450851472
  0
LINE
  8
0
 62
7
  6
CONTINUOUS
 10
153.3017538581
 20
31.1290405113
 11
153.2439415786
 21
31.2903589434
  0
LINE
  8
0
 62
7
  6
CONTINUOUS
 10
153.7642540786
 20
31.3226226299
 11
153.7642540786
 21
31.258095257
  0
LINE
  8
0
 62
7
  6
CONTINUOUS
 10
153.7642540786
 20
30.8709309748
 11
153.7642540786
 21
30.7741399155
  0
LINE
  8
0
 62
7
  6
CONTINUOUS
 10
154.0426351159
 20
32.287045381
 11
154.0426351159
 21
36.0575371843
  0
LINE
  8
0
 62
7
  6
CONTINUOUS
 10
154.0533164683
 20
30.7418762065
 11
154.0533164683
 21
30.8064036019
  0
LINE
  8
0
 62
7
  6
CONTINUOUS
 10
154.3705039683
 20
36.0575371843
 11
154.3705039683
 21
32.287045381
  0
LINE
  8
0
 62
7
  6
CONTINUOUS
 10
151.1626914132
 20
30.6773488336
 11
151.2205040235
 21
30.8064036019
  0
LINE
  8
0
 62
7
  6
CONTINUOUS
 10
155.5564416889
 20
30.5805577631
 11
155.4986287478
 21
30.7418762065
  0
LINE
  8
0
 62
7
  6
CONTINUOUS
 10
155.2095666889
 20
31.258095257
 11
155.2095666889
 21
31.1613041978
  0
LINE
  8
0
 62
7
  6
CONTINUOUS
 10
155.2095666889
 20
31.0322494069
 11
155.2095666889
 21
30.8386672883
  0
LINE
  8
0
 62
7
  6
CONTINUOUS
 10
155.4986287478
 20
30.7418762065
 11
155.4986287478
 21
31.258095257
  0
LINE
  8
0
 62
7
  6
CONTINUOUS
 10
155.7639465913
 20
32.287045381
 11
155.7639465913
 21
34.0903240696
  0
LINE
  8
0
 62
7
  6
CONTINUOUS
 10
155.7639465913
 20
35.4017994794
 11
155.7639465913
 21
36.0575371843
  0
LINE
  8
0
 62
7
  6
CONTINUOUS
 10
156.0767541889
 20
32.0001601351
 11
156.0767541889
 21
31.838841703
  0
LINE
  8
0
 62
7
  6
CONTINUOUS
 10
156.0767541889
 20
31.5162047484
 11
156.0767541889
 21
30.4837666925
  0
LINE
  8
0
 62
7
  6
CONTINUOUS
 10
156.3658162478
 20
30.4837666925
 11
156.3658162478
 21
31.5162047484
  0
LINE
  8
0
 62
7
  6
CONTINUOUS
 10
156.3658162478
 20
31.838841703
 11
156.3658162478
 21
32.0001601351
  0
LINE
  8
0
 62
7
  6
CONTINUOUS
 10
150.9314414683
 20
30.8064036019
 11
150.8736290235
 21
30.7096125201
  0
LINE
  8
0
 62
7
  6
CONTINUOUS
 10
153.2439415786
 20
31.2903589434
 11
153.1861289683
 21
31.3548863163
  0
LINE
  8
0
 62
7
  6
CONTINUOUS
 10
154.1111290786
 20
30.6773488336
 11
154.0533164683
 21
30.7418762065
  0
LINE
  8
0
 62
7
  6
CONTINUOUS
 10
155.2673789683
 20
30.548294071
 11
155.3251912478
 21
30.4837666925
  0
LINE
  8
0
 62
7
  6
CONTINUOUS
 10
155.2095666889
 20
30.6450851472
 11
155.2673789683
 21
30.548294071
  0
LINE
  8
0
 62
7
  6
CONTINUOUS
 10
155.6142539683
 20
30.4837666925
 11
155.5564416889
 21
30.5805577631
  0
LINE
  8
0
 62
7
  6
CONTINUOUS
 10
155.4986287478
 20
31.258095257
 11
155.4408164683
 21
31.3548863163
  0
LINE
  8
0
 62
7
  6
CONTINUOUS
 10
156.8283164683
 20
31.5162047484
 11
156.8283164683
 21
30.4837666925
  0
LINE
  8
0
 62
7
  6
CONTINUOUS
 10
157.1173791889
 20
30.4837666925
 11
157.1173791889
 21
31.2258315706
  0
LINE
  8
0
 62
7
  6
CONTINUOUS
 10
157.1173791889
 20
31.3548863163
 11
157.1173791889
 21
31.5162047484
  0
LINE
  8
0
 62
7
  6
CONTINUOUS
 10
157.6491924929
 20
34.5001601351
 11
157.6491924929
 21
32.287045381
  0
LINE
  8
0
 62
7
  6
CONTINUOUS
 10
149.5439414683
 20
31.3226226299
 11
149.4283164701
 21
31.1935678842
  0
LINE
  8
0
 62
7
  6
CONTINUOUS
 10
149.7173789683
 20
31.1613041978
 11
149.7751914546
 21
31.2258315706
  0
LINE
  8
0
 62
7
  6
CONTINUOUS
 10
149.5439414683
 20
30.6773488336
 11
149.6595664615
 21
30.6128214495
  0
LINE
  8
0
 62
7
  6
CONTINUOUS
 10
149.9486289546
 20
30.6773488336
 11
149.7751914546
 21
30.7741399155
  0
LINE
  8
0
 62
7
  6
CONTINUOUS
 10
155.1517537478
 20
31.3226226299
 11
155.2095666889
 21
31.258095257
  0
LINE
  8
0
 62
7
  6
CONTINUOUS
 10
158.1001912478
 20
31.258095257
 11
158.1580041889
 21
31.0967768249
  0
LINE
  8
0
 62
7
  6
CONTINUOUS
 10
158.4470662478
 20
31.0967768249
 11
158.3892539683
 21
31.258095257
  0
LINE
  8
0
 62
7
  6
CONTINUOUS
 10
158.1580041889
 20
31.0967768249
 11
158.1580041889
 21
30.4837666925
  0
LINE
  8
0
 62
7
  6
CONTINUOUS
 10
158.4470662478
 20
30.4837666925
 11
158.4470662478
 21
31.0967768249
  0
LINE
  8
0
 62
7
  6
CONTINUOUS
 10
158.9095664683
 20
31.3226226299
 11
158.9095664683
 21
31.258095257
  0
LINE
  8
0
 62
7
  6
CONTINUOUS
 10
159.0426351159
 20
32.287045381
 11
159.0426351159
 21
34.418192922
  0
LINE
  8
0
 62
7
  6
CONTINUOUS
 10
159.3705039683
 20
36.0575371843
 11
159.3705039683
 21
32.287045381
  0
LINE
  8
0
 62
7
  6
CONTINUOUS
 10
154.0533164683
 20
30.8064036019
 11
154.1111290786
 21
30.9031946612
  0
LINE
  8
0
 62
7
  6
CONTINUOUS
 10
149.6595664615
 20
30.6128214495
 11
149.8330039821
 21
30.548294071
  0
LINE
  8
0
 62
7
  6
CONTINUOUS
 10
151.1626914132
 20
31.3226226299
 11
150.9892539132
 21
31.4194136891
  0
LINE
  8
0
 62
7
  6
CONTINUOUS
 10
153.8220663581
 20
30.6450851472
 11
153.9955038581
 21
30.548294071
  0
LINE
  8
0
 62
7
  6
CONTINUOUS
 10
152.8392539683
 20
31.3226226299
 11
152.9548788581
 21
31.258095257
  0
LINE
  8
0
 62
7
  6
CONTINUOUS
 10
153.1861289683
 20
31.3548863163
 11
153.0705040786
 21
31.4194136891
  0
LINE
  8
0
 62
7
  6
CONTINUOUS
 10
158.9095664683
 20
30.7418762065
 11
159.0251916889
 21
30.6128214495
  0
LINE
  8
0
 62
7
  6
CONTINUOUS
 10
159.2564414683
 20
30.6773488336
 11
159.1986291889
 21
30.7418762065
  0
LINE
  8
0
 62
7
  6
CONTINUOUS
 10
158.9095664683
 20
31.258095257
 11
159.0251916889
 21
31.1290405113
  0
LINE
  8
0
 62
7
  6
CONTINUOUS
 10
158.3892539683
 20
31.258095257
 11
158.3314416889
 21
31.3548863163
  0
LINE
  8
0
 62
7
  6
CONTINUOUS
 10
160.7595660273
 20
30.6773488336
 11
160.7595660273
 21
30.7418762065
  0
LINE
  8
0
 62
7
  6
CONTINUOUS
 10
160.7639465913
 20
32.287045381
 11
160.7639465913
 21
36.0575371843
  0
LINE
  8
0
 62
7
  6
CONTINUOUS
 10
153.8220663581
 20
31.3871500027
 11
153.7642540786
 21
31.3226226299
  0
LINE
  8
0
 62
7
  6
CONTINUOUS
 10
150.7001914408
 20
31.3548863163
 11
150.8736290235
 21
31.2903589434
  0
LINE
  8
0
 62
7
  6
CONTINUOUS
 10
155.4408164683
 20
31.3548863163
 11
155.3251912478
 21
31.4194136891
  0
LINE
  8
0
 62
7
  6
CONTINUOUS
 10
159.2564414683
 20
31.1935678842
 11
159.1986291889
 21
31.258095257
  0
LINE
  8
0
 62
7
  6
CONTINUOUS
 10
160.4126916889
 20
30.8064036019
 11
160.4705039683
 21
30.7418762065
  0
LINE
  8
0
 62
7
  6
CONTINUOUS
 10
160.7595660273
 20
30.7418762065
 11
160.6439414683
 21
30.8709309748
  0
LINE
  8
0
 62
7
  6
CONTINUOUS
 10
160.4126916889
 20
31.3226226299
 11
160.4705039683
 21
31.258095257
  0
LINE
  8
0
 62
7
  6
CONTINUOUS
 10
160.7595660273
 20
31.258095257
 11
160.6439414683
 21
31.3871500027
  0
LINE
  8
0
 62
7
  6
CONTINUOUS
 10
154.0533164683
 20
31.258095257
 11
154.1111290786
 21
31.3226226299
  0
LINE
  8
0
 62
7
  6
CONTINUOUS
 10
153.8798789683
 20
30.9999857205
 11
153.7642540786
 21
30.8709309748
  0
LINE
  8
0
 62
7
  6
CONTINUOUS
 10
155.2095666889
 20
30.8386672883
 11
155.1517537478
 21
30.7741399155
  0
LINE
  8
0
 62
7
  6
CONTINUOUS
 10
155.1517537478
 20
30.5805577631
 11
155.2095666889
 21
30.6450851472
  0
LINE
  8
0
 62
7
  6
CONTINUOUS
 10
153.9955038581
 20
30.548294071
 11
154.1111290786
 21
30.5160303817
  0
LINE
  8
0
 62
7
  6
CONTINUOUS
 10
150.9892539132
 20
31.4194136891
 11
150.7580039683
 21
31.483941062
  0
LINE
  8
0
 62
7
  6
CONTINUOUS
 10
154.3423788581
 20
30.6128214495
 11
154.1111290786
 21
30.6773488336
  0
LINE
  8
0
 62
7
  6
CONTINUOUS
 10
153.0705040786
 20
31.4194136891
 11
152.8970665786
 21
31.483941062
  0
LINE
  8
0
 62
7
  6
CONTINUOUS
 10
155.3251912478
 20
31.4194136891
 11
155.1517537478
 21
31.483941062
  0
LINE
  8
0
 62
7
  6
CONTINUOUS
 10
157.9845666889
 20
31.3226226299
 11
158.1001912478
 21
31.258095257
  0
LINE
  8
0
 62
7
  6
CONTINUOUS
 10
158.3314416889
 20
31.3548863163
 11
158.2158164683
 21
31.4194136891
  0
LINE
  8
0
 62
7
  6
CONTINUOUS
 10
149.8330039821
 20
30.548294071
 11
150.0064414821
 21
30.5160303817
  0
LINE
  8
0
 62
7
  6
CONTINUOUS
 10
150.2955039959
 20
30.6128214495
 11
149.9486289546
 21
30.6773488336
  0
LINE
  8
0
 62
7
  6
CONTINUOUS
 10
152.7236290786
 20
31.3548863163
 11
152.8392539683
 21
31.3226226299
  0
LINE
  8
0
 62
7
  6
CONTINUOUS
 10
155.0361291889
 20
31.3548863163
 11
155.1517537478
 21
31.3226226299
  0
LINE
  8
0
 62
7
  6
CONTINUOUS
 10
159.3720666889
 20
30.6450851472
 11
159.2564414683
 21
30.6773488336
  0
LINE
  8
0
 62
7
  6
CONTINUOUS
 10
157.8689414683
 20
31.3548863163
 11
157.9845666889
 21
31.3226226299
  0
LINE
  8
0
 62
7
  6
CONTINUOUS
 10
159.0251916889
 20
30.6128214495
 11
159.1986291889
 21
30.548294071
  0
LINE
  8
0
 62
7
  6
CONTINUOUS
 10
158.2158164683
 20
31.4194136891
 11
158.0423789683
 21
31.483941062
  0
LINE
  8
0
 62
7
  6
CONTINUOUS
 10
159.4298789683
 20
31.1290405113
 11
159.2564414683
 21
31.1935678842
  0
LINE
  8
0
 62
7
  6
CONTINUOUS
 10
160.2392541889
 20
30.8709309748
 11
160.4126916889
 21
30.8064036019
  0
LINE
  8
0
 62
7
  6
CONTINUOUS
 10
160.6439414683
 20
31.3871500027
 11
160.4705039683
 21
31.4516773756
  0
LINE
  8
0
 62
7
  6
CONTINUOUS
 10
159.0251916889
 20
31.1290405113
 11
159.2564414683
 21
31.0322494069
  0
LINE
  8
0
 62
7
  6
CONTINUOUS
 10
160.6439414683
 20
30.8709309748
 11
160.4126916889
 21
30.967722034
  0
LINE
  8
0
 62
7
  6
CONTINUOUS
 10
159.1986291889
 20
31.258095257
 11
159.2564414683
 21
31.3226226299
  0
LINE
  8
0
 62
7
  6
CONTINUOUS
 10
149.6595664615
 20
31.3871500027
 11
149.5439414683
 21
31.3226226299
  0
LINE
  8
0
 62
7
  6
CONTINUOUS
 10
149.7751914546
 20
31.2258315706
 11
149.9486289546
 21
31.3226226299
  0
LINE
  8
0
 62
7
  6
CONTINUOUS
 10
152.0876915235
 20
31.4194136891
 11
151.9720664683
 21
31.3548863163
  0
LINE
  8
0
 62
7
  6
CONTINUOUS
 10
151.9720664683
 20
31.2258315706
 11
152.0876915235
 21
31.2903589434
  0
LINE
  8
0
 62
7
  6
CONTINUOUS
 10
150.9892539132
 20
30.5805577631
 11
151.1626914132
 21
30.6773488336
  0
LINE
  8
0
 62
7
  6
CONTINUOUS
 10
150.0064414821
 20
30.5160303817
 11
150.3533164408
 21
30.4837666925
  0
LINE
  8
0
 62
7
  6
CONTINUOUS
 10
154.1111290786
 20
30.5160303817
 11
154.3423788581
 21
30.4837666925
  0
LINE
  8
0
 62
7
  6
CONTINUOUS
 10
152.4923789683
 20
31.3871500027
 11
152.7236290786
 21
31.3548863163
  0
LINE
  8
0
 62
7
  6
CONTINUOUS
 10
154.8048790786
 20
31.3871500027
 11
155.0361291889
 21
31.3548863163
  0
LINE
  8
0
 62
7
  6
CONTINUOUS
 10
159.2564414683
 20
31.0322494069
 11
160.2392541889
 21
30.8709309748
  0
LINE
  8
0
 62
7
  6
CONTINUOUS
 10
160.4126916889
 20
30.967722034
 11
159.4298789683
 21
31.1290405113
  0
LINE
  8
0
 62
7
  6
CONTINUOUS
 10
152.8970665786
 20
31.483941062
 11
152.7236290786
 21
31.5162047484
  0
LINE
  8
0
 62
7
  6
CONTINUOUS
 10
159.1986291889
 20
30.548294071
 11
159.3720666889
 21
30.5160303817
  0
LINE
  8
0
 62
7
  6
CONTINUOUS
 10
158.0423789683
 20
31.483941062
 11
157.8689414683
 21
31.5162047484
  0
LINE
  8
0
 62
7
  6
CONTINUOUS
 10
160.2970664683
 20
31.3548863163
 11
160.4126916889
 21
31.3226226299
  0
LINE
  8
0
 62
7
  6
CONTINUOUS
 10
160.4705039683
 20
30.7418762065
 11
160.4126916889
 21
30.6773488336
  0
LINE
  8
0
 62
7
  6
CONTINUOUS
 10
159.0251916889
 20
31.4194136891
 11
158.9095664683
 21
31.3226226299
  0
LINE
  8
0
 62
7
  6
CONTINUOUS
 10
153.9376915786
 20
31.4516773756
 11
153.8220663581
 21
31.3871500027
  0
LINE
  8
0
 62
7
  6
CONTINUOUS
 10
153.9955038581
 20
31.0645131385
 11
153.8798789683
 21
30.9999857205
  0
LINE
  8
0
 62
7
  6
CONTINUOUS
 10
154.1111290786
 20
30.9031946612
 11
154.2267539683
 21
30.967722034
  0
LINE
  8
0
 62
7
  6
CONTINUOUS
 10
151.6830039132
 20
30.4837666925
 11
151.9720664683
 21
30.4837666925
  0
LINE
  8
0
 62
7
  6
CONTINUOUS
 10
153.0126914683
 20
30.4837666925
 11
153.3017538581
 21
30.4837666925
  0
LINE
  8
0
 62
7
  6
CONTINUOUS
 10
154.3423788581
 20
30.4837666925
 11
154.6892538581
 21
30.4837666925
  0
LINE
  8
0
 62
7
  6
CONTINUOUS
 10
155.3251912478
 20
30.4837666925
 11
155.6142539683
 21
30.4837666925
  0
LINE
  8
0
 62
7
  6
CONTINUOUS
 10
156.0767541889
 20
30.4837666925
 11
156.3658162478
 21
30.4837666925
  0
LINE
  8
0
 62
7
  6
CONTINUOUS
 10
156.8283164683
 20
30.4837666925
 11
157.1173791889
 21
30.4837666925
  0
LINE
  8
0
 62
7
  6
CONTINUOUS
 10
158.1580041889
 20
30.4837666925
 11
158.4470662478
 21
30.4837666925
  0
LINE
  8
0
 62
7
  6
CONTINUOUS
 10
159.7189416889
 20
30.4837666925
 11
160.0658166889
 21
30.4837666925
  0
LINE
  8
0
 62
7
  6
CONTINUOUS
 10
160.0658166889
 20
30.6128214495
 11
159.7189416889
 21
30.6128214495
  0
LINE
  8
0
 62
7
  6
CONTINUOUS
 10
154.6892538581
 20
30.6128214495
 11
154.3423788581
 21
30.6128214495
  0
LINE
  8
0
 62
7
  6
CONTINUOUS
 10
159.1986291889
 20
30.7418762065
 11
158.9095664683
 21
30.7418762065
  0
LINE
  8
0
 62
7
  6
CONTINUOUS
 10
151.2205040235
 20
30.8064036019
 11
150.9314414683
 21
30.8064036019
  0
LINE
  8
0
 62
7
  6
CONTINUOUS
 10
150.2955039959
 20
31.3871500027
 11
150.7001914408
 21
31.3548863163
  0
LINE
  8
0
 62
7
  6
CONTINUOUS
 10
150.7580039683
 20
31.483941062
 11
150.3533164408
 21
31.5162047484
  0
LINE
  8
0
 62
7
  6
CONTINUOUS
 10
159.3720666889
 20
30.5160303817
 11
159.7189416889
 21
30.4837666925
  0
LINE
  8
0
 62
7
  6
CONTINUOUS
 10
159.7189416889
 20
30.6128214495
 11
159.3720666889
 21
30.6450851472
  0
LINE
  8
0
 62
7
  6
CONTINUOUS
 10
155.1517537478
 20
31.483941062
 11
154.8048790786
 21
31.5162047484
  0
LINE
  8
0
 62
7
  6
CONTINUOUS
 10
159.9501914683
 20
31.3871500027
 11
160.2970664683
 21
31.3548863163
  0
LINE
  8
0
 62
7
  6
CONTINUOUS
 10
160.2970664683
 20
31.483941062
 11
159.9501914683
 21
31.5162047484
  0
LINE
  8
0
 62
7
  6
CONTINUOUS
 10
157.6376916889
 20
31.3871500027
 11
157.8689414683
 21
31.3548863163
  0
LINE
  8
0
 62
7
  6
CONTINUOUS
 10
160.4705039683
 20
31.4516773756
 11
160.2970664683
 21
31.483941062
  0
LINE
  8
0
 62
7
  6
CONTINUOUS
 10
160.6439414683
 20
30.5805577631
 11
160.7595660273
 21
30.6773488336
  0
LINE
  8
0
 62
7
  6
CONTINUOUS
 10
155.1517537478
 20
30.7741399155
 11
154.9783162478
 21
30.6773488336
  0
LINE
  8
0
 62
7
  6
CONTINUOUS
 10
157.2330037478
 20
31.4194136891
 11
157.1173791889
 21
31.3548863163
  0
LINE
  8
0
 62
7
  6
CONTINUOUS
 10
157.1173791889
 20
31.2258315706
 11
157.2330037478
 21
31.2903589434
  0
LINE
  8
0
 62
7
  6
CONTINUOUS
 10
149.8330039821
 20
31.4516773756
 11
149.6595664615
 21
31.3871500027
  0
LINE
  8
0
 62
7
  6
CONTINUOUS
 10
152.2611288581
 20
31.483941062
 11
152.0876915235
 21
31.4194136891
  0
LINE
  8
0
 62
7
  6
CONTINUOUS
 10
152.0876915235
 20
31.2903589434
 11
152.2611288581
 21
31.3548863163
  0
LINE
  8
0
 62
7
  6
CONTINUOUS
 10
150.8736290235
 20
30.7096125201
 11
150.7001914408
 21
30.6450851472
  0
LINE
  8
0
 62
7
  6
CONTINUOUS
 10
160.2970664683
 20
30.6450851472
 11
160.0658166889
 21
30.6128214495
  0
LINE
  8
0
 62
7
  6
CONTINUOUS
 10
154.6892538581
 20
30.4837666925
 11
154.9783162478
 21
30.5160303817
  0
LINE
  8
0
 62
7
  6
CONTINUOUS
 10
160.0658166889
 20
30.4837666925
 11
160.4126916889
 21
30.5160303817
  0
LINE
  8
0
 62
7
  6
CONTINUOUS
 10
150.3533164408
 20
30.4837666925
 11
150.7580039683
 21
30.5160303817
  0
LINE
  8
0
 62
7
  6
CONTINUOUS
 10
150.7001914408
 20
30.6450851472
 11
150.2955039959
 21
30.6128214495
  0
LINE
  8
0
 62
7
  6
CONTINUOUS
 10
154.5736289683
 20
31.0322494069
 11
155.2095666889
 21
31.0322494069
  0
LINE
  8
0
 62
7
  6
CONTINUOUS
 10
155.2095666889
 20
31.1613041978
 11
154.5736289683
 21
31.1613041978
  0
LINE
  8
0
 62
7
  6
CONTINUOUS
 10
150.9314414683
 20
31.1935678842
 11
151.2205040235
 21
31.1935678842
  0
LINE
  8
0
 62
7
  6
CONTINUOUS
 10
153.7642540786
 20
31.258095257
 11
154.0533164683
 21
31.258095257
  0
LINE
  8
0
 62
7
  6
CONTINUOUS
 10
160.4705039683
 20
31.258095257
 11
160.7595660273
 21
31.258095257
  0
LINE
  8
0
 62
7
  6
CONTINUOUS
 10
154.4580040786
 20
31.3871500027
 11
154.8048790786
 21
31.3871500027
  0
LINE
  8
0
 62
7
  6
CONTINUOUS
 10
159.6033164683
 20
31.3871500027
 11
159.9501914683
 21
31.3871500027
  0
LINE
  8
0
 62
7
  6
CONTINUOUS
 10
159.9501914683
 20
31.5162047484
 11
159.6033164683
 21
31.5162047484
  0
LINE
  8
0
 62
7
  6
CONTINUOUS
 10
157.8689414683
 20
31.5162047484
 11
157.6376916889
 21
31.5162047484
  0
LINE
  8
0
 62
7
  6
CONTINUOUS
 10
157.1173791889
 20
31.5162047484
 11
156.8283164683
 21
31.5162047484
  0
LINE
  8
0
 62
7
  6
CONTINUOUS
 10
156.3658162478
 20
31.5162047484
 11
156.0767541889
 21
31.5162047484
  0
LINE
  8
0
 62
7
  6
CONTINUOUS
 10
154.8048790786
 20
31.5162047484
 11
154.4580040786
 21
31.5162047484
  0
LINE
  8
0
 62
7
  6
CONTINUOUS
 10
152.7236290786
 20
31.5162047484
 11
152.4923789683
 21
31.5162047484
  0
LINE
  8
0
 62
7
  6
CONTINUOUS
 10
156.0767541889
 20
31.838841703
 11
156.3658162478
 21
31.838841703
  0
LINE
  8
0
 62
7
  6
CONTINUOUS
 10
156.3658162478
 20
32.0001601351
 11
156.0767541889
 21
32.0001601351
  0
LINE
  8
0
 62
7
  6
CONTINUOUS
 10
151.9720664683
 20
32.0001601351
 11
151.6830039132
 21
32.0001601351
  0
LINE
  8
0
 62
7
  6
CONTINUOUS
 10
151.0098482306
 20
32.287045381
 11
151.4224195792
 21
32.287045381
  0
LINE
  8
0
 62
7
  6
CONTINUOUS
 10
152.6491924929
 20
32.287045381
 11
154.0426351159
 21
32.287045381
  0
LINE
  8
0
 62
7
  6
CONTINUOUS
 10
154.3705039683
 20
32.287045381
 11
155.7639465913
 21
32.287045381
  0
LINE
  8
0
 62
7
  6
CONTINUOUS
 10
157.6491924929
 20
32.287045381
 11
159.0426351159
 21
32.287045381
  0
LINE
  8
0
 62
7
  6
CONTINUOUS
 10
159.3705039683
 20
32.287045381
 11
160.7639465913
 21
32.287045381
  0
LINE
  8
0
 62
7
  6
CONTINUOUS
 10
157.4064412478
 20
31.483941062
 11
157.2330037478
 21
31.4194136891
  0
LINE
  8
0
 62
7
  6
CONTINUOUS
 10
154.9783162478
 20
30.5160303817
 11
155.1517537478
 21
30.5805577631
  0
LINE
  8
0
 62
7
  6
CONTINUOUS
 10
160.4126916889
 20
30.5160303817
 11
160.6439414683
 21
30.5805577631
  0
LINE
  8
0
 62
7
  6
CONTINUOUS
 10
160.4126916889
 20
30.6773488336
 11
160.2970664683
 21
30.6450851472
  0
LINE
  8
0
 62
7
  6
CONTINUOUS
 10
159.3720666889
 20
31.3548863163
 11
159.6033164683
 21
31.3871500027
  0
LINE
  8
0
 62
7
  6
CONTINUOUS
 10
157.4064412478
 20
31.3548863163
 11
157.6376916889
 21
31.3871500027
  0
LINE
  8
0
 62
7
  6
CONTINUOUS
 10
154.3423788581
 20
30.9999857205
 11
154.5736289683
 21
31.0322494069
  0
LINE
  8
0
 62
7
  6
CONTINUOUS
 10
157.6376916889
 20
31.5162047484
 11
157.4064412478
 21
31.483941062
  0
LINE
  8
0
 62
7
  6
CONTINUOUS
 10
154.2267539683
 20
31.3548863163
 11
154.4580040786
 21
31.3871500027
  0
LINE
  8
0
 62
7
  6
CONTINUOUS
 10
159.6033164683
 20
31.5162047484
 11
159.2564414683
 21
31.483941062
  0
LINE
  8
0
 62
7
  6
CONTINUOUS
 10
154.5736289683
 20
31.1613041978
 11
154.2267539683
 21
31.1290405113
  0
LINE
  8
0
 62
7
  6
CONTINUOUS
 10
150.3533164408
 20
31.5162047484
 11
150.0064414821
 21
31.483941062
  0
LINE
  8
0
 62
7
  6
CONTINUOUS
 10
154.4580040786
 20
31.5162047484
 11
154.0533164683
 21
31.483941062
  0
LINE
  8
0
 62
7
  6
CONTINUOUS
 10
151.8295203618
 20
33.4345863646
 11
151.1737826569
 21
33.4345863646
  0
LINE
  8
0
 62
7
  6
CONTINUOUS
 10
157.2330037478
 20
31.2903589434
 11
157.4064412478
 21
31.3548863163
  0
LINE
  8
0
 62
7
  6
CONTINUOUS
 10
159.2564414683
 20
31.3226226299
 11
159.3720666889
 21
31.3548863163
  0
LINE
  8
0
 62
7
  6
CONTINUOUS
 10
159.2564414683
 20
31.483941062
 11
159.0251916889
 21
31.4194136891
  0
LINE
  8
0
 62
7
  6
CONTINUOUS
 10
154.9783162478
 20
30.6773488336
 11
154.6892538581
 21
30.6128214495
  0
LINE
  8
0
 62
7
  6
CONTINUOUS
 10
152.2611288581
 20
31.3548863163
 11
152.4923789683
 21
31.3871500027
  0
LINE
  8
0
 62
7
  6
CONTINUOUS
 10
152.4923789683
 20
31.5162047484
 11
152.2611288581
 21
31.483941062
  0
LINE
  8
0
 62
7
  6
CONTINUOUS
 10
150.0642539683
 20
31.3548863163
 11
150.2955039959
 21
31.3871500027
  0
LINE
  8
0
 62
7
  6
CONTINUOUS
 10
156.5836187224
 20
34.9099962007
 11
157.2393564274
 21
34.9099962007
  0
LINE
  8
0
 62
7
  6
CONTINUOUS
 10
154.2267539683
 20
30.967722034
 11
154.3423788581
 21
30.9999857205
  0
LINE
  8
0
 62
7
  6
CONTINUOUS
 10
154.2267539683
 20
31.1290405113
 11
153.9955038581
 21
31.0645131385
  0
LINE
  8
0
 62
7
  6
CONTINUOUS
 10
154.1111290786
 20
31.3226226299
 11
154.2267539683
 21
31.3548863163
  0
LINE
  8
0
 62
7
  6
CONTINUOUS
 10
150.7580039683
 20
30.5160303817
 11
150.9892539132
 21
30.5805577631
  0
LINE
  8
0
 62
7
  6
CONTINUOUS
 10
154.0533164683
 20
31.483941062
 11
153.9376915786
 21
31.4516773756
  0
LINE
  8
0
 62
7
  6
CONTINUOUS
 10
150.0064414821
 20
31.483941062
 11
149.8330039821
 21
31.4516773756
  0
LINE
  8
0
 62
7
  6
CONTINUOUS
 10
160.7639465913
 20
36.0575371843
 11
159.3705039683
 21
36.0575371843
  0
LINE
  8
0
 62
7
  6
CONTINUOUS
 10
157.4032908536
 20
36.0575371843
 11
156.990719505
 21
36.0575371843
  0
LINE
  8
0
 62
7
  6
CONTINUOUS
 10
155.7639465913
 20
36.0575371843
 11
154.3705039683
 21
36.0575371843
  0
LINE
  8
0
 62
7
  6
CONTINUOUS
 10
154.0426351159
 20
36.0575371843
 11
152.6491924929
 21
36.0575371843
  0
LINE
  8
0
 62
7
  6
CONTINUOUS
 10
150.7639465913
 20
36.0575371843
 11
149.3705039683
 21
36.0575371843
  0
LINE
  8
0
 62
7
  6
CONTINUOUS
 10
149.9486289546
 20
31.3226226299
 11
150.0642539683
 21
31.3548863163
  0
CIRCLE
  8
0
 62
7
  6
CONTINUOUS
 10
160.0672252798
 20
38.3936027581
 40
2.0901639344
  0
ARC
  8
0
 62
7
  6
CONTINUOUS
 10
151.0098482306
 20
33.9263896433
 40
1.6393442623
 50
180.0
 51
270.0
  0
ARC
  8
0
 62
7
  6
CONTINUOUS
 10
157.4032908536
 20
34.418192922
 40
1.6393442623
 50
0.0
 51
90.0
  0
ARC
  8
0
 62
7
  6
CONTINUOUS
 10
151.4224195792
 20
33.7624552171
 40
1.4754098361
 50
270.0
 51
326.2510114041
  0
ARC
  8
0
 62
7
  6
CONTINUOUS
 10
156.990719505
 20
34.5821273482
 40
1.4754098361
 50
90.0
 51
146.2510114041
  0
ARC
  8
0
 62
7
  6
CONTINUOUS
 10
151.8295203618
 20
34.2542584958
 40
0.8196721311
 50
270.0
 51
360.0
  0
ARC
  8
0
 62
7
  6
CONTINUOUS
 10
156.5836187224
 20
34.0903240696
 40
0.8196721311
 50
90.0
 51
180.0
  0
ARC
  8
0
 62
7
  6
CONTINUOUS
 10
151.1737826569
 20
33.8444224302
 40
0.4098360656
 50
180.0
 51
270.0
  0
ARC
  8
0
 62
7
  6
CONTINUOUS
 10
157.2393564274
 20
34.5001601351
 40
0.4098360656
 50
0.0
 51
90.0
  0
SOLID
  8
0
 62
7
  6
CONTINUOUS
 10
156.0767541889
 20
31.8388420633
 11
156.0767541889
 21
32.0001605469
 12
156.3658162478
 22
31.8388420633
 13
156.3658162478
 23
32.0001605469
  0
SOLID
  8
0
 62
7
  6
CONTINUOUS
 10
150.3533164408
 20
31.5162050961
 11
150.7580039683
 21
31.4839409236
 12
150.0064414821
 22
31.4839409236
 13
150.0064414821
 23
31.4839409236
  0
SOLID
  8
0
 62
7
  6
CONTINUOUS
 10
149.8330039821
 20
31.4516780059
 11
150.0064414821
 21
31.4839409236
 12
150.7580039683
 22
31.4839409236
 13
150.7580039683
 23
31.4839409236
  0
SOLID
  8
0
 62
7
  6
CONTINUOUS
 10
150.7580039683
 20
31.4839409236
 11
150.9892539132
 21
31.4194137026
 12
149.8330039821
 22
31.4516780059
 13
149.8330039821
 23
31.4516780059
  0
SOLID
  8
0
 62
7
  6
CONTINUOUS
 10
149.6595664615
 20
31.3871495108
 11
149.8330039821
 21
31.4516780059
 12
150.9892539132
 22
31.4194137026
 13
150.9892539132
 23
31.4194137026
  0
SOLID
  8
0
 62
7
  6
CONTINUOUS
 10
149.6595664615
 20
31.3871495108
 11
150.9892539132
 21
31.4194137026
 12
150.2955039959
 22
31.3871495108
 13
150.2955039959
 23
31.3871495108
  0
SOLID
  8
0
 62
7
  6
CONTINUOUS
 10
150.2955039959
 20
31.3871495108
 11
150.9892539132
 21
31.4194137026
 12
150.7001914408
 22
31.3548866125
 13
150.7001914408
 23
31.3548866125
  0
SOLID
  8
0
 62
7
  6
CONTINUOUS
 10
150.9892539132
 20
31.4194137026
 11
151.1626914132
 21
31.3226223092
 12
150.7001914408
 22
31.3548866125
 13
150.7001914408
 23
31.3548866125
  0
SOLID
  8
0
 62
7
  6
CONTINUOUS
 10
150.8736290235
 20
31.2903595223
 11
150.7001914408
 21
31.3548866125
 12
151.1626914132
 22
31.3226223092
 13
151.1626914132
 23
31.3226223092
  0
SOLID
  8
0
 62
7
  6
CONTINUOUS
 10
150.8736290235
 20
31.2903595223
 11
151.1626914132
 21
31.3226223092
 12
150.9314414683
 22
31.1935679757
 13
150.9314414683
 23
31.1935679757
  0
SOLID
  8
0
 62
7
  6
CONTINUOUS
 10
151.1626914132
 20
31.3226223092
 11
151.2205040235
 21
31.1935679757
 12
150.9314414683
 22
31.1935679757
 13
150.9314414683
 23
31.1935679757
  0
SOLID
  8
0
 62
7
  6
CONTINUOUS
 10
152.2611288581
 20
31.4839414344
 11
152.4923789683
 21
31.5162057377
 12
152.7236290786
 22
31.5162057377
 13
152.7236290786
 23
31.5162057377
  0
SOLID
  8
0
 62
7
  6
CONTINUOUS
 10
152.7236290786
 20
31.5162057377
 11
152.8970665786
 21
31.4839414344
 12
152.2611288581
 22
31.4839414344
 13
152.2611288581
 23
31.4839414344
  0
SOLID
  8
0
 62
7
  6
CONTINUOUS
 10
152.0876915235
 20
31.4194143443
 11
152.2611288581
 21
31.4839414344
 12
152.8970665786
 22
31.4839414344
 13
152.8970665786
 23
31.4839414344
  0
SOLID
  8
0
 62
7
  6
CONTINUOUS
 10
152.8970665786
 20
31.4839414344
 11
153.0705040786
 21
31.4194143443
 12
152.0876915235
 22
31.4194143443
 13
152.0876915235
 23
31.4194143443
  0
SOLID
  8
0
 62
7
  6
CONTINUOUS
 10
153.0705040786
 20
31.4194143443
 11
152.4923789683
 21
31.3871493993
 12
152.0876915235
 22
31.4194143443
 13
152.0876915235
 23
31.4194143443
  0
SOLID
  8
0
 62
7
  6
CONTINUOUS
 10
151.9720664683
 20
31.3548872541
 11
152.0876915235
 21
31.4194143443
 12
152.4923789683
 22
31.3871493993
 13
152.4923789683
 23
31.3871493993
  0
SOLID
  8
0
 62
7
  6
CONTINUOUS
 10
152.4923789683
 20
31.3871493993
 11
152.2611288581
 21
31.3548872541
 12
151.9720664683
 22
31.3548872541
 13
151.9720664683
 23
31.3548872541
  0
SOLID
  8
0
 62
7
  6
CONTINUOUS
 10
152.4923789683
 20
31.3871493993
 11
153.0705040786
 21
31.4194143443
 12
152.7236290786
 22
31.3548872541
 13
152.7236290786
 23
31.3548872541
  0
SOLID
  8
0
 62
7
  6
CONTINUOUS
 10
153.0705040786
 20
31.4194143443
 11
153.1861289683
 21
31.3548872541
 12
152.7236290786
 22
31.3548872541
 13
152.7236290786
 23
31.3548872541
  0
SOLID
  8
0
 62
7
  6
CONTINUOUS
 10
152.8392539683
 20
31.3226223092
 11
152.7236290786
 21
31.3548872541
 12
153.1861289683
 22
31.3548872541
 13
153.1861289683
 23
31.3548872541
  0
SOLID
  8
0
 62
7
  6
CONTINUOUS
 10
153.1861289683
 20
31.3548872541
 11
153.2439415786
 21
31.2903601639
 12
152.8392539683
 22
31.3226223092
 13
152.8392539683
 23
31.3226223092
  0
SOLID
  8
0
 62
7
  6
CONTINUOUS
 10
152.9548788581
 20
31.258095219
 11
152.8392539683
 21
31.3226223092
 12
153.2439415786
 22
31.2903601639
 13
153.2439415786
 23
31.2903601639
  0
SOLID
  8
0
 62
7
  6
CONTINUOUS
 10
152.9548788581
 20
31.258095219
 11
153.2439415786
 21
31.2903601639
 12
153.0126914683
 22
31.1290416803
 13
153.0126914683
 23
31.1290416803
  0
SOLID
  8
0
 62
7
  6
CONTINUOUS
 10
153.2439415786
 20
31.2903601639
 11
153.3017538581
 21
31.1290416803
 12
153.0126914683
 22
31.1290416803
 13
153.0126914683
 23
31.1290416803
  0
SOLID
  8
0
 62
7
  6
CONTINUOUS
 10
152.2611288581
 20
31.3548872541
 11
152.0876915235
 21
31.2903601639
 12
151.9720664683
 22
31.3548872541
 13
151.9720664683
 23
31.3548872541
  0
SOLID
  8
0
 62
7
  6
CONTINUOUS
 10
152.0876915235
 20
31.2903601639
 11
151.9720664683
 21
31.2258309157
 12
151.9720664683
 22
31.3548872541
 13
151.9720664683
 23
31.3548872541
  0
SOLID
  8
0
 62
7
  6
CONTINUOUS
 10
151.9720664683
 20
31.2258309157
 11
151.6830039132
 21
30.4837677459
 12
151.9720664683
 22
31.3548872541
 13
151.9720664683
 23
31.3548872541
  0
SOLID
  8
0
 62
7
  6
CONTINUOUS
 10
151.9720664683
 20
31.3548872541
 11
151.6830039132
 21
30.4837677459
 12
151.9720664683
 22
32.0001611885
 13
151.9720664683
 23
32.0001611885
  0
SOLID
  8
0
 62
7
  6
CONTINUOUS
 10
151.6830039132
 20
30.4837677459
 11
151.6830039132
 21
32.0001611885
 12
151.9720664683
 22
32.0001611885
 13
151.9720664683
 23
32.0001611885
  0
SOLID
  8
0
 62
7
  6
CONTINUOUS
 10
151.9720664683
 20
31.2258309157
 11
151.9720664683
 21
30.4837677459
 12
151.6830039132
 22
30.4837677459
 13
151.6830039132
 23
30.4837677459
  0
SOLID
  8
0
 62
7
  6
CONTINUOUS
 10
153.0126914683
 20
30.4837677459
 11
153.0126914683
 21
31.1290416803
 12
153.3017538581
 22
31.1290416803
 13
153.3017538581
 23
31.1290416803
  0
SOLID
  8
0
 62
7
  6
CONTINUOUS
 10
153.3017538581
 20
31.1290416803
 11
153.3017538581
 21
30.4837677459
 12
153.0126914683
 22
30.4837677459
 13
153.0126914683
 23
30.4837677459
  0
SOLID
  8
0
 62
7
  6
CONTINUOUS
 10
154.0533164683
 20
31.4839408139
 11
154.4580040786
 21
31.5162048066
 12
154.8048790786
 22
31.5162048066
 13
154.8048790786
 23
31.5162048066
  0
SOLID
  8
0
 62
7
  6
CONTINUOUS
 10
154.8048790786
 20
31.5162048066
 11
155.1517537478
 21
31.4839408139
 12
154.0533164683
 22
31.4839408139
 13
154.0533164683
 23
31.4839408139
  0
SOLID
  8
0
 62
7
  6
CONTINUOUS
 10
153.9376915786
 20
31.4516780059
 11
154.0533164683
 21
31.4839408139
 12
155.1517537478
 22
31.4839408139
 13
155.1517537478
 23
31.4839408139
  0
SOLID
  8
0
 62
7
  6
CONTINUOUS
 10
155.1517537478
 20
31.4839408139
 11
155.3251912478
 21
31.4194137026
 12
153.9376915786
 22
31.4516780059
 13
153.9376915786
 23
31.4516780059
  0
SOLID
  8
0
 62
7
  6
CONTINUOUS
 10
153.8220663581
 20
31.38714961
 11
153.9376915786
 21
31.4516780059
 12
155.3251912478
 22
31.4194137026
 13
155.3251912478
 23
31.4194137026
  0
SOLID
  8
0
 62
7
  6
CONTINUOUS
 10
153.8220663581
 20
31.38714961
 11
155.3251912478
 21
31.4194137026
 12
154.4580040786
 22
31.38714961
 13
154.4580040786
 23
31.38714961
  0
SOLID
  8
0
 62
7
  6
CONTINUOUS
 10
154.4580040786
 20
31.38714961
 11
155.3251912478
 21
31.4194137026
 12
154.8048790786
 22
31.38714961
 13
154.8048790786
 23
31.38714961
  0
SOLID
  8
0
 62
7
  6
CONTINUOUS
 10
154.8048790786
 20
31.38714961
 11
155.3251912478
 21
31.4194137026
 12
155.0361291889
 22
31.3548863916
 13
155.0361291889
 23
31.3548863916
  0
SOLID
  8
0
 62
7
  6
CONTINUOUS
 10
155.3251912478
 20
31.4194137026
 11
155.4408164683
 21
31.3548863916
 12
155.0361291889
 22
31.3548863916
 13
155.0361291889
 23
31.3548863916
  0
SOLID
  8
0
 62
7
  6
CONTINUOUS
 10
153.7642540786
 20
31.3226223989
 11
153.8220663581
 21
31.38714961
 12
154.4580040786
 22
31.38714961
 13
154.4580040786
 23
31.38714961
  0
SOLID
  8
0
 62
7
  6
CONTINUOUS
 10
155.1517537478
 20
31.3226223989
 11
155.0361291889
 21
31.3548863916
 12
155.4408164683
 22
31.3548863916
 13
155.4408164683
 23
31.3548863916
  0
SOLID
  8
0
 62
7
  6
CONTINUOUS
 10
155.1517537478
 20
31.3226223989
 11
155.4408164683
 21
31.3548863916
 12
155.2095666889
 22
31.2580951877
 13
155.2095666889
 23
31.2580951877
  0
SOLID
  8
0
 62
7
  6
CONTINUOUS
 10
155.4408164683
 20
31.3548863916
 11
155.4986287478
 21
31.2580951877
 12
155.2095666889
 22
31.2580951877
 13
155.2095666889
 23
31.2580951877
  0
SOLID
  8
0
 62
7
  6
CONTINUOUS
 10
155.2095666889
 20
31.1613038256
 11
155.2095666889
 21
31.2580951877
 12
155.4986287478
 22
31.2580951877
 13
155.4986287478
 23
31.2580951877
  0
SOLID
  8
0
 62
7
  6
CONTINUOUS
 10
155.2095666889
 20
31.1613038256
 11
155.4986287478
 21
31.2580951877
 12
155.2095666889
 22
31.0322496452
 13
155.2095666889
 23
31.0322496452
  0
SOLID
  8
0
 62
7
  6
CONTINUOUS
 10
155.2095666889
 20
31.0322496452
 11
155.4986287478
 21
31.2580951877
 12
155.2095666889
 22
30.8386672883
 13
155.2095666889
 23
30.8386672883
  0
SOLID
  8
0
 62
7
  6
CONTINUOUS
 10
155.4986287478
 20
31.2580951877
 11
155.4986287478
 21
30.7418754649
 12
155.2095666889
 22
30.8386672883
 13
155.2095666889
 23
30.8386672883
  0
SOLID
  8
0
 62
7
  6
CONTINUOUS
 10
157.4064412478
 20
31.4839405154
 11
157.6376916889
 21
31.5162052351
 12
157.8689414683
 22
31.5162052351
 13
157.8689414683
 23
31.5162052351
  0
SOLID
  8
0
 62
7
  6
CONTINUOUS
 10
157.8689414683
 20
31.5162052351
 11
158.0423789683
 21
31.4839405154
 12
157.4064412478
 22
31.4839405154
 13
157.4064412478
 23
31.4839405154
  0
SOLID
  8
0
 62
7
  6
CONTINUOUS
 10
157.2330037478
 20
31.4194141734
 11
157.4064412478
 21
31.4839405154
 12
158.0423789683
 22
31.4839405154
 13
158.0423789683
 23
31.4839405154
  0
SOLID
  8
0
 62
7
  6
CONTINUOUS
 10
158.0423789683
 20
31.4839405154
 11
158.2158164683
 21
31.4194141734
 12
157.2330037478
 22
31.4194141734
 13
157.2330037478
 23
31.4194141734
  0
SOLID
  8
0
 62
7
  6
CONTINUOUS
 10
158.2158164683
 20
31.4194141734
 11
157.6376916889
 21
31.3871493993
 12
157.2330037478
 22
31.4194141734
 13
157.2330037478
 23
31.4194141734
  0
SOLID
  8
0
 62
7
  6
CONTINUOUS
 10
157.1173791889
 20
31.3548867989
 11
157.2330037478
 21
31.4194141734
 12
157.6376916889
 22
31.3871493993
 13
157.6376916889
 23
31.3871493993
  0
SOLID
  8
0
 62
7
  6
CONTINUOUS
 10
157.6376916889
 20
31.3871493993
 11
157.4064412478
 21
31.3548867989
 12
157.1173791889
 22
31.3548867989
 13
157.1173791889
 23
31.3548867989
  0
SOLID
  8
0
 62
7
  6
CONTINUOUS
 10
157.6376916889
 20
31.3871493993
 11
158.2158164683
 21
31.4194141734
 12
157.8689414683
 22
31.3548867989
 13
157.8689414683
 23
31.3548867989
  0
SOLID
  8
0
 62
7
  6
CONTINUOUS
 10
158.2158164683
 20
31.4194141734
 11
158.3314416889
 21
31.3548867989
 12
157.8689414683
 22
31.3548867989
 13
157.8689414683
 23
31.3548867989
  0
SOLID
  8
0
 62
7
  6
CONTINUOUS
 10
157.9845666889
 20
31.3226223092
 11
157.8689414683
 21
31.3548867989
 12
158.3314416889
 22
31.3548867989
 13
158.3314416889
 23
31.3548867989
  0
SOLID
  8
0
 62
7
  6
CONTINUOUS
 10
157.9845666889
 20
31.3226223092
 11
158.3314416889
 21
31.3548867989
 12
158.1001912478
 22
31.2580947047
 13
158.1001912478
 23
31.2580947047
  0
SOLID
  8
0
 62
7
  6
CONTINUOUS
 10
158.3314416889
 20
31.3548867989
 11
158.3892539683
 21
31.2580947047
 12
158.1001912478
 22
31.2580947047
 13
158.1001912478
 23
31.2580947047
  0
SOLID
  8
0
 62
7
  6
CONTINUOUS
 10
158.1580041889
 20
31.0967762685
 11
158.1001912478
 21
31.2580947047
 12
158.3892539683
 22
31.2580947047
 13
158.3892539683
 23
31.2580947047
  0
SOLID
  8
0
 62
7
  6
CONTINUOUS
 10
158.3892539683
 20
31.2580947047
 11
158.4470662478
 21
31.0967762685
 12
158.1580041889
 22
31.0967762685
 13
158.1580041889
 23
31.0967762685
  0
SOLID
  8
0
 62
7
  6
CONTINUOUS
 10
157.4064412478
 20
31.3548867989
 11
157.2330037478
 21
31.2903595223
 12
157.1173791889
 22
31.3548867989
 13
157.1173791889
 23
31.3548867989
  0
SOLID
  8
0
 62
7
  6
CONTINUOUS
 10
157.2330037478
 20
31.2903595223
 11
157.1173791889
 21
31.2258309157
 12
157.1173791889
 22
31.3548867989
 13
157.1173791889
 23
31.3548867989
  0
SOLID
  8
0
 62
7
  6
CONTINUOUS
 10
157.1173791889
 20
31.2258309157
 11
156.8283164683
 21
30.4837672433
 12
157.1173791889
 22
31.3548867989
 13
157.1173791889
 23
31.3548867989
  0
SOLID
  8
0
 62
7
  6
CONTINUOUS
 10
157.1173791889
 20
31.3548867989
 11
156.8283164683
 21
30.4837672433
 12
157.1173791889
 22
31.5162052351
 13
157.1173791889
 23
31.5162052351
  0
SOLID
  8
0
 62
7
  6
CONTINUOUS
 10
156.8283164683
 20
30.4837672433
 11
156.8283164683
 21
31.5162052351
 12
157.1173791889
 22
31.5162052351
 13
157.1173791889
 23
31.5162052351
  0
SOLID
  8
0
 62
7
  6
CONTINUOUS
 10
157.1173791889
 20
31.2258309157
 11
157.1173791889
 21
30.4837672433
 12
156.8283164683
 22
30.4837672433
 13
156.8283164683
 23
30.4837672433
  0
SOLID
  8
0
 62
7
  6
CONTINUOUS
 10
158.1580041889
 20
30.4837672433
 11
158.1580041889
 21
31.0967762685
 12
158.4470662478
 22
31.0967762685
 13
158.4470662478
 23
31.0967762685
  0
SOLID
  8
0
 62
7
  6
CONTINUOUS
 10
158.4470662478
 20
31.0967762685
 11
158.4470662478
 21
30.4837672433
 12
158.1580041889
 22
30.4837672433
 13
158.1580041889
 23
30.4837672433
  0
SOLID
  8
0
 62
7
  6
CONTINUOUS
 10
159.2564414683
 20
31.4839408138
 11
159.6033164683
 21
31.5162050633
 12
159.9501914683
 22
31.5162050633
 13
159.9501914683
 23
31.5162050633
  0
SOLID
  8
0
 62
7
  6
CONTINUOUS
 10
159.9501914683
 20
31.5162050633
 11
160.2970664683
 21
31.4839408138
 12
159.2564414683
 22
31.4839408138
 13
159.2564414683
 23
31.4839408138
  0
SOLID
  8
0
 62
7
  6
CONTINUOUS
 10
159.0251916889
 20
31.4194137026
 11
159.2564414683
 21
31.4839408138
 12
160.2970664683
 22
31.4839408138
 13
160.2970664683
 23
31.4839408138
  0
SOLID
  8
0
 62
7
  6
CONTINUOUS
 10
159.0251916889
 20
31.4194137026
 11
160.2970664683
 21
31.4839407928
 12
160.4705039683
 22
31.4516780059
 13
160.4705039683
 23
31.4516780059
  0
SOLID
  8
0
 62
7
  6
CONTINUOUS
 10
159.0251916889
 20
31.4194137026
 11
160.4705039683
 21
31.4516780059
 12
159.6033164683
 22
31.3871494664
 13
159.6033164683
 23
31.3871494664
  0
SOLID
  8
0
 62
7
  6
CONTINUOUS
 10
159.6033164683
 20
31.3871494664
 11
160.4705039683
 21
31.4516780059
 12
159.9501914683
 22
31.3871494664
 13
159.9501914683
 23
31.3871494664
  0
SOLID
  8
0
 62
7
  6
CONTINUOUS
 10
160.4705039683
 20
31.4516780059
 11
160.6439414683
 21
31.3871494664
 12
159.9501914683
 22
31.3871494664
 13
159.9501914683
 23
31.3871494664
  0
SOLID
  8
0
 62
7
  6
CONTINUOUS
 10
160.2970664683
 20
31.3548866125
 11
159.9501914683
 21
31.3871494664
 12
160.6439414683
 22
31.3871494664
 13
160.6439414683
 23
31.3871494664
  0
SOLID
  8
0
 62
7
  6
CONTINUOUS
 10
158.9095664683
 20
31.3226222241
 11
159.0251916889
 21
31.4194137026
 12
159.6033164683
 22
31.3871494664
 13
159.6033164683
 23
31.3871494664
  0
SOLID
  8
0
 62
7
  6
CONTINUOUS
 10
160.2970664683
 20
31.3548866125
 11
160.6439414683
 21
31.3871494664
 12
160.4126916889
 22
31.3226222241
 13
160.4126916889
 23
31.3226222241
  0
SOLID
  8
0
 62
7
  6
CONTINUOUS
 10
160.4126916889
 20
31.3226222241
 11
160.6439414683
 21
31.3871494664
 12
160.4705039683
 22
31.2580952077
 13
160.4705039683
 23
31.2580952077
  0
SOLID
  8
0
 62
7
  6
CONTINUOUS
 10
160.6439414683
 20
31.3871494664
 11
160.7595660273
 21
31.2580952077
 12
160.4705039683
 22
31.2580952077
 13
160.4705039683
 23
31.2580952077
  0
SOLID
  8
0
 62
7
  6
CONTINUOUS
 10
150.0642539683
 20
31.3548866125
 11
149.5439414683
 21
31.3226222809
 12
150.2955039959
 22
31.3871493065
 13
150.2955039959
 23
31.3871493065
  0
SOLID
  8
0
 62
7
  6
CONTINUOUS
 10
149.5439414683
 20
31.3226222809
 11
149.6595664615
 21
31.3871493065
 12
150.2955039959
 22
31.3871493065
 13
150.2955039959
 23
31.3871493065
  0
SOLID
  8
0
 62
7
  6
CONTINUOUS
 10
150.0642539683
 20
31.3548866125
 11
149.9486289546
 21
31.3226222809
 12
149.5439414683
 22
31.3226222809
 13
149.5439414683
 23
31.3226222809
  0
SOLID
  8
0
 62
7
  6
CONTINUOUS
 10
149.4283164701
 20
31.1935681288
 11
149.5439414683
 21
31.3226222809
 12
149.9486289546
 22
31.3226222809
 13
149.9486289546
 23
31.3226222809
  0
SOLID
  8
0
 62
7
  6
CONTINUOUS
 10
153.7642540786
 20
31.3226222809
 11
154.4580040786
 21
31.3871493993
 12
154.2267539683
 22
31.3548866125
 13
154.2267539683
 23
31.3548866125
  0
SOLID
  8
0
 62
7
  6
CONTINUOUS
 10
154.2267539683
 20
31.3548866125
 11
154.1111290786
 21
31.3226222809
 12
153.7642540786
 22
31.3226222809
 13
153.7642540786
 23
31.3226222809
  0
SOLID
  8
0
 62
7
  6
CONTINUOUS
 10
153.7642540786
 20
31.2580951907
 11
153.7642540786
 21
31.3226222809
 12
154.1111290786
 22
31.3226222809
 13
154.1111290786
 23
31.3226222809
  0
SOLID
  8
0
 62
7
  6
CONTINUOUS
 10
154.1111290786
 20
31.3226222809
 11
154.0533164683
 21
31.2580951907
 12
153.7642540786
 22
31.2580951907
 13
153.7642540786
 23
31.2580951907
  0
SOLID
  8
0
 62
7
  6
CONTINUOUS
 10
158.9095664683
 20
31.32262241
 11
159.6033164683
 21
31.3871493993
 12
159.3720666889
 22
31.3548866125
 13
159.3720666889
 23
31.3548866125
  0
SOLID
  8
0
 62
7
  6
CONTINUOUS
 10
159.3720666889
 20
31.3548866125
 11
159.2564414683
 21
31.32262241
 12
158.9095664683
 22
31.32262241
 13
158.9095664683
 23
31.32262241
  0
SOLID
  8
0
 62
7
  6
CONTINUOUS
 10
158.9095664683
 20
31.2580953198
 11
158.9095664683
 21
31.32262241
 12
159.2564414683
 22
31.32262241
 13
159.2564414683
 23
31.32262241
  0
SOLID
  8
0
 62
7
  6
CONTINUOUS
 10
159.2564414683
 20
31.32262241
 11
159.1986291889
 21
31.2580953198
 12
158.9095664683
 22
31.2580953198
 13
158.9095664683
 23
31.2580953198
  0
SOLID
  8
0
 62
7
  6
CONTINUOUS
 10
159.0251916889
 20
31.1290410387
 11
158.9095664683
 21
31.2580953198
 12
159.1986291889
 22
31.2580953198
 13
159.1986291889
 23
31.2580953198
  0
SOLID
  8
0
 62
7
  6
CONTINUOUS
 10
149.4283164701
 20
31.1935681288
 11
149.9486289546
 21
31.3226223092
 12
149.7751914546
 22
31.2258309157
 13
149.7751914546
 23
31.2258309157
  0
SOLID
  8
0
 62
7
  6
CONTINUOUS
 10
149.7751914546
 20
31.2258309157
 11
149.7173789683
 21
31.1613038256
 12
149.4283164701
 22
31.1935681288
 13
149.4283164701
 23
31.1935681288
  0
SOLID
  8
0
 62
7
  6
CONTINUOUS
 10
149.3705039683
 20
30.999985342
 11
149.4283164701
 21
31.1935681288
 12
149.7173789683
 22
31.1613038256
 13
149.7173789683
 23
31.1613038256
  0
SOLID
  8
0
 62
7
  6
CONTINUOUS
 10
154.2267539683
 20
31.1290410387
 11
154.5736289683
 21
31.1613037812
 12
155.2095666889
 22
31.1613037812
 13
155.2095666889
 23
31.1613037812
  0
SOLID
  8
0
 62
7
  6
CONTINUOUS
 10
154.2267539683
 20
31.1290410387
 11
155.2095666889
 21
31.1613037812
 12
153.9955038581
 22
31.0645131385
 13
153.9955038581
 23
31.0645131385
  0
SOLID
  8
0
 62
7
  6
CONTINUOUS
 10
153.9955038581
 20
31.0645131385
 11
155.2095666889
 21
31.1613037812
 12
154.5736289683
 22
31.0322496008
 13
154.5736289683
 23
31.0322496008
  0
SOLID
  8
0
 62
7
  6
CONTINUOUS
 10
155.2095666889
 20
31.1613037812
 11
155.2095666889
 21
31.0322496008
 12
154.5736289683
 22
31.0322496008
 13
154.5736289683
 23
31.0322496008
  0
SOLID
  8
0
 62
7
  6
CONTINUOUS
 10
159.0251916889
 20
31.1290409764
 11
159.1986291889
 21
31.258095219
 12
159.2564414683
 22
31.1935681288
 13
159.2564414683
 23
31.1935681288
  0
SOLID
  8
0
 62
7
  6
CONTINUOUS
 10
159.2564414683
 20
31.1935681288
 11
159.4298789683
 21
31.1290409764
 12
159.0251916889
 22
31.1290409764
 13
159.0251916889
 23
31.1290409764
  0
SOLID
  8
0
 62
7
  6
CONTINUOUS
 10
159.2564414683
 20
31.0322496452
 11
159.0251916889
 21
31.1290409764
 12
159.4298789683
 22
31.1290409764
 13
159.4298789683
 23
31.1290409764
  0
SOLID
  8
0
 62
7
  6
CONTINUOUS
 10
159.4298789683
 20
31.1290409764
 11
160.4126916889
 21
30.9677225551
 12
159.2564414683
 22
31.0322496452
 13
159.2564414683
 23
31.0322496452
  0
SOLID
  8
0
 62
7
  6
CONTINUOUS
 10
160.2392541889
 20
30.8709310886
 11
159.2564414683
 21
31.0322496452
 12
160.4126916889
 22
30.9677225551
 13
160.4126916889
 23
30.9677225551
  0
SOLID
  8
0
 62
7
  6
CONTINUOUS
 10
160.4126916889
 20
30.9677225551
 11
160.6439414683
 21
30.8709310886
 12
160.2392541889
 22
30.8709310886
 13
160.2392541889
 23
30.8709310886
  0
SOLID
  8
0
 62
7
  6
CONTINUOUS
 10
160.4126916889
 20
30.8064040715
 11
160.2392541889
 21
30.8709310886
 12
160.6439414683
 22
30.8709310886
 13
160.6439414683
 23
30.8709310886
  0
SOLID
  8
0
 62
7
  6
CONTINUOUS
 10
160.4126916889
 20
30.8064040715
 11
160.6439414683
 21
30.8709310886
 12
160.4705039683
 22
30.7418753703
 13
160.4705039683
 23
30.7418753703
  0
SOLID
  8
0
 62
7
  6
CONTINUOUS
 10
160.6439414683
 20
30.8709310886
 11
160.7595660273
 21
30.7418753703
 12
160.4705039683
 22
30.7418753703
 13
160.4705039683
 23
30.7418753703
  0
SOLID
  8
0
 62
7
  6
CONTINUOUS
 10
160.4126916889
 20
30.6773482855
 11
160.4705039683
 21
30.7418753703
 12
160.7595660273
 22
30.7418753703
 13
160.7595660273
 23
30.7418753703
  0
SOLID
  8
0
 62
7
  6
CONTINUOUS
 10
160.7595660273
 20
30.7418753703
 11
160.7595660273
 21
30.6773482855
 12
160.4126916889
 22
30.6773482855
 13
160.4126916889
 23
30.6773482855
  0
SOLID
  8
0
 62
7
  6
CONTINUOUS
 10
160.2970664683
 20
30.6450855879
 11
160.4126916889
 21
30.6773482855
 12
160.7595660273
 22
30.6773482855
 13
160.7595660273
 23
30.6773482855
  0
SOLID
  8
0
 62
7
  6
CONTINUOUS
 10
160.2970664683
 20
30.6450855879
 11
160.7595660273
 21
30.6773482855
 12
160.0658166889
 22
30.6128212008
 13
160.0658166889
 23
30.6128212008
  0
SOLID
  8
0
 62
7
  6
CONTINUOUS
 10
160.7595660273
 20
30.6773482855
 11
160.6439414683
 21
30.5805584977
 12
160.0658166889
 22
30.6128212008
 13
160.0658166889
 23
30.6128212008
  0
SOLID
  8
0
 62
7
  6
CONTINUOUS
 10
160.6439414683
 20
30.5805584977
 11
159.1986291889
 21
30.5482941944
 12
160.0658166889
 22
30.6128212008
 13
160.0658166889
 23
30.6128212008
  0
SOLID
  8
0
 62
7
  6
CONTINUOUS
 10
160.0658166889
 20
30.6128212008
 11
159.1986291889
 21
30.5482941944
 12
159.7189416889
 22
30.6128212008
 13
159.7189416889
 23
30.6128212008
  0
SOLID
  8
0
 62
7
  6
CONTINUOUS
 10
159.1986291889
 20
30.5482941944
 11
159.0251916889
 21
30.6128212008
 12
159.7189416889
 22
30.6128212008
 13
159.7189416889
 23
30.6128212008
  0
SOLID
  8
0
 62
7
  6
CONTINUOUS
 10
159.1986291889
 20
30.5482941944
 11
160.6439414683
 21
30.5805584977
 12
159.3720666889
 22
30.5160301864
 13
159.3720666889
 23
30.5160301864
  0
SOLID
  8
0
 62
7
  6
CONTINUOUS
 10
160.6439414683
 20
30.5805584977
 11
160.4126916889
 21
30.5160301864
 12
159.3720666889
 22
30.5160301864
 13
159.3720666889
 23
30.5160301864
  0
SOLID
  8
0
 62
7
  6
CONTINUOUS
 10
159.7189416889
 20
30.4837670312
 11
159.3720666889
 21
30.5160301864
 12
160.4126916889
 22
30.5160301864
 13
160.4126916889
 23
30.5160301864
  0
SOLID
  8
0
 62
7
  6
CONTINUOUS
 10
160.4126916889
 20
30.5160301864
 11
160.0658166889
 21
30.4837670312
 12
159.7189416889
 22
30.4837670312
 13
159.7189416889
 23
30.4837670312
  0
SOLID
  8
0
 62
7
  6
CONTINUOUS
 10
149.3705039683
 20
30.999985342
 11
149.7173789683
 21
31.1613038256
 12
149.6595664615
 22
31.0322496452
 13
149.6595664615
 23
31.0322496452
  0
SOLID
  8
0
 62
7
  6
CONTINUOUS
 10
149.6595664615
 20
31.0322496452
 11
149.6595664615
 21
30.9354583476
 12
149.3705039683
 22
30.999985342
 13
149.3705039683
 23
30.999985342
  0
SOLID
  8
0
 62
7
  6
CONTINUOUS
 10
149.4283164701
 20
30.8064040715
 11
149.3705039683
 21
30.999985342
 12
149.6595664615
 22
30.9354583476
 13
149.6595664615
 23
30.9354583476
  0
SOLID
  8
0
 62
7
  6
CONTINUOUS
 10
149.6595664615
 20
30.9354583476
 11
149.7751914546
 21
30.7741397682
 12
149.4283164701
 22
30.8064040715
 13
149.4283164701
 23
30.8064040715
  0
SOLID
  8
0
 62
7
  6
CONTINUOUS
 10
149.5439414683
 20
30.6773485435
 11
149.4283164701
 21
30.8064040715
 12
149.7751914546
 22
30.7741397682
 13
149.7751914546
 23
30.7741397682
  0
SOLID
  8
0
 62
7
  6
CONTINUOUS
 10
149.7751914546
 20
30.7741397682
 11
149.9486289546
 21
30.6773485435
 12
149.5439414683
 22
30.6773485435
 13
149.5439414683
 23
30.6773485435
  0
SOLID
  8
0
 62
7
  6
CONTINUOUS
 10
149.6595664615
 20
30.6128213107
 11
149.5439414683
 21
30.6773485435
 12
149.9486289546
 22
30.6773485435
 13
149.9486289546
 23
30.6773485435
  0
SOLID
  8
0
 62
7
  6
CONTINUOUS
 10
149.9486289546
 20
30.6773485435
 11
150.2955039959
 21
30.6128213107
 12
149.6595664615
 22
30.6128213107
 13
149.6595664615
 23
30.6128213107
  0
SOLID
  8
0
 62
7
  6
CONTINUOUS
 10
149.8330039821
 20
30.5482941944
 11
149.6595664615
 21
30.6128213107
 12
150.2955039959
 22
30.6128213107
 13
150.2955039959
 23
30.6128213107
  0
SOLID
  8
0
 62
7
  6
CONTINUOUS
 10
153.8798789683
 20
30.9999852815
 11
153.9955038581
 21
31.0645131385
 12
154.5736289683
 22
31.0322496452
 13
154.5736289683
 23
31.0322496452
  0
SOLID
  8
0
 62
7
  6
CONTINUOUS
 10
154.5736289683
 20
31.0322496452
 11
154.3423788581
 21
30.9999852815
 12
153.8798789683
 22
30.9999852815
 13
153.8798789683
 23
30.9999852815
  0
SOLID
  8
0
 62
7
  6
CONTINUOUS
 10
153.7642540786
 20
30.8709311616
 11
153.8798789683
 21
30.9999852815
 12
154.3423788581
 22
30.9999852815
 13
154.3423788581
 23
30.9999852815
  0
SOLID
  8
0
 62
7
  6
CONTINUOUS
 10
154.1111290786
 20
30.9031946612
 11
153.7642540786
 21
30.8709311616
 12
154.2267539683
 22
30.9677225551
 13
154.2267539683
 23
30.9677225551
  0
SOLID
  8
0
 62
7
  6
CONTINUOUS
 10
153.7642540786
 20
30.8709311616
 11
154.3423788581
 21
30.999985342
 12
154.2267539683
 22
30.9677225551
 13
154.2267539683
 23
30.9677225551
  0
SOLID
  8
0
 62
7
  6
CONTINUOUS
 10
154.1111290786
 20
30.9031946612
 11
154.0533164683
 21
30.8064040715
 12
153.7642540786
 22
30.8709311616
 13
153.7642540786
 23
30.8709311616
  0
SOLID
  8
0
 62
7
  6
CONTINUOUS
 10
153.7642540786
 20
30.7741397682
 11
153.7642540786
 21
30.8709311616
 12
154.0533164683
 22
30.8064040715
 13
154.0533164683
 23
30.8064040715
  0
SOLID
  8
0
 62
7
  6
CONTINUOUS
 10
154.0533164683
 20
30.8064040715
 11
154.0533164683
 21
30.7418754649
 12
153.7642540786
 22
30.7741397682
 13
153.7642540786
 23
30.7741397682
  0
SOLID
  8
0
 62
7
  6
CONTINUOUS
 10
153.8220663581
 20
30.6450855879
 11
153.7642540786
 21
30.7741397682
 12
154.0533164683
 22
30.7418754649
 13
154.0533164683
 23
30.7418754649
  0
SOLID
  8
0
 62
7
  6
CONTINUOUS
 10
155.2095666889
 20
30.8386672883
 11
155.4986287478
 21
30.7418754649
 12
155.1517537478
 22
30.7741397682
 13
155.1517537478
 23
30.7741397682
  0
SOLID
  8
0
 62
7
  6
CONTINUOUS
 10
154.9783162478
 20
30.6773483748
 11
155.1517537478
 21
30.7741397682
 12
155.4986287478
 22
30.7418754649
 13
155.4986287478
 23
30.7418754649
  0
SOLID
  8
0
 62
7
  6
CONTINUOUS
 10
154.9783162478
 20
30.6773483748
 11
155.4986287478
 21
30.7418754649
 12
155.2095666889
 22
30.6450855879
 13
155.2095666889
 23
30.6450855879
  0
SOLID
  8
0
 62
7
  6
CONTINUOUS
 10
155.4986287478
 20
30.7418754649
 11
155.5564416889
 21
30.5805584977
 12
155.2095666889
 22
30.6450855879
 13
155.2095666889
 23
30.6450855879
  0
SOLID
  8
0
 62
7
  6
CONTINUOUS
 10
155.2673789683
 20
30.5482941944
 11
155.2095666889
 21
30.6450855879
 12
155.5564416889
 22
30.5805584977
 13
155.5564416889
 23
30.5805584977
  0
SOLID
  8
0
 62
7
  6
CONTINUOUS
 10
155.2673789683
 20
30.5482941944
 11
155.5564416889
 21
30.5805584977
 12
155.3251912478
 22
30.4837669548
 13
155.3251912478
 23
30.4837669548
  0
SOLID
  8
0
 62
7
  6
CONTINUOUS
 10
155.5564416889
 20
30.5805584977
 11
155.6142539683
 21
30.4837669548
 12
155.3251912478
 22
30.4837669548
 13
155.3251912478
 23
30.4837669548
  0
SOLID
  8
0
 62
7
  6
CONTINUOUS
 10
150.8736290235
 20
30.7096125201
 11
150.9314414683
 21
30.8064039377
 12
151.2205040235
 22
30.8064039377
 13
151.2205040235
 23
30.8064039377
  0
SOLID
  8
0
 62
7
  6
CONTINUOUS
 10
151.2205040235
 20
30.8064039377
 11
151.1626914132
 21
30.6773483748
 12
150.8736290235
 22
30.7096125201
 13
150.8736290235
 23
30.7096125201
  0
SOLID
  8
0
 62
7
  6
CONTINUOUS
 10
150.7001914408
 20
30.6450855879
 11
150.8736290235
 21
30.7096125201
 12
151.1626914132
 22
30.6773483748
 13
151.1626914132
 23
30.6773483748
  0
SOLID
  8
0
 62
7
  6
CONTINUOUS
 10
150.7001914408
 20
30.6450855879
 11
151.1626914132
 21
30.6773483748
 12
150.2955039959
 22
30.6128212846
 13
150.2955039959
 23
30.6128212846
  0
SOLID
  8
0
 62
7
  6
CONTINUOUS
 10
151.1626914132
 20
30.6773483748
 11
150.9892539132
 21
30.5805584977
 12
150.2955039959
 22
30.6128212846
 13
150.2955039959
 23
30.6128212846
  0
SOLID
  8
0
 62
7
  6
CONTINUOUS
 10
149.8330039821
 20
30.5482941944
 11
150.2955039959
 21
30.6128212846
 12
150.9892539132
 22
30.5805584977
 13
150.9892539132
 23
30.5805584977
  0
SOLID
  8
0
 62
7
  6
CONTINUOUS
 10
149.8330039821
 20
30.5482941944
 11
150.9892539132
 21
30.5805584977
 12
150.0064414821
 22
30.5160300219
 13
150.0064414821
 23
30.5160300219
  0
SOLID
  8
0
 62
7
  6
CONTINUOUS
 10
150.9892539132
 20
30.5805584977
 11
150.7580039683
 21
30.5160300219
 12
150.0064414821
 22
30.5160300219
 13
150.0064414821
 23
30.5160300219
  0
SOLID
  8
0
 62
7
  6
CONTINUOUS
 10
150.3533164408
 20
30.4837671043
 11
150.0064414821
 21
30.5160300219
 12
150.7580039683
 22
30.5160300219
 13
150.7580039683
 23
30.5160300219
  0
SOLID
  8
0
 62
7
  6
CONTINUOUS
 10
153.8220663581
 20
30.6450855879
 11
154.0533164683
 21
30.7418754649
 12
154.1111290786
 22
30.6773483748
 13
154.1111290786
 23
30.6773483748
  0
SOLID
  8
0
 62
7
  6
CONTINUOUS
 10
154.1111290786
 20
30.6773483748
 11
154.3423788581
 21
30.6128212846
 12
153.8220663581
 22
30.6450855879
 13
153.8220663581
 23
30.6450855879
  0
SOLID
  8
0
 62
7
  6
CONTINUOUS
 10
153.9955038581
 20
30.5482941944
 11
153.8220663581
 21
30.6450855879
 12
154.3423788581
 22
30.6128212846
 13
154.3423788581
 23
30.6128212846
  0
SOLID
  8
0
 62
7
  6
CONTINUOUS
 10
154.6892538581
 20
30.6128213209
 11
154.9783162478
 21
30.6773483748
 12
155.2095666889
 22
30.6450855879
 13
155.2095666889
 23
30.6450855879
  0
SOLID
  8
0
 62
7
  6
CONTINUOUS
 10
155.2095666889
 20
30.6450855879
 11
155.1517537478
 21
30.5805584977
 12
154.6892538581
 22
30.6128213209
 13
154.6892538581
 23
30.6128213209
  0
SOLID
  8
0
 62
7
  6
CONTINUOUS
 10
155.1517537478
 20
30.5805584977
 11
153.9955038581
 21
30.5482941944
 12
154.6892538581
 22
30.6128213209
 13
154.6892538581
 23
30.6128213209
  0
SOLID
  8
0
 62
7
  6
CONTINUOUS
 10
153.9955038581
 20
30.5482941944
 11
154.3423788581
 21
30.6128213209
 12
154.6892538581
 22
30.6128213209
 13
154.6892538581
 23
30.6128213209
  0
SOLID
  8
0
 62
7
  6
CONTINUOUS
 10
153.9955038581
 20
30.5482941944
 11
155.1517537478
 21
30.5805584977
 12
154.1111290786
 22
30.5160299113
 13
154.1111290786
 23
30.5160299113
  0
SOLID
  8
0
 62
7
  6
CONTINUOUS
 10
155.1517537478
 20
30.5805584977
 11
154.9783162478
 21
30.5160299113
 12
154.1111290786
 22
30.5160299113
 13
154.1111290786
 23
30.5160299113
  0
SOLID
  8
0
 62
7
  6
CONTINUOUS
 10
154.3423788581
 20
30.483767076
 11
154.1111290786
 21
30.5160299113
 12
154.9783162478
 22
30.5160299113
 13
154.9783162478
 23
30.5160299113
  0
SOLID
  8
0
 62
7
  6
CONTINUOUS
 10
154.9783162478
 20
30.5160299113
 11
154.6892538581
 21
30.483767076
 12
154.3423788581
 22
30.483767076
 13
154.3423788581
 23
30.483767076
  0
SOLID
  8
0
 62
7
  6
CONTINUOUS
 10
159.3720666889
 20
30.6450855879
 11
159.0251916889
 21
30.6128213209
 12
159.2564414683
 22
30.6773483748
 13
159.2564414683
 23
30.6773483748
  0
SOLID
  8
0
 62
7
  6
CONTINUOUS
 10
159.2564414683
 20
30.6773483748
 11
159.0251916889
 21
30.6128213209
 12
159.1986291889
 22
30.7418755012
 13
159.1986291889
 23
30.7418755012
  0
SOLID
  8
0
 62
7
  6
CONTINUOUS
 10
159.0251916889
 20
30.6128213209
 11
158.9095664683
 21
30.7418755012
 12
159.1986291889
 22
30.7418755012
 13
159.1986291889
 23
30.7418755012
  0
SOLID
  8
0
 62
7
  6
CONTINUOUS
 10
159.3720666889
 20
30.6450855879
 11
159.7189416889
 21
30.6128213209
 12
159.0251916889
 22
30.6128213209
 13
159.0251916889
 23
30.6128213209
  0
SOLID
  8
0
 62
7
  6
CONTINUOUS
 10
156.0767541889
 20
30.4837671043
 11
156.0767541889
 21
31.5162050961
 12
156.3658162478
 22
30.4837671043
 13
156.3658162478
 23
31.5162050961
  0
ENDBLK
  8
0
  6
BYBLOCK
 62
0
  0
BLOCK
  8
0
 62
2
  6
CONTINUOUS
  2
SYMBOL_3_BL0
 70
64
 10
31.7740840678
 20
19.9150776578
  0
TEXT
  8
0
 62
7
  6
CONTINUOUS
 10
18.0387879101
 20
19.2884917655
  7
TEXTSTYLE_3
 40
2.7338706658
  1
Ammeraal Beltech
 41
1.0
 51
15.0
 72
0
  0
TEXT
  8
0
 62
7
  6
CONTINUOUS
 10
28.8395887358
 20
17.0149550926
  7
TEXTSTYLE_4
 40
1.0935482663
  1
Innovation & Service in Belting
 41
1.0
 72
0
  0
LINE
  8
0
 62
7
  6
CONTINUOUS
 10
12.0142472588
 20
20.055085074
 11
12.7923992521
 21
23.7160023717
  0
LINE
  8
0
 62
7
  6
CONTINUOUS
 10
22.8875675419
 20
27.3793962833
 11
13.2802169951
 21
24.257778862
  0
LINE
  8
0
 62
7
  6
CONTINUOUS
 10
12.2395305911
 20
19.361734271
 11
19.7466058522
 21
12.602333345
  0
LINE
  8
0
 62
7
  6
CONTINUOUS
 10
12.5020650018
 20
20.5968615644
 11
23.310334367
 21
24.1086811633
  0
LINE
  8
0
 62
7
  6
CONTINUOUS
 10
23.3061292298
 20
13.7588925996
 11
14.860669561
 21
21.3632186413
  0
LINE
  8
0
 62
7
  6
CONTINUOUS
 10
23.8259519496
 20
26.5344711676
 11
22.8493924124
 21
21.9401197651
  0
LINE
  8
0
 62
7
  6
CONTINUOUS
 10
22.1495904647
 20
18.6478104513
 11
21.4631422532
 21
15.4183255269
  0
LINE
  8
0
 62
7
  6
CONTINUOUS
 10
24.5070480481
 20
14.1490947773
 11
25.4632795838
 21
18.6478104513
  0
LINE
  8
0
 62
7
  6
CONTINUOUS
 10
26.1630815315
 20
21.9401197651
 11
26.6073233338
 21
24.0301131245
  0
LINE
  8
0
 62
7
  6
CONTINUOUS
 10
20.4597069275
 20
12.4507590323
 11
24.0192303051
 21
13.6073182869
  0
LINE
  8
0
 62
7
  6
CONTINUOUS
 10
23.6006686173
 20
27.2278219706
 11
26.3820400015
 21
24.7234639276
  0
ARC
  8
0
 62
7
  6
CONTINUOUS
 10
13.5055003274
 20
23.564428059
 40
0.7290321776
 50
108.0
 51
168.0
  0
ARC
  8
0
 62
7
  6
CONTINUOUS
 10
23.1128508743
 20
26.6860454803
 40
0.7290321776
 50
348.0
 51
108.0
  0
ARC
  8
0
 62
7
  6
CONTINUOUS
 10
25.8942222585
 20
24.1816874372
 40
0.7290321776
 50
348.0
 51
48.0
  0
ARC
  8
0
 62
7
  6
CONTINUOUS
 10
20.2344235952
 20
13.1441098354
 40
0.7290321776
 50
228.0
 51
288.0
  0
ARC
  8
0
 62
7
  6
CONTINUOUS
 10
12.7273483341
 20
19.9035107613
 40
0.7290321776
 50
108.0
 51
228.0
  0
ARC
  8
0
 62
7
  6
CONTINUOUS
 10
23.7939469728
 20
14.30066909
 40
0.7290321776
 50
228.0
 51
348.0
  0
ENDBLK
  8
0
  6
BYBLOCK
 62
0
  0
ENDSEC
  0
SECTION
  2
ENTITIES
  0
TEXT
  8
0
 62
5
  6
CONTINUOUS
 10
96.0
 20
25.636
  7
TEXTSTYLE_2
 40
2.8
  1
Scale :
 41
0.6
 51
0.000019
 72
0
  0
TEXT
  8
0
 62
5
  6
CONTINUOUS
 10
116.0
 20
25.636
  7
TEXTSTYLE_2
 40
2.8
  1
Chain type:
 41
0.6
 51
0.000019
 72
0
  0
INSERT
  8
0
 62
2
  6
CONTINUOUS
  2
SYMBOL_3_BL0
 10
31.7740840678
 20
19.9150776578
  0
INSERT
  8
0
 62
2
  6
CONTINUOUS
  2
SYMBOL_11_BL1
 10
173.3924355793
 20
35.4837666925
  0
LINE
  8
0
 62
2
  6
CONTINUOUS
 10
10.0
 20
30.0
 11
200.0
 21
30.0
  0
LINE
  8
0
 62
2
  6
CONTINUOUS
 10
10.0
 20
30.0
 11
10.0
 21
10.0
  0
LINE
  8
0
 62
2
  6
CONTINUOUS
 10
10.0
 20
10.0
 11
200.0
 21
10.0
  0
LINE
  8
0
 62
2
  6
CONTINUOUS
 10
95.0
 20
30.0
 11
95.0
 21
10.0
  0
LINE
  8
0
 62
2
  6
CONTINUOUS
 10
115.0
 20
30.0
 11
115.0
 21
10.0
  0
LINE
  8
0
 62
2
  6
CONTINUOUS
 10
200.0
 20
30.0
 11
200.0
 21
10.0
  0
TEXT
  8
NOTES
 62
5
  6
CONTINUOUS
 10
98.0
 20
13.75
  7
STANDARD
 40
5.0
  1
1:1
 41
0.8
 72
0
  0
TEXT
  8
NOTES
 62
5
  6
CONTINUOUS
 10
118.0
 20
13.75
  7
TEXTSTYLE_5
 40
7.0
  1
uni 880 K750 TAB
 41
0.7072916667
 72
0
  0
LINE
  8
0
 62
7
  6
CONTINUOUS
 10
210.0
 20
0.0
 11
0.0
 21
0.0
  0
LINE
  8
0
 62
7
  6
CONTINUOUS
 10
10.0
 20
10.0
 11
200.0
 21
10.0
  0
LINE
  8
0
 62
7
  6
CONTINUOUS
 10
10.0
 20
30.0
 11
200.0
 21
30.0
  0
LINE
  8
0
 62
7
  6
CONTINUOUS
 10
0.0
 20
0.0
 11
0.0
 21
297.0
  0
LINE
  8
0
 62
7
  6
CONTINUOUS
 10
10.0
 20
10.0
 11
10.0
 21
287.0
  0
LINE
  8
0
 62
7
  6
CONTINUOUS
 10
200.0
 20
287.0
 11
200.0
 21
10.0
  0
LINE
  8
0
 62
7
  6
CONTINUOUS
 10
210.0
 20
0.0
 11
210.0
 21
297.0
  0
LINE
  8
0
 62
7
  6
CONTINUOUS
 10
10.0
 20
287.0
 11
200.0
 21
287.0
  0
LINE
  8
0
 62
7
  6
CONTINUOUS
 10
0.0
 20
297.0
 11
210.0
 21
297.0
  0
LINE
  8
SURFACE
 62
7
  6
CONTINUOUS
 10
66.1279716027
 20
45.4414391897
 11
90.9678701455
 21
45.4414391897
  0
POLYLINE
  8
SURFACE
 62
7
  6
CONTINUOUS
 66
1
 70
0
  0
VERTEX
  8
SURFACE
 62
7
  6
CONTINUOUS
 10
43.1478701459
 20
129.3804527517
  0
VERTEX
  8
SURFACE
 62
7
  6
CONTINUOUS
 10
43.1480181306
 20
129.3654794075
  0
VERTEX
  8
SURFACE
 62
7
  6
CONTINUOUS
 10
43.150470079
 20
129.3177638103
  0
VERTEX
  8
SURFACE
 62
7
  6
CONTINUOUS
 10
43.1559372509
 20
129.2702574993
  0
VERTEX
  8
SURFACE
 62
7
  6
CONTINUOUS
 10
43.1644048555
 20
129.2231756705
  0
VERTEX
  8
SURFACE
 62
7
  6
CONTINUOUS
 10
43.1758412288
 20
129.1767258778
  0
VERTEX
  8
SURFACE
 62
7
  6
CONTINUOUS
 10
43.1902008773
 20
129.131104353
  0
VERTEX
  8
SURFACE
 62
7
  6
CONTINUOUS
 10
43.2074210774
 20
129.0865106621
  0
VERTEX
  8
SURFACE
 62
7
  6
CONTINUOUS
 10
43.2274314414
 20
129.043122831
  0
VERTEX
  8
SURFACE
 62
7
  6
CONTINUOUS
 10
43.2501472458
 20
129.0011197427
  0
VERTEX
  8
SURFACE
 62
7
  6
CONTINUOUS
 10
43.2754746502
 20
128.9606695124
  0
VERTEX
  8
SURFACE
 62
7
  6
CONTINUOUS
 10
43.3033078483
 20
128.9219358384
  0
VERTEX
  8
SURFACE
 62
7
  6
CONTINUOUS
 10
43.3335320406
 20
128.8850733017
  0
VERTEX
  8
SURFACE
 62
7
  6
CONTINUOUS
 10
43.366021778
 20
128.8502299465
  0
VERTEX
  8
SURFACE
 62
7
  6
CONTINUOUS
 10
43.4006441649
 20
128.817543661
  0
VERTEX
  8
SURFACE
 62
7
  6
CONTINUOUS
 10
43.4372573478
 20
128.787144233
  0
VERTEX
  8
SURFACE
 62
7
  6
CONTINUOUS
 10
43.4757113814
 20
128.7591523358
  0
VERTEX
  8
SURFACE
 62
7
  6
CONTINUOUS
 10
43.5158487247
 20
128.7336790288
  0
VERTEX
  8
SURFACE
 62
7
  6
CONTINUOUS
 10
43.5575058037
 20
128.7108247345
  0
VERTEX
  8
SURFACE
 62
7
  6
CONTINUOUS
 10
43.6005123049
 20
128.6906796965
  0
VERTEX
  8
SURFACE
 62
7
  6
CONTINUOUS
 10
43.6446944261
 20
128.6733224253
  0
VERTEX
  8
SURFACE
 62
7
  6
CONTINUOUS
 10
43.6898731681
 20
128.6588207387
  0
VERTEX
  8
SURFACE
 62
7
  6
CONTINUOUS
 10
43.7358660351
 20
128.6472310486
  0
VERTEX
  8
SURFACE
 62
7
  6
CONTINUOUS
 10
43.7824878224
 20
128.6385982578
  0
VERTEX
  8
SURFACE
 62
7
  6
CONTINUOUS
 10
43.8295481744
 20
128.632956009
  0
SEQEND
  0
LINE
  8
0
 62
7
  6
CONTINUOUS
 10
43.1478701455
 20
151.9524345142
 11
43.1478701455
 21
129.3804438651
  0
LINE
  8
DEFAULT_1
 62
7
  6
CENTER
 10
50.6478701455
 20
43.113220074
 11
50.6478701455
 21
238.2196583054
  0
LINE
  8
SURFACE
 62
7
  6
CONTINUOUS
 10
94.4678701455
 20
119.2164391897
 11
95.2478701134
 21
119.2164391897
  0
LINE
  8
SURFACE
 62
7
  6
CONTINUOUS
 10
56.1989079343
 20
127.5100170611
 11
63.1393875519
 21
48.1799720258
  0
LINE
  8
0
 62
7
  6
CONTINUOUS
 10
56.1989079343
 20
153.8228613183
 11
63.1393875519
 21
233.1529063535
  0
LINE
  8
SURFACE
 62
7
  6
CONTINUOUS
 10
87.8954613325
 20
127.4664391897
 11
84.5552870606
 21
127.4664391897
  0
LINE
  8
SURFACE
 62
7
  6
CONTINUOUS
 10
55.7008105853
 20
127.9664391897
 11
51.469700617
 21
127.9664391897
  0
LINE
  8
SURFACE
 62
7
  6
CONTINUOUS
 10
43.8296728664
 20
128.6329450881
 11
51.42612295
 21
127.9683418228
  0
LINE
  8
SURFACE
 62
7
  6
CONTINUOUS
 10
95.3350258286
 20
126.8201468117
 11
88.0000639053
 21
127.4618728274
  0
LINE
  8
DEFAULT_1
 62
7
  6
CENTER
 10
69.6978701455
 20
145.0664391897
 11
69.6978701455
 21
142.6665391897
  0
LINE
  8
0
 62
2
  6
CONTINUOUS
 10
69.6978701455
 20
141.5464391897
 11
69.6978701455
 21
139.7864391897
  0
LINE
  8
DEFAULT_1
 62
7
  6
CENTER
 10
69.6978701455
 20
136.2664391897
 11
69.6978701455
 21
138.6663391897
  0
LINE
  8
DEFAULT_1
 62
7
  6
CENTER
 10
74.0978701455
 20
140.6664391897
 11
71.6979701455
 21
140.6664391897
  0
LINE
  8
0
 62
2
  6
CONTINUOUS
 10
70.5778701455
 20
140.6664391897
 11
68.8178701455
 21
140.6664391897
  0
LINE
  8
DEFAULT_1
 62
7
  6
CENTER
 10
65.2978701455
 20
140.6664391897
 11
67.6977701455
 21
140.6664391897
  0
LINE
  8
SURFACE
 62
7
  6
CONTINUOUS
 10
84.055287742
 20
153.3664391897
 11
84.055287742
 21
127.9664391897
  0
LINE
  8
0
 62
7
  6
CONTINUOUS
 10
84.055287742
 20
153.3664391897
 11
84.055287742
 21
127.9664391897
  0
LINE
  8
0
 62
7
  6
CONTINUOUS
 10
95.3350258286
 20
154.5127315676
 11
88.0000639053
 21
153.871005552
  0
LINE
  8
0
 62
7
  6
CONTINUOUS
 10
51.469700617
 20
153.3664391897
 11
55.7008105853
 21
153.3664391897
  0
LINE
  8
0
 62
7
  6
CONTINUOUS
 10
87.8954613325
 20
153.8664391897
 11
84.5552870606
 21
153.8664391897
  0
LINE
  8
DEFAULT_1
 62
7
  6
CENTER
 10
88.7478701455
 20
43.113220074
 11
88.7478701455
 21
238.2196583054
  0
POLYLINE
  8
0
 62
7
  6
CONTINUOUS
 66
1
 70
0
  0
VERTEX
  8
0
 62
7
  6
CONTINUOUS
 10
43.8295754658
 20
152.6999247622
  0
VERTEX
  8
0
 62
7
  6
CONTINUOUS
 10
43.7826244076
 20
152.6943009202
  0
VERTEX
  8
0
 62
7
  6
CONTINUOUS
 10
43.7361096296
 20
152.6857004757
  0
VERTEX
  8
0
 62
7
  6
CONTINUOUS
 10
43.6902202423
 20
152.6741568724
  0
VERTEX
  8
0
 62
7
  6
CONTINUOUS
 10
43.6451398482
 20
152.6597145928
  0
VERTEX
  8
0
 62
7
  6
CONTINUOUS
 10
43.6010493882
 20
152.6424294426
  0
VERTEX
  8
0
 62
7
  6
CONTINUOUS
 10
43.5581267918
 20
152.6223686627
  0
VERTEX
  8
0
 62
7
  6
CONTINUOUS
 10
43.5165447387
 20
152.5996100674
  0
VERTEX
  8
0
 62
7
  6
CONTINUOUS
 10
43.4764724519
 20
152.5742430975
  0
VERTEX
  8
0
 62
7
  6
CONTINUOUS
 10
43.4380724968
 20
152.5463672962
  0
VERTEX
  8
0
 62
7
  6
CONTINUOUS
 10
43.4015014439
 20
152.5160927324
  0
VERTEX
  8
0
 62
7
  6
CONTINUOUS
 10
43.3669083642
 20
152.4835390178
  0
VERTEX
  8
0
 62
7
  6
CONTINUOUS
 10
43.3344343125
 20
152.4488347917
  0
VERTEX
  8
0
 62
7
  6
CONTINUOUS
 10
43.3042114926
 20
152.4121167394
  0
VERTEX
  8
0
 62
7
  6
CONTINUOUS
 10
43.2763647394
 20
152.373531602
  0
VERTEX
  8
0
 62
7
  6
CONTINUOUS
 10
43.2510083638
 20
152.3332326263
  0
VERTEX
  8
0
 62
7
  6
CONTINUOUS
 10
43.2282477785
 20
152.2913820832
  0
VERTEX
  8
0
 62
7
  6
CONTINUOUS
 10
43.2081765643
 20
152.248146645
  0
VERTEX
  8
0
 62
7
  6
CONTINUOUS
 10
43.1908793182
 20
152.2037036995
  0
VERTEX
  8
0
 62
7
  6
CONTINUOUS
 10
43.1764264487
 20
152.1582298573
  0
VERTEX
  8
0
 62
7
  6
CONTINUOUS
 10
43.1648807991
 20
152.1119229485
  0
VERTEX
  8
0
 62
7
  6
CONTINUOUS
 10
43.1562881863
 20
152.0649776243
  0
VERTEX
  8
0
 62
7
  6
CONTINUOUS
 10
43.1506807714
 20
152.0175996622
  0
VERTEX
  8
0
 62
7
  6
CONTINUOUS
 10
43.1480740845
 20
151.970002431
  0
VERTEX
  8
0
 62
7
  6
CONTINUOUS
 10
43.1478701459
 20
151.9524256746
  0
SEQEND
  0
LINE
  8
0
 62
7
  6
CONTINUOUS
 10
43.8296728664
 20
152.6999332913
 11
51.42612295
 21
153.3645365566
  0
LINE
  8
0
 62
7
  6
CONTINUOUS
 10
93.9678701455
 20
232.8914391897
 11
93.9678701455
 21
162.6164391897
  0
LINE
  8
SURFACE
 62
7
  6
CONTINUOUS
 10
93.9678701455
 20
118.7164391897
 11
93.9678701455
 21
48.4414391897
  0
LINE
  8
SURFACE
 62
7
  6
CONTINUOUS
 10
96.2478701455
 20
120.2164391897
 11
96.2478701455
 21
125.8239982531
  0
LINE
  8
0
 62
7
  6
CONTINUOUS
 10
96.2478701455
 20
155.5088801263
 11
96.2478701455
 21
161.1164391897
  0
LINE
  8
0
 62
7
  6
CONTINUOUS
 10
94.4678701455
 20
162.1164391897
 11
95.2478701134
 21
162.1164391897
  0
LINE
  8
0
 62
7
  6
CONTINUOUS
 10
66.1279716027
 20
235.8914391897
 11
90.9678701455
 21
235.8914391897
  0
LINE
  8
SURFACE
 62
7
  6
CONTINUOUS
 10
165.0478609839
 20
45.4414391897
 11
168.0278855006
 21
45.4414391897
  0
LINE
  8
SURFACE
 62
7
  6
CONTINUOUS
 10
150.1478609839
 20
109.9164391897
 11
152.1478609839
 21
109.9164391897
  0
LINE
  8
SURFACE
 62
7
  6
CONTINUOUS
 10
153.5605675717
 20
119.2164391897
 11
164.5478609839
 21
119.2164391897
  0
POLYLINE
  8
0
 62
7
  6
CONTINUOUS
 66
1
 70
0
  0
VERTEX
  8
0
 62
7
  6
CONTINUOUS
 10
154.4436604163
 20
153.1780538554
  0
VERTEX
  8
0
 62
7
  6
CONTINUOUS
 10
154.4393119229
 20
153.1749060708
  0
VERTEX
  8
0
 62
7
  6
CONTINUOUS
 10
154.4349901083
 20
153.1717421422
  0
VERTEX
  8
0
 62
7
  6
CONTINUOUS
 10
154.4306949826
 20
153.1685623172
  0
VERTEX
  8
0
 62
7
  6
CONTINUOUS
 10
154.426426554
 20
153.1653668427
  0
VERTEX
  8
0
 62
7
  6
CONTINUOUS
 10
154.4221848287
 20
153.1621559646
  0
VERTEX
  8
0
 62
7
  6
CONTINUOUS
 10
154.4179698114
 20
153.1589299278
  0
VERTEX
  8
0
 62
7
  6
CONTINUOUS
 10
154.4137815044
 20
153.1556889765
  0
VERTEX
  8
0
 62
7
  6
CONTINUOUS
 10
154.4096199087
 20
153.1524333537
  0
VERTEX
  8
0
 62
7
  6
CONTINUOUS
 10
154.405485023
 20
153.1491633014
  0
VERTEX
  8
0
 62
7
  6
CONTINUOUS
 10
154.4013768446
 20
153.145879061
  0
VERTEX
  8
0
 62
7
  6
CONTINUOUS
 10
154.3972953688
 20
153.1425808726
  0
SEQEND
  0
POLYLINE
  8
0
 62
7
  6
CONTINUOUS
 66
1
 70
0
  0
VERTEX
  8
0
 62
7
  6
CONTINUOUS
 10
154.4979169251
 20
153.214476673
  0
VERTEX
  8
0
 62
7
  6
CONTINUOUS
 10
154.4932497919
 20
153.2115422544
  0
VERTEX
  8
0
 62
7
  6
CONTINUOUS
 10
154.4886090614
 20
153.2085886524
  0
VERTEX
  8
0
 62
7
  6
CONTINUOUS
 10
154.4839947678
 20
153.2056161248
  0
VERTEX
  8
0
 62
7
  6
CONTINUOUS
 10
154.4794069434
 20
153.2026249285
  0
VERTEX
  8
0
 62
7
  6
CONTINUOUS
 10
154.4748456181
 20
153.1996153196
  0
VERTEX
  8
0
 62
7
  6
CONTINUOUS
 10
154.4703108201
 20
153.1965875536
  0
VERTEX
  8
0
 62
7
  6
CONTINUOUS
 10
154.4658025754
 20
153.193541885
  0
VERTEX
  8
0
 62
7
  6
CONTINUOUS
 10
154.4613209077
 20
153.1904785676
  0
VERTEX
  8
0
 62
7
  6
CONTINUOUS
 10
154.456865839
 20
153.1873978542
  0
VERTEX
  8
0
 62
7
  6
CONTINUOUS
 10
154.4524373893
 20
153.1842999971
  0
VERTEX
  8
0
 62
7
  6
CONTINUOUS
 10
154.4480355765
 20
153.1811852473
  0
SEQEND
  0
POLYLINE
  8
0
 62
7
  6
CONTINUOUS
 66
1
 70
0
  0
VERTEX
  8
0
 62
7
  6
CONTINUOUS
 10
154.5509860007
 20
153.2454147551
  0
VERTEX
  8
0
 62
7
  6
CONTINUOUS
 10
154.5460313202
 20
153.2427085653
  0
VERTEX
  8
0
 62
7
  6
CONTINUOUS
 10
154.5411025215
 20
153.2399803112
  0
VERTEX
  8
0
 62
7
  6
CONTINUOUS
 10
154.5361996631
 20
153.2372302578
  0
VERTEX
  8
0
 62
7
  6
CONTINUOUS
 10
154.5313228013
 20
153.2344586699
  0
VERTEX
  8
0
 62
7
  6
CONTINUOUS
 10
154.52647199
 20
153.2316658113
  0
VERTEX
  8
0
 62
7
  6
CONTINUOUS
 10
154.521647281
 20
153.2288519452
  0
VERTEX
  8
0
 62
7
  6
CONTINUOUS
 10
154.5168487238
 20
153.2260173344
  0
VERTEX
  8
0
 62
7
  6
CONTINUOUS
 10
154.5120763656
 20
153.2231622408
  0
VERTEX
  8
0
 62
7
  6
CONTINUOUS
 10
154.5073302516
 20
153.2202869258
  0
VERTEX
  8
0
 62
7
  6
CONTINUOUS
 10
154.5026104245
 20
153.2173916499
  0
SEQEND
  0
POLYLINE
  8
0
 62
7
  6
CONTINUOUS
 66
1
 70
0
  0
VERTEX
  8
0
 62
7
  6
CONTINUOUS
 10
154.6124364502
 20
153.2760707507
  0
VERTEX
  8
0
 62
7
  6
CONTINUOUS
 10
154.6071766076
 20
153.2736502113
  0
VERTEX
  8
0
 62
7
  6
CONTINUOUS
 10
154.6019417603
 20
153.2712043848
  0
VERTEX
  8
0
 62
7
  6
CONTINUOUS
 10
154.5967319955
 20
153.2687335422
  0
VERTEX
  8
0
 62
7
  6
CONTINUOUS
 10
154.591547398
 20
153.2662379543
  0
VERTEX
  8
0
 62
7
  6
CONTINUOUS
 10
154.5863880499
 20
153.2637178914
  0
VERTEX
  8
0
 62
7
  6
CONTINUOUS
 10
154.5812540312
 20
153.2611736232
  0
VERTEX
  8
0
 62
7
  6
CONTINUOUS
 10
154.5761454193
 20
153.2586054191
  0
VERTEX
  8
0
 62
7
  6
CONTINUOUS
 10
154.571062289
 20
153.256013548
  0
VERTEX
  8
0
 62
7
  6
CONTINUOUS
 10
154.5660047129
 20
153.2533982785
  0
VERTEX
  8
0
 62
7
  6
CONTINUOUS
 10
154.5609727614
 20
153.2507598783
  0
SEQEND
  0
POLYLINE
  8
0
 62
7
  6
CONTINUOUS
 66
1
 70
0
  0
VERTEX
  8
0
 62
7
  6
CONTINUOUS
 10
154.6719169512
 20
153.300949868
  0
VERTEX
  8
0
 62
7
  6
CONTINUOUS
 10
154.666388638
 20
153.2988254723
  0
VERTEX
  8
0
 62
7
  6
CONTINUOUS
 10
154.6608841932
 20
153.2966727869
  0
VERTEX
  8
0
 62
7
  6
CONTINUOUS
 10
154.6554037323
 20
153.294492086
  0
VERTEX
  8
0
 62
7
  6
CONTINUOUS
 10
154.649947368
 20
153.2922836435
  0
VERTEX
  8
0
 62
7
  6
CONTINUOUS
 10
154.6445152103
 20
153.2900477331
  0
VERTEX
  8
0
 62
7
  6
CONTINUOUS
 10
154.639107367
 20
153.2877846286
  0
VERTEX
  8
0
 62
7
  6
CONTINUOUS
 10
154.6337239431
 20
153.2854946033
  0
VERTEX
  8
0
 62
7
  6
CONTINUOUS
 10
154.6283650409
 20
153.2831779302
  0
VERTEX
  8
0
 62
7
  6
CONTINUOUS
 10
154.6230307604
 20
153.2808348822
  0
VERTEX
  8
0
 62
7
  6
CONTINUOUS
 10
154.6177211985
 20
153.2784657316
  0
SEQEND
  0
POLYLINE
  8
0
 62
7
  6
CONTINUOUS
 66
1
 70
0
  0
VERTEX
  8
0
 62
7
  6
CONTINUOUS
 10
154.7342680455
 20
153.322372583
  0
VERTEX
  8
0
 62
7
  6
CONTINUOUS
 10
154.7284855596
 20
153.3205774966
  0
VERTEX
  8
0
 62
7
  6
CONTINUOUS
 10
154.7227254955
 20
153.3187510993
  0
VERTEX
  8
0
 62
7
  6
CONTINUOUS
 10
154.7169879986
 20
153.316893666
  0
VERTEX
  8
0
 62
7
  6
CONTINUOUS
 10
154.7112732111
 20
153.3150054712
  0
VERTEX
  8
0
 62
7
  6
CONTINUOUS
 10
154.7055812728
 20
153.3130867898
  0
VERTEX
  8
0
 62
7
  6
CONTINUOUS
 10
154.6999123205
 20
153.3111378965
  0
VERTEX
  8
0
 62
7
  6
CONTINUOUS
 10
154.6942664885
 20
153.3091590661
  0
VERTEX
  8
0
 62
7
  6
CONTINUOUS
 10
154.6886439082
 20
153.3071505734
  0
VERTEX
  8
0
 62
7
  6
CONTINUOUS
 10
154.6830447083
 20
153.305112693
  0
SEQEND
  0
LINE
  8
SURFACE
 62
7
  6
CONTINUOUS
 10
158.4337501802
 20
128.3304982845
 11
158.5622462042
 21
128.3425535736
  0
LINE
  8
SURFACE
 62
7
  6
CONTINUOUS
 10
158.5622462042
 20
128.3425535736
 11
158.7008510144
 21
128.3543845131
  0
LINE
  8
SURFACE
 62
7
  6
CONTINUOUS
 10
158.7008510144
 20
128.3543845131
 11
158.8498061947
 21
128.3659242852
  0
LINE
  8
SURFACE
 62
7
  6
CONTINUOUS
 10
158.8498061947
 20
128.3659242852
 11
159.0094711213
 21
128.3771118054
  0
LINE
  8
SURFACE
 62
7
  6
CONTINUOUS
 10
159.0094711213
 20
128.3771118054
 11
159.1801966239
 21
128.387878376
  0
LINE
  8
SURFACE
 62
7
  6
CONTINUOUS
 10
159.1801966239
 20
128.387878376
 11
159.3623216999
 21
128.3981481863
  0
LINE
  8
SURFACE
 62
7
  6
CONTINUOUS
 10
159.3623216999
 20
128.3981481863
 11
159.5561503109
 21
128.4078356893
  0
LINE
  8
SURFACE
 62
7
  6
CONTINUOUS
 10
159.5561503109
 20
128.4078356893
 11
159.7619769033
 21
128.4168480028
  0
LINE
  8
SURFACE
 62
7
  6
CONTINUOUS
 10
159.7619769033
 20
128.4168480028
 11
159.9800674137
 21
128.4250813193
  0
LINE
  8
SURFACE
 62
7
  6
CONTINUOUS
 10
159.9800674137
 20
128.4250813193
 11
160.2106132188
 21
128.4324207217
  0
LINE
  8
SURFACE
 62
7
  6
CONTINUOUS
 10
153.5501294913
 20
124.8653604946
 11
150.1216840356
 21
124.7755834908
  0
LINE
  8
SURFACE
 62
7
  6
CONTINUOUS
 10
160.2106132188
 20
128.4324207217
 11
160.4536991078
 21
128.4387373521
  0
LINE
  8
SURFACE
 62
7
  6
CONTINUOUS
 10
160.4536991078
 20
128.4387373521
 11
160.7092609374
 21
128.4438891782
  0
LINE
  8
SURFACE
 62
7
  6
CONTINUOUS
 10
160.7092609374
 20
128.4438891782
 11
160.9770754261
 21
128.4477215765
  0
LINE
  8
SURFACE
 62
7
  6
CONTINUOUS
 10
160.9770754261
 20
128.4477215765
 11
161.2567733803
 21
128.4500674655
  0
LINE
  8
SURFACE
 62
7
  6
CONTINUOUS
 10
161.2567733803
 20
128.4500674655
 11
161.5428609839
 21
128.4507588693
  0
LINE
  8
SURFACE
 62
7
  6
CONTINUOUS
 10
161.5428609839
 20
128.4507589156
 11
161.8114502817
 21
128.4499981926
  0
LINE
  8
SURFACE
 62
7
  6
CONTINUOUS
 10
161.8114502817
 20
128.4499981926
 11
162.0999641859
 21
128.4474739323
  0
LINE
  8
SURFACE
 62
7
  6
CONTINUOUS
 10
162.0999641859
 20
128.4474739323
 11
162.3757394173
 21
128.4433741339
  0
LINE
  8
SURFACE
 62
7
  6
CONTINUOUS
 10
162.3757394173
 20
128.4433741339
 11
162.6383816861
 21
128.4378820648
  0
POLYLINE
  8
SURFACE
 62
7
  6
CONTINUOUS
 66
1
 70
0
  0
VERTEX
  8
SURFACE
 62
7
  6
CONTINUOUS
 10
154.9994811059
 20
127.966841673
  0
VERTEX
  8
SURFACE
 62
7
  6
CONTINUOUS
 10
155.0066406485
 20
127.9666641364
  0
VERTEX
  8
SURFACE
 62
7
  6
CONTINUOUS
 10
155.0138144388
 20
127.9665376945
  0
VERTEX
  8
SURFACE
 62
7
  6
CONTINUOUS
 10
155.0209995317
 20
127.9664626549
  0
VERTEX
  8
SURFACE
 62
7
  6
CONTINUOUS
 10
168.5278609839
 20
127.9664391897
  0
SEQEND
  0
LINE
  8
SURFACE
 62
7
  6
CONTINUOUS
 10
162.6383816861
 20
128.4378820648
 11
162.8876602436
 21
128.4311673857
  0
POLYLINE
  8
SURFACE
 62
7
  6
CONTINUOUS
 66
1
 70
0
  0
VERTEX
  8
SURFACE
 62
7
  6
CONTINUOUS
 10
155.0278918183
 20
127.9664402803
  0
VERTEX
  8
SURFACE
 62
7
  6
CONTINUOUS
 10
154.9630371756
 20
127.9685457021
  0
VERTEX
  8
SURFACE
 62
7
  6
CONTINUOUS
 10
154.8983127093
 20
127.9748697074
  0
VERTEX
  8
SURFACE
 62
7
  6
CONTINUOUS
 10
154.8340160823
 20
127.9854125643
  0
VERTEX
  8
SURFACE
 62
7
  6
CONTINUOUS
 10
154.7703964778
 20
128.0001591747
  0
VERTEX
  8
SURFACE
 62
7
  6
CONTINUOUS
 10
154.7076671791
 20
128.0190966933
  0
VERTEX
  8
SURFACE
 62
7
  6
CONTINUOUS
 10
154.6462389402
 20
128.0421311491
  0
VERTEX
  8
SURFACE
 62
7
  6
CONTINUOUS
 10
154.5865008462
 20
128.0691213749
  0
VERTEX
  8
SURFACE
 62
7
  6
CONTINUOUS
 10
154.5286647646
 20
128.0999634984
  0
VERTEX
  8
SURFACE
 62
7
  6
CONTINUOUS
 10
154.4729818379
 20
128.1345233518
  0
VERTEX
  8
SURFACE
 62
7
  6
CONTINUOUS
 10
154.4196755666
 20
128.1726599562
  0
VERTEX
  8
SURFACE
 62
7
  6
CONTINUOUS
 10
154.3689553007
 20
128.2142313082
  0
VERTEX
  8
SURFACE
 62
7
  6
CONTINUOUS
 10
154.3210685002
 20
128.2590363803
  0
VERTEX
  8
SURFACE
 62
7
  6
CONTINUOUS
 10
154.2762506178
 20
128.3068520644
  0
VERTEX
  8
SURFACE
 62
7
  6
CONTINUOUS
 10
154.2346577126
 20
128.3575025258
  0
VERTEX
  8
SURFACE
 62
7
  6
CONTINUOUS
 10
154.1964332958
 20
128.4108286681
  0
VERTEX
  8
SURFACE
 62
7
  6
CONTINUOUS
 10
154.1618034646
 20
128.4665173142
  0
VERTEX
  8
SURFACE
 62
7
  6
CONTINUOUS
 10
154.1309681348
 20
128.5242170028
  0
VERTEX
  8
SURFACE
 62
7
  6
CONTINUOUS
 10
154.1039834218
 20
128.5837751255
  0
VERTEX
  8
SURFACE
 62
7
  6
CONTINUOUS
 10
154.0809296952
 20
128.6450287255
  0
VERTEX
  8
SURFACE
 62
7
  6
CONTINUOUS
 10
154.0619268747
 20
128.7076778466
  0
VERTEX
  8
SURFACE
 62
7
  6
CONTINUOUS
 10
154.047064719
 20
128.7714410142
  0
VERTEX
  8
SURFACE
 62
7
  6
CONTINUOUS
 10
154.0364079564
 20
128.8360028448
  0
VERTEX
  8
SURFACE
 62
7
  6
CONTINUOUS
 10
154.0300045823
 20
128.9010655593
  0
VERTEX
  8
SURFACE
 62
7
  6
CONTINUOUS
 10
154.0278609839
 20
128.9664692204
  0
SEQEND
  0
LINE
  8
SURFACE
 62
7
  6
CONTINUOUS
 10
162.8876602436
 20
128.4311673857
 11
163.1235327053
 21
128.4233845122
  0
LINE
  8
SURFACE
 62
7
  6
CONTINUOUS
 10
163.1235327053
 20
128.4233845122
 11
163.3461146058
 21
128.4146733167
  0
POLYLINE
  8
SURFACE
 62
7
  6
CONTINUOUS
 66
1
 70
0
  0
VERTEX
  8
SURFACE
 62
7
  6
CONTINUOUS
 10
163.3461146058
 20
128.4146733167
  0
VERTEX
  8
SURFACE
 62
7
  6
CONTINUOUS
 10
163.5556374502
 20
128.4051581036
  0
VERTEX
  8
SURFACE
 62
7
  6
CONTINUOUS
 10
163.6555977047
 20
128.4001342619
  0
SEQEND
  0
POLYLINE
  8
SURFACE
 62
7
  6
CONTINUOUS
 66
1
 70
0
  0
VERTEX
  8
SURFACE
 62
7
  6
CONTINUOUS
 10
154.9358125529
 20
127.9706836926
  0
VERTEX
  8
SURFACE
 62
7
  6
CONTINUOUS
 10
154.9428160686
 20
127.970061176
  0
VERTEX
  8
SURFACE
 62
7
  6
CONTINUOUS
 10
154.9498380181
 20
127.969486804
  0
VERTEX
  8
SURFACE
 62
7
  6
CONTINUOUS
 10
154.9568780848
 20
127.9689609053
  0
VERTEX
  8
SURFACE
 62
7
  6
CONTINUOUS
 10
154.9639359417
 20
127.9684838076
  0
VERTEX
  8
SURFACE
 62
7
  6
CONTINUOUS
 10
154.9710112751
 20
127.9680558362
  0
VERTEX
  8
SURFACE
 62
7
  6
CONTINUOUS
 10
154.9781037468
 20
127.967677316
  0
VERTEX
  8
SURFACE
 62
7
  6
CONTINUOUS
 10
154.9852130767
 20
127.967348568
  0
VERTEX
  8
SURFACE
 62
7
  6
CONTINUOUS
 10
154.992338869
 20
127.9670699168
  0
SEQEND
  0
POLYLINE
  8
SURFACE
 62
7
  6
CONTINUOUS
 66
1
 70
0
  0
VERTEX
  8
SURFACE
 62
7
  6
CONTINUOUS
 10
154.8941960821
 20
127.9754112256
  0
VERTEX
  8
SURFACE
 62
7
  6
CONTINUOUS
 10
154.9010824633
 20
127.9745068294
  0
VERTEX
  8
SURFACE
 62
7
  6
CONTINUOUS
 10
154.9079891242
 20
127.9736485746
  0
VERTEX
  8
SURFACE
 62
7
  6
CONTINUOUS
 10
154.9149157675
 20
127.9728367983
  0
VERTEX
  8
SURFACE
 62
7
  6
CONTINUOUS
 10
154.9218620911
 20
127.9720718363
  0
VERTEX
  8
SURFACE
 62
7
  6
CONTINUOUS
 10
154.9288277897
 20
127.9713540233
  0
SEQEND
  0
POLYLINE
  8
SURFACE
 62
7
  6
CONTINUOUS
 66
1
 70
0
  0
VERTEX
  8
SURFACE
 62
7
  6
CONTINUOUS
 10
154.8736615323
 20
127.9783978721
  0
VERTEX
  8
SURFACE
 62
7
  6
CONTINUOUS
 10
154.8804853294
 20
127.977357087
  0
VERTEX
  8
SURFACE
 62
7
  6
CONTINUOUS
 10
154.8873302744
 20
127.9763614246
  0
VERTEX
  8
SURFACE
 62
7
  6
CONTINUOUS
 10
154.8941960821
 20
127.9754112256
  0
SEQEND
  0
POLYLINE
  8
SURFACE
 62
7
  6
CONTINUOUS
 66
1
 70
0
  0
VERTEX
  8
SURFACE
 62
7
  6
CONTINUOUS
 10
154.8066464176
 20
127.9912118218
  0
VERTEX
  8
SURFACE
 62
7
  6
CONTINUOUS
 10
154.8132439783
 20
127.9897387586
  0
VERTEX
  8
SURFACE
 62
7
  6
CONTINUOUS
 10
154.8198653072
 20
127.9883073602
  0
VERTEX
  8
SURFACE
 62
7
  6
CONTINUOUS
 10
154.826510161
 20
127.9869179758
  0
VERTEX
  8
SURFACE
 62
7
  6
CONTINUOUS
 10
154.8331782925
 20
127.9855709542
  0
VERTEX
  8
SURFACE
 62
7
  6
CONTINUOUS
 10
154.8398694501
 20
127.9842666433
  0
VERTEX
  8
SURFACE
 62
7
  6
CONTINUOUS
 10
154.846583378
 20
127.9830053902
  0
VERTEX
  8
SURFACE
 62
7
  6
CONTINUOUS
 10
154.8533198164
 20
127.9817875415
  0
VERTEX
  8
SURFACE
 62
7
  6
CONTINUOUS
 10
154.8600785011
 20
127.9806134426
  0
SEQEND
  0
POLYLINE
  8
SURFACE
 62
7
  6
CONTINUOUS
 66
1
 70
0
  0
VERTEX
  8
SURFACE
 62
7
  6
CONTINUOUS
 10
154.7420286278
 20
128.0081567617
  0
VERTEX
  8
SURFACE
 62
7
  6
CONTINUOUS
 10
154.7483760331
 20
128.0062863832
  0
VERTEX
  8
SURFACE
 62
7
  6
CONTINUOUS
 10
154.7547494135
 20
128.0044541482
  0
VERTEX
  8
SURFACE
 62
7
  6
CONTINUOUS
 10
154.7611485666
 20
128.0026604103
  0
VERTEX
  8
SURFACE
 62
7
  6
CONTINUOUS
 10
154.7675732858
 20
128.0009055232
  0
VERTEX
  8
SURFACE
 62
7
  6
CONTINUOUS
 10
154.7740233606
 20
127.9991898402
  0
VERTEX
  8
SURFACE
 62
7
  6
CONTINUOUS
 10
154.7804985765
 20
127.997513714
  0
VERTEX
  8
SURFACE
 62
7
  6
CONTINUOUS
 10
154.7869987148
 20
127.9958774972
  0
VERTEX
  8
SURFACE
 62
7
  6
CONTINUOUS
 10
154.7935235529
 20
127.994281542
  0
VERTEX
  8
SURFACE
 62
7
  6
CONTINUOUS
 10
154.8000728641
 20
127.9927261998
  0
SEQEND
  0
POLYLINE
  8
SURFACE
 62
7
  6
CONTINUOUS
 66
1
 70
0
  0
VERTEX
  8
SURFACE
 62
7
  6
CONTINUOUS
 10
154.6800249403
 20
128.0288804777
  0
VERTEX
  8
SURFACE
 62
7
  6
CONTINUOUS
 10
154.6861023218
 20
128.0266481575
  0
VERTEX
  8
SURFACE
 62
7
  6
CONTINUOUS
 10
154.6922074879
 20
128.0244504358
  0
VERTEX
  8
SURFACE
 62
7
  6
CONTINUOUS
 10
154.698340275
 20
128.0222876673
  0
VERTEX
  8
SURFACE
 62
7
  6
CONTINUOUS
 10
154.7045005158
 20
128.0201602064
  0
VERTEX
  8
SURFACE
 62
7
  6
CONTINUOUS
 10
154.7106880389
 20
128.0180684079
  0
VERTEX
  8
SURFACE
 62
7
  6
CONTINUOUS
 10
154.7169026694
 20
128.0160126263
  0
VERTEX
  8
SURFACE
 62
7
  6
CONTINUOUS
 10
154.7231442283
 20
128.0139932163
  0
VERTEX
  8
SURFACE
 62
7
  6
CONTINUOUS
 10
154.7294125328
 20
128.0120105326
  0
VERTEX
  8
SURFACE
 62
7
  6
CONTINUOUS
 10
154.7357073961
 20
128.0100649296
  0
SEQEND
  0
POLYLINE
  8
SURFACE
 62
7
  6
CONTINUOUS
 66
1
 70
0
  0
VERTEX
  8
SURFACE
 62
7
  6
CONTINUOUS
 10
154.620812598
 20
128.0530287502
  0
VERTEX
  8
SURFACE
 62
7
  6
CONTINUOUS
 10
154.6266039554
 20
128.0504698967
  0
VERTEX
  8
SURFACE
 62
7
  6
CONTINUOUS
 10
154.6324245292
 20
128.0479421092
  0
VERTEX
  8
SURFACE
 62
7
  6
CONTINUOUS
 10
154.6382741929
 20
128.0454457395
  0
VERTEX
  8
SURFACE
 62
7
  6
CONTINUOUS
 10
154.644152816
 20
128.0429811396
  0
VERTEX
  8
SURFACE
 62
7
  6
CONTINUOUS
 10
154.6500602644
 20
128.0405486624
  0
VERTEX
  8
SURFACE
 62
7
  6
CONTINUOUS
 10
154.6559964005
 20
128.0381486606
  0
VERTEX
  8
SURFACE
 62
7
  6
CONTINUOUS
 10
154.6619610829
 20
128.0357814876
  0
VERTEX
  8
SURFACE
 62
7
  6
CONTINUOUS
 10
154.6679541667
 20
128.0334474969
  0
VERTEX
  8
SURFACE
 62
7
  6
CONTINUOUS
 10
154.6739755032
 20
128.0311470423
  0
SEQEND
  0
POLYLINE
  8
SURFACE
 62
7
  6
CONTINUOUS
 66
1
 70
0
  0
VERTEX
  8
SURFACE
 62
7
  6
CONTINUOUS
 10
154.5590686827
 20
128.0831263965
  0
VERTEX
  8
SURFACE
 62
7
  6
CONTINUOUS
 10
154.5645312968
 20
128.0802488847
  0
VERTEX
  8
SURFACE
 62
7
  6
CONTINUOUS
 10
154.5700242913
 20
128.0773986053
  0
VERTEX
  8
SURFACE
 62
7
  6
CONTINUOUS
 10
154.5755475773
 20
128.0745759037
  0
VERTEX
  8
SURFACE
 62
7
  6
CONTINUOUS
 10
154.5811010628
 20
128.0717811258
  0
VERTEX
  8
SURFACE
 62
7
  6
CONTINUOUS
 10
154.5866846524
 20
128.0690146184
  0
VERTEX
  8
SURFACE
 62
7
  6
CONTINUOUS
 10
154.592298247
 20
128.0662767288
  0
VERTEX
  8
SURFACE
 62
7
  6
CONTINUOUS
 10
154.5979417446
 20
128.0635678051
  0
VERTEX
  8
SURFACE
 62
7
  6
CONTINUOUS
 10
154.6036150393
 20
128.0608881959
  0
VERTEX
  8
SURFACE
 62
7
  6
CONTINUOUS
 10
154.6093180222
 20
128.0582382504
  0
SEQEND
  0
POLYLINE
  8
SURFACE
 62
7
  6
CONTINUOUS
 66
1
 70
0
  0
VERTEX
  8
SURFACE
 62
7
  6
CONTINUOUS
 10
154.5061306621
 20
128.1133239095
  0
VERTEX
  8
SURFACE
 62
7
  6
CONTINUOUS
 10
154.5112853048
 20
128.1101928855
  0
VERTEX
  8
SURFACE
 62
7
  6
CONTINUOUS
 10
154.5164710378
 20
128.1070856866
  0
VERTEX
  8
SURFACE
 62
7
  6
CONTINUOUS
 10
154.5216878044
 20
128.1040026495
  0
VERTEX
  8
SURFACE
 62
7
  6
CONTINUOUS
 10
154.5269355446
 20
128.1009441118
  0
VERTEX
  8
SURFACE
 62
7
  6
CONTINUOUS
 10
154.5322141954
 20
128.0979104121
  0
VERTEX
  8
SURFACE
 62
7
  6
CONTINUOUS
 10
154.5375236907
 20
128.0949018899
  0
VERTEX
  8
SURFACE
 62
7
  6
CONTINUOUS
 10
154.5428639612
 20
128.0919188855
  0
VERTEX
  8
SURFACE
 62
7
  6
CONTINUOUS
 10
154.5482349343
 20
128.0889617403
  0
VERTEX
  8
SURFACE
 62
7
  6
CONTINUOUS
 10
154.5536365345
 20
128.0860307963
  0
SEQEND
  0
POLYLINE
  8
SURFACE
 62
7
  6
CONTINUOUS
 66
1
 70
0
  0
VERTEX
  8
SURFACE
 62
7
  6
CONTINUOUS
 10
154.4514947913
 20
128.1492423764
  0
VERTEX
  8
SURFACE
 62
7
  6
CONTINUOUS
 10
154.4563045478
 20
128.1458711983
  0
VERTEX
  8
SURFACE
 62
7
  6
CONTINUOUS
 10
154.4611458231
 20
128.1425202119
  0
VERTEX
  8
SURFACE
 62
7
  6
CONTINUOUS
 10
154.4660185927
 20
128.1391897417
  0
VERTEX
  8
SURFACE
 62
7
  6
CONTINUOUS
 10
154.4709228293
 20
128.1358801137
  0
VERTEX
  8
SURFACE
 62
7
  6
CONTINUOUS
 10
154.4758585026
 20
128.1325916548
  0
VERTEX
  8
SURFACE
 62
7
  6
CONTINUOUS
 10
154.4808255798
 20
128.1293246932
  0
VERTEX
  8
SURFACE
 62
7
  6
CONTINUOUS
 10
154.4858240247
 20
128.1260795583
  0
VERTEX
  8
SURFACE
 62
7
  6
CONTINUOUS
 10
154.4908537987
 20
128.1228565804
  0
VERTEX
  8
SURFACE
 62
7
  6
CONTINUOUS
 10
154.4959148599
 20
128.1196560911
  0
SEQEND
  0
LINE
  8
SURFACE
 62
7
  6
CONTINUOUS
 10
149.1478609839
 20
123.7759261658
 11
149.1478609839
 21
110.9164391897
  0
LINE
  8
0
 62
7
  6
CONTINUOUS
 10
149.1478609839
 20
157.5569522136
 11
149.1478609839
 21
170.4164391897
  0
LINE
  8
0
 62
7
  6
CONTINUOUS
 10
154.0439545736
 20
152.545133704
 11
154.0429418236
 21
152.5394643303
  0
LINE
  8
0
 62
7
  6
CONTINUOUS
 10
154.045011243
 20
152.550857309
 11
154.0439545736
 21
152.545133704
  0
LINE
  8
0
 62
7
  6
CONTINUOUS
 10
154.0461128624
 20
152.5566348373
 11
154.045011243
 21
152.550857309
  0
LINE
  8
0
 62
7
  6
CONTINUOUS
 10
154.0472604686
 20
152.562465949
 11
154.0461128624
 21
152.5566348373
  0
LINE
  8
0
 62
7
  6
CONTINUOUS
 10
154.048455107
 20
152.5683502892
 11
154.0472604686
 21
152.562465949
  0
LINE
  8
0
 62
7
  6
CONTINUOUS
 10
154.0496978321
 20
152.5742874879
 11
154.048455107
 21
152.5683502892
  0
LINE
  8
0
 62
7
  6
CONTINUOUS
 10
154.0509897067
 20
152.5802771598
 11
154.0496978321
 21
152.5742874879
  0
LINE
  8
0
 62
7
  6
CONTINUOUS
 10
154.0523318023
 20
152.5863189034
 11
154.0509897067
 21
152.5802771598
  0
LINE
  8
0
 62
7
  6
CONTINUOUS
 10
154.0537251985
 20
152.5924123015
 11
154.0523318023
 21
152.5863189034
  0
LINE
  8
0
 62
7
  6
CONTINUOUS
 10
154.0566702513
 20
152.604752308
 11
154.055170983
 21
152.5985569199
  0
LINE
  8
0
 62
7
  6
CONTINUOUS
 10
154.0582241067
 20
152.6109979979
 11
154.0566702513
 21
152.604752308
  0
LINE
  8
0
 62
7
  6
CONTINUOUS
 10
154.0598336599
 20
152.617293504
 11
154.0582241067
 21
152.6109979979
  0
LINE
  8
0
 62
7
  6
CONTINUOUS
 10
154.0615000289
 20
152.6236383231
 11
154.0598336599
 21
152.617293504
  0
LINE
  8
0
 62
7
  6
CONTINUOUS
 10
154.0632243389
 20
152.6300319342
 11
154.0615000289
 21
152.6236383231
  0
LINE
  8
0
 62
7
  6
CONTINUOUS
 10
154.0650077253
 20
152.6364738102
 11
154.0632243389
 21
152.6300319342
  0
LINE
  8
0
 62
7
  6
CONTINUOUS
 10
154.0668512904
 20
152.6429632658
 11
154.0650077253
 21
152.6364738102
  0
LINE
  8
0
 62
7
  6
CONTINUOUS
 10
154.0687560394
 20
152.6494992586
 11
154.0668512904
 21
152.6429632658
  0
LINE
  8
0
 62
7
  6
CONTINUOUS
 10
154.0707229166
 20
152.6560805516
 11
154.0687560394
 21
152.6494992586
  0
LINE
  8
0
 62
7
  6
CONTINUOUS
 10
154.0737917653
 20
152.6660347093
 11
154.071729946
 21
152.6593877981
  0
LINE
  8
0
 62
7
  6
CONTINUOUS
 10
154.0759180277
 20
152.6727237918
 11
154.0737917653
 21
152.6660347093
  0
LINE
  8
0
 62
7
  6
CONTINUOUS
 10
154.0781096367
 20
152.6794537697
 11
154.0759180277
 21
152.6727237918
  0
LINE
  8
0
 62
7
  6
CONTINUOUS
 10
154.0803674818
 20
152.686223353
 11
154.0781096367
 21
152.6794537697
  0
LINE
  8
0
 62
7
  6
CONTINUOUS
 10
154.0826924382
 20
152.693031238
 11
154.0803674818
 21
152.686223353
  0
LINE
  8
0
 62
7
  6
CONTINUOUS
 10
154.0850853661
 20
152.6998761072
 11
154.0826924382
 21
152.693031238
  0
LINE
  8
0
 62
7
  6
CONTINUOUS
 10
154.0875471105
 20
152.7067566295
 11
154.0850853661
 21
152.6998761072
  0
LINE
  8
0
 62
7
  6
CONTINUOUS
 10
154.0900785002
 20
152.7136714602
 11
154.0875471105
 21
152.7067566295
  0
LINE
  8
0
 62
7
  6
CONTINUOUS
 10
154.0967169587
 20
152.7310996856
 11
154.0940079422
 21
152.7241050611
  0
LINE
  8
0
 62
7
  6
CONTINUOUS
 10
154.0994984039
 20
152.738123849
 11
154.0967169587
 21
152.7310996856
  0
LINE
  8
0
 62
7
  6
CONTINUOUS
 10
154.1023531638
 20
152.745176477
 11
154.0994984039
 21
152.738123849
  0
LINE
  8
0
 62
7
  6
CONTINUOUS
 10
154.1052822111
 20
152.7522567073
 11
154.1023531638
 21
152.745176477
  0
LINE
  8
0
 62
7
  6
CONTINUOUS
 10
154.1082865209
 20
152.7593636683
 11
154.1052822111
 21
152.7522567073
  0
LINE
  8
0
 62
7
  6
CONTINUOUS
 10
154.1113670646
 20
152.766496465
 11
154.1082865209
 21
152.7593636683
  0
LINE
  8
0
 62
7
  6
CONTINUOUS
 10
154.1145248108
 20
152.7736541823
 11
154.1113670646
 21
152.766496465
  0
LINE
  8
0
 62
7
  6
CONTINUOUS
 10
154.1227632677
 20
152.7916513172
 11
154.1194082968
 21
152.7844354336
  0
LINE
  8
0
 62
7
  6
CONTINUOUS
 10
154.1261988065
 20
152.7988887596
 11
154.1227632677
 21
152.7916513172
  0
LINE
  8
0
 62
7
  6
CONTINUOUS
 10
154.129715866
 20
152.8061467538
 11
154.1261988065
 21
152.7988887596
  0
LINE
  8
0
 62
7
  6
CONTINUOUS
 10
154.1333153945
 20
152.813424272
 11
154.129715866
 21
152.8061467538
  0
LINE
  8
0
 62
7
  6
CONTINUOUS
 10
154.1369983351
 20
152.8207202652
 11
154.1333153945
 21
152.813424272
  0
LINE
  8
0
 62
7
  6
CONTINUOUS
 10
154.1407656258
 20
152.8280336631
 11
154.1369983351
 21
152.8207202652
  0
LINE
  8
0
 62
7
  6
CONTINUOUS
 10
154.1446181987
 20
152.8353633743
 11
154.1407656258
 21
152.8280336631
  0
LINE
  8
0
 62
7
  6
CONTINUOUS
 10
154.1525828882
 20
152.8500672611
 11
154.1485569797
 21
152.8427082853
  0
LINE
  8
0
 62
7
  6
CONTINUOUS
 10
154.1566968365
 20
152.857439145
 11
154.1525828882
 21
152.8500672611
  0
LINE
  8
0
 62
7
  6
CONTINUOUS
 10
154.1608997296
 20
152.8648227579
 11
154.1566968365
 21
152.857439145
  0
LINE
  8
0
 62
7
  6
CONTINUOUS
 10
154.1651924644
 20
152.8722168987
 11
154.1608997296
 21
152.8648227579
  0
LINE
  8
0
 62
7
  6
CONTINUOUS
 10
154.1695759295
 20
152.879620344
 11
154.1651924644
 21
152.8722168987
  0
LINE
  8
0
 62
7
  6
CONTINUOUS
 10
154.1740510049
 20
152.8870318481
 11
154.1695759295
 21
152.879620344
  0
LINE
  8
0
 62
7
  6
CONTINUOUS
 10
154.1786185612
 20
152.8944501424
 11
154.1740510049
 21
152.8870318481
  0
POLYLINE
  8
0
 62
7
  6
CONTINUOUS
 66
1
 70
0
  0
VERTEX
  8
0
 62
7
  6
CONTINUOUS
 10
154.2132497796
 20
152.9464540392
  0
VERTEX
  8
0
 62
7
  6
CONTINUOUS
 10
154.210618897
 20
152.942741183
  0
VERTEX
  8
0
 62
7
  6
CONTINUOUS
 10
154.2080125242
 20
152.939027257
  0
VERTEX
  8
0
 62
7
  6
CONTINUOUS
 10
154.2054305856
 20
152.935312468
  0
VERTEX
  8
0
 62
7
  6
CONTINUOUS
 10
154.2028730043
 20
152.9315970217
  0
VERTEX
  8
0
 62
7
  6
CONTINUOUS
 10
154.2003397024
 20
152.9278811228
  0
VERTEX
  8
0
 62
7
  6
CONTINUOUS
 10
154.1978306004
 20
152.924164975
  0
VERTEX
  8
0
 62
7
  6
CONTINUOUS
 10
154.1953456181
 20
152.9204487814
  0
VERTEX
  8
0
 62
7
  6
CONTINUOUS
 10
154.1928846719
 20
152.9167327413
  0
VERTEX
  8
0
 62
7
  6
CONTINUOUS
 10
154.1904476831
 20
152.9130170616
  0
VERTEX
  8
0
 62
7
  6
CONTINUOUS
 10
154.1880345497
 20
152.9093019148
  0
VERTEX
  8
0
 62
7
  6
CONTINUOUS
 10
154.1856451777
 20
152.9055874852
  0
VERTEX
  8
0
 62
7
  6
CONTINUOUS
 10
154.1832794592
 20
152.9018739359
  0
VERTEX
  8
0
 62
7
  6
CONTINUOUS
 10
154.1809372891
 20
152.8981614333
  0
SEQEND
  0
POLYLINE
  8
0
 62
7
  6
CONTINUOUS
 66
1
 70
0
  0
VERTEX
  8
0
 62
7
  6
CONTINUOUS
 10
154.2526946164
 20
152.9982033962
  0
VERTEX
  8
0
 62
7
  6
CONTINUOUS
 10
154.249713456
 20
152.9945278136
  0
VERTEX
  8
0
 62
7
  6
CONTINUOUS
 10
154.2467577134
 20
152.9908481579
  0
VERTEX
  8
0
 62
7
  6
CONTINUOUS
 10
154.2438273334
 20
152.9871646501
  0
VERTEX
  8
0
 62
7
  6
CONTINUOUS
 10
154.2409222594
 20
152.9834775101
  0
VERTEX
  8
0
 62
7
  6
CONTINUOUS
 10
154.2380424329
 20
152.979786957
  0
VERTEX
  8
0
 62
7
  6
CONTINUOUS
 10
154.2351877941
 20
152.9760932089
  0
VERTEX
  8
0
 62
7
  6
CONTINUOUS
 10
154.2323582819
 20
152.9723964827
  0
VERTEX
  8
0
 62
7
  6
CONTINUOUS
 10
154.2295538333
 20
152.9686969945
  0
VERTEX
  8
0
 62
7
  6
CONTINUOUS
 10
154.2267743842
 20
152.9649949596
  0
VERTEX
  8
0
 62
7
  6
CONTINUOUS
 10
154.2240198687
 20
152.9612905918
  0
VERTEX
  8
0
 62
7
  6
CONTINUOUS
 10
154.2212902198
 20
152.9575841044
  0
VERTEX
  8
0
 62
7
  6
CONTINUOUS
 10
154.2185853689
 20
152.9538757093
  0
SEQEND
  0
POLYLINE
  8
0
 62
7
  6
CONTINUOUS
 66
1
 70
0
  0
VERTEX
  8
0
 62
7
  6
CONTINUOUS
 10
154.293784938
 20
153.045513122
  0
VERTEX
  8
0
 62
7
  6
CONTINUOUS
 10
154.2904690525
 20
153.0419110099
  0
VERTEX
  8
0
 62
7
  6
CONTINUOUS
 10
154.287179155
 20
153.0383018704
  0
VERTEX
  8
0
 62
7
  6
CONTINUOUS
 10
154.2839152118
 20
153.034685936
  0
VERTEX
  8
0
 62
7
  6
CONTINUOUS
 10
154.2806771875
 20
153.0310634381
  0
VERTEX
  8
0
 62
7
  6
CONTINUOUS
 10
154.2774650447
 20
153.0274346076
  0
VERTEX
  8
0
 62
7
  6
CONTINUOUS
 10
154.2742787446
 20
153.0237996743
  0
VERTEX
  8
0
 62
7
  6
CONTINUOUS
 10
154.2711182465
 20
153.0201588674
  0
VERTEX
  8
0
 62
7
  6
CONTINUOUS
 10
154.2679835082
 20
153.016512415
  0
VERTEX
  8
0
 62
7
  6
CONTINUOUS
 10
154.2648744856
 20
153.0128605444
  0
VERTEX
  8
0
 62
7
  6
CONTINUOUS
 10
154.2617911332
 20
153.0092034822
  0
VERTEX
  8
0
 62
7
  6
CONTINUOUS
 10
154.2587334038
 20
153.0055414538
  0
SEQEND
  0
POLYLINE
  8
0
 62
7
  6
CONTINUOUS
 66
1
 70
0
  0
VERTEX
  8
0
 62
7
  6
CONTINUOUS
 10
154.3429517442
 20
153.095073796
  0
VERTEX
  8
0
 62
7
  6
CONTINUOUS
 10
154.3392690805
 20
153.0915945186
  0
VERTEX
  8
0
 62
7
  6
CONTINUOUS
 10
154.3356128148
 20
153.0881049963
  0
VERTEX
  8
0
 62
7
  6
CONTINUOUS
 10
154.3319829146
 20
153.0846054515
  0
VERTEX
  8
0
 62
7
  6
CONTINUOUS
 10
154.3283793458
 20
153.0810961052
  0
VERTEX
  8
0
 62
7
  6
CONTINUOUS
 10
154.3248020731
 20
153.0775771777
  0
VERTEX
  8
0
 62
7
  6
CONTINUOUS
 10
154.3212510556
 20
153.0740488842
  0
VERTEX
  8
0
 62
7
  6
CONTINUOUS
 10
154.3177262667
 20
153.0705114543
  0
VERTEX
  8
0
 62
7
  6
CONTINUOUS
 10
154.3142276678
 20
153.0669651059
  0
VERTEX
  8
0
 62
7
  6
CONTINUOUS
 10
154.3107552447
 20
153.063410083
  0
VERTEX
  8
0
 62
7
  6
CONTINUOUS
 10
154.3073089742
 20
153.0598466212
  0
VERTEX
  8
0
 62
7
  6
CONTINUOUS
 10
154.3038888341
 20
153.0562749583
  0
VERTEX
  8
0
 62
7
  6
CONTINUOUS
 10
154.3004947995
 20
153.0526953306
  0
SEQEND
  0
POLYLINE
  8
0
 62
7
  6
CONTINUOUS
 66
1
 70
0
  0
VERTEX
  8
0
 62
7
  6
CONTINUOUS
 10
154.3892124972
 20
153.1359436075
  0
VERTEX
  8
0
 62
7
  6
CONTINUOUS
 10
154.3852110834
 20
153.1326050062
  0
VERTEX
  8
0
 62
7
  6
CONTINUOUS
 10
154.3812363359
 20
153.1292534077
  0
VERTEX
  8
0
 62
7
  6
CONTINUOUS
 10
154.3772882413
 20
153.1258890471
  0
VERTEX
  8
0
 62
7
  6
CONTINUOUS
 10
154.3733667847
 20
153.1225121586
  0
VERTEX
  8
0
 62
7
  6
CONTINUOUS
 10
154.3694719491
 20
153.1191229753
  0
VERTEX
  8
0
 62
7
  6
CONTINUOUS
 10
154.3656037164
 20
153.1157217292
  0
VERTEX
  8
0
 62
7
  6
CONTINUOUS
 10
154.3617620664
 20
153.1123086514
  0
VERTEX
  8
0
 62
7
  6
CONTINUOUS
 10
154.3579469776
 20
153.1088839717
  0
VERTEX
  8
0
 62
7
  6
CONTINUOUS
 10
154.3541584265
 20
153.1054479191
  0
VERTEX
  8
0
 62
7
  6
CONTINUOUS
 10
154.3503963885
 20
153.1020007213
  0
VERTEX
  8
0
 62
7
  6
CONTINUOUS
 10
154.3466608371
 20
153.098542605
  0
SEQEND
  0
POLYLINE
  8
0
 62
7
  6
CONTINUOUS
 66
1
 70
0
  0
VERTEX
  8
0
 62
7
  6
CONTINUOUS
 10
165.4414548987
 20
153.1331468259
  0
VERTEX
  8
0
 62
7
  6
CONTINUOUS
 10
165.4420273098
 20
153.1333996817
  0
VERTEX
  8
0
 62
7
  6
CONTINUOUS
 10
165.4413026564
 20
153.1331052252
  0
VERTEX
  8
0
 62
7
  6
CONTINUOUS
 10
165.4382109786
 20
153.1319200249
  0
VERTEX
  8
0
 62
7
  6
CONTINUOUS
 10
165.4328167715
 20
153.1299905841
  0
VERTEX
  8
0
 62
7
  6
CONTINUOUS
 10
165.4251347596
 20
153.1274228182
  0
VERTEX
  8
0
 62
7
  6
CONTINUOUS
 10
165.4152200994
 20
153.1243191923
  0
VERTEX
  8
0
 62
7
  6
CONTINUOUS
 10
165.4030688645
 20
153.1207493372
  0
VERTEX
  8
0
 62
7
  6
CONTINUOUS
 10
165.388708474
 20
153.1167820506
  0
VERTEX
  8
0
 62
7
  6
CONTINUOUS
 10
165.3721269008
 20
153.1124664527
  0
VERTEX
  8
0
 62
7
  6
CONTINUOUS
 10
165.3533328241
 20
153.107850774
  0
VERTEX
  8
0
 62
7
  6
CONTINUOUS
 10
165.3323038384
 20
153.1029701423
  0
VERTEX
  8
0
 62
7
  6
CONTINUOUS
 10
165.3090316763
 20
153.0978590125
  0
VERTEX
  8
0
 62
7
  6
CONTINUOUS
 10
165.2834885868
 20
153.0925440451
  0
VERTEX
  8
0
 62
7
  6
CONTINUOUS
 10
165.2556576209
 20
153.0870515156
  0
VERTEX
  8
0
 62
7
  6
CONTINUOUS
 10
165.2255110457
 20
153.0814031945
  0
VERTEX
  8
0
 62
7
  6
CONTINUOUS
 10
165.1930288333
 20
153.0756203661
  0
VERTEX
  8
0
 62
7
  6
CONTINUOUS
 10
165.1581794755
 20
153.0697205455
  0
VERTEX
  8
0
 62
7
  6
CONTINUOUS
 10
165.1209385854
 20
153.0637211021
  0
VERTEX
  8
0
 62
7
  6
CONTINUOUS
 10
165.0812755773
 20
153.0576372828
  0
VERTEX
  8
0
 62
7
  6
CONTINUOUS
 10
165.0391664496
 20
153.0514843839
  0
VERTEX
  8
0
 62
7
  6
CONTINUOUS
 10
164.9945807572
 20
153.0452758172
  0
VERTEX
  8
0
 62
7
  6
CONTINUOUS
 10
164.9474927105
 20
153.0390248577
  0
VERTEX
  8
0
 62
7
  6
CONTINUOUS
 10
164.8978747213
 20
153.032743878
  0
VERTEX
  8
0
 62
7
  6
CONTINUOUS
 10
164.8457059008
 20
153.026445668
  0
VERTEX
  8
0
 62
7
  6
CONTINUOUS
 10
164.7909615316
 20
153.0201419677
  0
VERTEX
  8
0
 62
7
  6
CONTINUOUS
 10
164.7336210115
 20
153.0138444454
  0
VERTEX
  8
0
 62
7
  6
CONTINUOUS
 10
164.6736638699
 20
153.0075642697
  0
VERTEX
  8
0
 62
7
  6
CONTINUOUS
 10
164.6110759992
 20
153.0013130823
  0
VERTEX
  8
0
 62
7
  6
CONTINUOUS
 10
164.5458422051
 20
152.9951020862
  0
SEQEND
  0
LINE
  8
SURFACE
 62
7
  6
CONTINUOUS
 10
163.6555977047
 20
128.4001342619
 11
163.8461171266
 21
128.3896181245
  0
LINE
  8
SURFACE
 62
7
  6
CONTINUOUS
 10
163.8461171266
 20
128.3896181245
 11
164.0243921334
 21
128.3785563358
  0
LINE
  8
SURFACE
 62
7
  6
CONTINUOUS
 10
164.0243921334
 20
128.3785563358
 11
164.1907992384
 21
128.3670335004
  0
LINE
  8
SURFACE
 62
7
  6
CONTINUOUS
 10
164.1907992384
 20
128.3670335004
 11
164.3457344669
 21
128.3551257097
  0
POLYLINE
  8
SURFACE
 62
7
  6
CONTINUOUS
 66
1
 70
0
  0
VERTEX
  8
SURFACE
 62
7
  6
CONTINUOUS
 10
164.3457344669
 20
128.3551257097
  0
VERTEX
  8
SURFACE
 62
7
  6
CONTINUOUS
 10
164.4896000077
 20
128.3429001154
  0
VERTEX
  8
SURFACE
 62
7
  6
CONTINUOUS
 10
164.5574688013
 20
128.3366909663
  0
VERTEX
  8
SURFACE
 62
7
  6
CONTINUOUS
 10
164.6226573109
 20
128.3304308593
  0
VERTEX
  8
SURFACE
 62
7
  6
CONTINUOUS
 10
164.6851679227
 20
128.324132024
  0
VERTEX
  8
SURFACE
 62
7
  6
CONTINUOUS
 10
164.7450141549
 20
128.317806176
  0
VERTEX
  8
SURFACE
 62
7
  6
CONTINUOUS
 10
164.802209558
 20
128.3114653415
  0
VERTEX
  8
SURFACE
 62
7
  6
CONTINUOUS
 10
164.8567739681
 20
128.3051211796
  0
VERTEX
  8
SURFACE
 62
7
  6
CONTINUOUS
 10
164.9087272616
 20
128.2987859398
  0
VERTEX
  8
SURFACE
 62
7
  6
CONTINUOUS
 10
164.9580938065
 20
128.2924719525
  0
VERTEX
  8
SURFACE
 62
7
  6
CONTINUOUS
 10
165.0048947064
 20
128.2861925568
  0
VERTEX
  8
SURFACE
 62
7
  6
CONTINUOUS
 10
165.0491587048
 20
128.2799605922
  0
VERTEX
  8
SURFACE
 62
7
  6
CONTINUOUS
 10
165.0909104928
 20
128.273790235
  0
VERTEX
  8
SURFACE
 62
7
  6
CONTINUOUS
 10
165.1301827901
 20
128.267695372
  0
VERTEX
  8
SURFACE
 62
7
  6
CONTINUOUS
 10
165.1669929553
 20
128.2616933022
  0
VERTEX
  8
SURFACE
 62
7
  6
CONTINUOUS
 10
165.2013695003
 20
128.2558007782
  0
VERTEX
  8
SURFACE
 62
7
  6
CONTINUOUS
 10
165.2333344753
 20
128.2500370047
  0
VERTEX
  8
SURFACE
 62
7
  6
CONTINUOUS
 10
165.262917657
 20
128.2444214954
  0
VERTEX
  8
SURFACE
 62
7
  6
CONTINUOUS
 10
165.2901425922
 20
128.2389767915
  0
VERTEX
  8
SURFACE
 62
7
  6
CONTINUOUS
 10
165.3150360431
 20
128.2337270022
  0
VERTEX
  8
SURFACE
 62
7
  6
CONTINUOUS
 10
165.3376339508
 20
128.2286965797
  0
VERTEX
  8
SURFACE
 62
7
  6
CONTINUOUS
 10
165.3579747409
 20
128.2239117592
  0
VERTEX
  8
SURFACE
 62
7
  6
CONTINUOUS
 10
165.3760847832
 20
128.2194044751
  0
VERTEX
  8
SURFACE
 62
7
  6
CONTINUOUS
 10
165.3920004187
 20
128.215207649
  0
VERTEX
  8
SURFACE
 62
7
  6
CONTINUOUS
 10
165.4057249801
 20
128.2113673007
  0
VERTEX
  8
SURFACE
 62
7
  6
CONTINUOUS
 10
165.4172812237
 20
128.2079299884
  0
VERTEX
  8
SURFACE
 62
7
  6
CONTINUOUS
 10
165.4266499373
 20
128.204962195
  0
VERTEX
  8
SURFACE
 62
7
  6
CONTINUOUS
 10
165.4338421411
 20
128.202530779
  0
VERTEX
  8
SURFACE
 62
7
  6
CONTINUOUS
 10
165.4388067154
 20
128.2007359979
  0
VERTEX
  8
SURFACE
 62
7
  6
CONTINUOUS
 10
165.4406082869
 20
128.2000472546
  0
SEQEND
  0
POLYLINE
  8
SURFACE
 62
7
  6
CONTINUOUS
 66
1
 70
0
  0
VERTEX
  8
SURFACE
 62
7
  6
CONTINUOUS
 10
154.3962413936
 20
128.1911549809
  0
VERTEX
  8
SURFACE
 62
7
  6
CONTINUOUS
 10
154.4006719972
 20
128.187566371
  0
VERTEX
  8
SURFACE
 62
7
  6
CONTINUOUS
 10
154.4051342044
 20
128.1839941555
  0
VERTEX
  8
SURFACE
 62
7
  6
CONTINUOUS
 10
154.4096280224
 20
128.1804386438
  0
VERTEX
  8
SURFACE
 62
7
  6
CONTINUOUS
 10
154.4141534558
 20
128.1769001462
  0
VERTEX
  8
SURFACE
 62
7
  6
CONTINUOUS
 10
154.4187105067
 20
128.1733789746
  0
VERTEX
  8
SURFACE
 62
7
  6
CONTINUOUS
 10
154.4232991748
 20
128.1698754422
  0
VERTEX
  8
SURFACE
 62
7
  6
CONTINUOUS
 10
154.427919457
 20
128.1663898635
  0
VERTEX
  8
SURFACE
 62
7
  6
CONTINUOUS
 10
154.4325713477
 20
128.1629225544
  0
VERTEX
  8
SURFACE
 62
7
  6
CONTINUOUS
 10
154.4372548387
 20
128.159473832
  0
VERTEX
  8
SURFACE
 62
7
  6
CONTINUOUS
 10
154.4419699191
 20
128.1560440149
  0
SEQEND
  0
POLYLINE
  8
SURFACE
 62
7
  6
CONTINUOUS
 66
1
 70
0
  0
VERTEX
  8
SURFACE
 62
7
  6
CONTINUOUS
 10
154.3495861194
 20
128.2316247543
  0
VERTEX
  8
SURFACE
 62
7
  6
CONTINUOUS
 10
154.3536702451
 20
128.2278757959
  0
VERTEX
  8
SURFACE
 62
7
  6
CONTINUOUS
 10
154.357785738
 20
128.2241399269
  0
VERTEX
  8
SURFACE
 62
7
  6
CONTINUOUS
 10
154.361932631
 20
128.2204174405
  0
VERTEX
  8
SURFACE
 62
7
  6
CONTINUOUS
 10
154.366110955
 20
128.2167086312
  0
VERTEX
  8
SURFACE
 62
7
  6
CONTINUOUS
 10
154.3703207383
 20
128.213013795
  0
VERTEX
  8
SURFACE
 62
7
  6
CONTINUOUS
 10
154.3745620074
 20
128.2093332295
  0
VERTEX
  8
SURFACE
 62
7
  6
CONTINUOUS
 10
154.378834786
 20
128.2056672338
  0
VERTEX
  8
SURFACE
 62
7
  6
CONTINUOUS
 10
154.3831390958
 20
128.2020161084
  0
VERTEX
  8
SURFACE
 62
7
  6
CONTINUOUS
 10
154.3874749562
 20
128.1983801552
  0
VERTEX
  8
SURFACE
 62
7
  6
CONTINUOUS
 10
154.3918423839
 20
128.1947596778
  0
SEQEND
  0
POLYLINE
  8
SURFACE
 62
7
  6
CONTINUOUS
 66
1
 70
0
  0
VERTEX
  8
SURFACE
 62
7
  6
CONTINUOUS
 10
154.3030088902
 20
128.2775280905
  0
VERTEX
  8
SURFACE
 62
7
  6
CONTINUOUS
 10
154.3067196811
 20
128.2736446418
  0
VERTEX
  8
SURFACE
 62
7
  6
CONTINUOUS
 10
154.3104613871
 20
128.2697707709
  0
VERTEX
  8
SURFACE
 62
7
  6
CONTINUOUS
 10
154.3142340395
 20
128.2659067825
  0
VERTEX
  8
SURFACE
 62
7
  6
CONTINUOUS
 10
154.3180376647
 20
128.2620529846
  0
VERTEX
  8
SURFACE
 62
7
  6
CONTINUOUS
 10
154.3218722965
 20
128.2582096762
  0
VERTEX
  8
SURFACE
 62
7
  6
CONTINUOUS
 10
154.3257379541
 20
128.2543771693
  0
VERTEX
  8
SURFACE
 62
7
  6
CONTINUOUS
 10
154.3296346925
 20
128.2505557395
  0
VERTEX
  8
SURFACE
 62
7
  6
CONTINUOUS
 10
154.3335625528
 20
128.2467456755
  0
VERTEX
  8
SURFACE
 62
7
  6
CONTINUOUS
 10
154.337521583
 20
128.2429472589
  0
VERTEX
  8
SURFACE
 62
7
  6
CONTINUOUS
 10
154.3415118268
 20
128.239160775
  0
SEQEND
  0
POLYLINE
  8
SURFACE
 62
7
  6
CONTINUOUS
 66
1
 70
0
  0
VERTEX
  8
SURFACE
 62
7
  6
CONTINUOUS
 10
154.2575630884
 20
128.3287479748
  0
VERTEX
  8
SURFACE
 62
7
  6
CONTINUOUS
 10
154.2608759612
 20
128.3247672152
  0
VERTEX
  8
SURFACE
 62
7
  6
CONTINUOUS
 10
154.2642191187
 20
128.3207921782
  0
VERTEX
  8
SURFACE
 62
7
  6
CONTINUOUS
 10
154.2675926234
 20
128.3168231531
  0
VERTEX
  8
SURFACE
 62
7
  6
CONTINUOUS
 10
154.2709965358
 20
128.3128604305
  0
VERTEX
  8
SURFACE
 62
7
  6
CONTINUOUS
 10
154.2744309138
 20
128.3089043022
  0
VERTEX
  8
SURFACE
 62
7
  6
CONTINUOUS
 10
154.2778958132
 20
128.3049550613
  0
VERTEX
  8
SURFACE
 62
7
  6
CONTINUOUS
 10
154.2813912873
 20
128.301013002
  0
VERTEX
  8
SURFACE
 62
7
  6
CONTINUOUS
 10
154.2849173871
 20
128.2970784199
  0
VERTEX
  8
SURFACE
 62
7
  6
CONTINUOUS
 10
154.2884741613
 20
128.2931516115
  0
VERTEX
  8
SURFACE
 62
7
  6
CONTINUOUS
 10
154.2920616561
 20
128.2892328748
  0
VERTEX
  8
SURFACE
 62
7
  6
CONTINUOUS
 10
154.2956799154
 20
128.2853225088
  0
SEQEND
  0
POLYLINE
  8
SURFACE
 62
7
  6
CONTINUOUS
 66
1
 70
0
  0
VERTEX
  8
SURFACE
 62
7
  6
CONTINUOUS
 10
154.2172191945
 20
128.3808893938
  0
VERTEX
  8
SURFACE
 62
7
  6
CONTINUOUS
 10
154.2201450504
 20
128.376859959
  0
VERTEX
  8
SURFACE
 62
7
  6
CONTINUOUS
 10
154.2231001817
 20
128.3728326086
  0
VERTEX
  8
SURFACE
 62
7
  6
CONTINUOUS
 10
154.2260846782
 20
128.3688076139
  0
VERTEX
  8
SURFACE
 62
7
  6
CONTINUOUS
 10
154.229098628
 20
128.3647852479
  0
VERTEX
  8
SURFACE
 62
7
  6
CONTINUOUS
 10
154.232142117
 20
128.3607657849
  0
VERTEX
  8
SURFACE
 62
7
  6
CONTINUOUS
 10
154.2352152293
 20
128.3567495007
  0
VERTEX
  8
SURFACE
 62
7
  6
CONTINUOUS
 10
154.2383180469
 20
128.3527366725
  0
VERTEX
  8
SURFACE
 62
7
  6
CONTINUOUS
 10
154.2414506495
 20
128.3487275788
  0
VERTEX
  8
SURFACE
 62
7
  6
CONTINUOUS
 10
154.2446131151
 20
128.3447224996
  0
VERTEX
  8
SURFACE
 62
7
  6
CONTINUOUS
 10
154.2478055192
 20
128.3407217162
  0
VERTEX
  8
SURFACE
 62
7
  6
CONTINUOUS
 10
154.2510279356
 20
128.3367255114
  0
SEQEND
  0
POLYLINE
  8
SURFACE
 62
7
  6
CONTINUOUS
 66
1
 70
0
  0
VERTEX
  8
SURFACE
 62
7
  6
CONTINUOUS
 10
154.1818024621
 20
128.4333413768
  0
VERTEX
  8
SURFACE
 62
7
  6
CONTINUOUS
 10
154.1843569382
 20
128.4293086117
  0
VERTEX
  8
SURFACE
 62
7
  6
CONTINUOUS
 10
154.1869392789
 20
128.4252746576
  0
VERTEX
  8
SURFACE
 62
7
  6
CONTINUOUS
 10
154.1895496205
 20
128.4212397271
  0
VERTEX
  8
SURFACE
 62
7
  6
CONTINUOUS
 10
154.1921880933
 20
128.4172040428
  0
VERTEX
  8
SURFACE
 62
7
  6
CONTINUOUS
 10
154.1948548353
 20
128.4131678158
  0
VERTEX
  8
SURFACE
 62
7
  6
CONTINUOUS
 10
154.1975499528
 20
128.4091313056
  0
VERTEX
  8
SURFACE
 62
7
  6
CONTINUOUS
 10
154.2002735607
 20
128.4050947572
  0
VERTEX
  8
SURFACE
 62
7
  6
CONTINUOUS
 10
154.2030257611
 20
128.4010584345
  0
VERTEX
  8
SURFACE
 62
7
  6
CONTINUOUS
 10
154.2058066571
 20
128.3970225984
  0
VERTEX
  8
SURFACE
 62
7
  6
CONTINUOUS
 10
154.2086163499
 20
128.3929875115
  0
VERTEX
  8
SURFACE
 62
7
  6
CONTINUOUS
 10
154.211454939
 20
128.3889534378
  0
SEQEND
  0
POLYLINE
  8
SURFACE
 62
7
  6
CONTINUOUS
 66
1
 70
0
  0
VERTEX
  8
SURFACE
 62
7
  6
CONTINUOUS
 10
154.1488878413
 20
128.4895597458
  0
VERTEX
  8
SURFACE
 62
7
  6
CONTINUOUS
 10
154.151066881
 20
128.4855650582
  0
VERTEX
  8
SURFACE
 62
7
  6
CONTINUOUS
 10
154.1532718058
 20
128.4815663836
  0
VERTEX
  8
SURFACE
 62
7
  6
CONTINUOUS
 10
154.1555027619
 20
128.4775639093
  0
VERTEX
  8
SURFACE
 62
7
  6
CONTINUOUS
 10
154.1577598948
 20
128.4735578242
  0
VERTEX
  8
SURFACE
 62
7
  6
CONTINUOUS
 10
154.1600433495
 20
128.4695483194
  0
VERTEX
  8
SURFACE
 62
7
  6
CONTINUOUS
 10
154.1623532701
 20
128.465535588
  0
VERTEX
  8
SURFACE
 62
7
  6
CONTINUOUS
 10
154.1646898
 20
128.4615198248
  0
VERTEX
  8
SURFACE
 62
7
  6
CONTINUOUS
 10
154.1670530821
 20
128.4575012266
  0
VERTEX
  8
SURFACE
 62
7
  6
CONTINUOUS
 10
154.1694432582
 20
128.4534799924
  0
VERTEX
  8
SURFACE
 62
7
  6
CONTINUOUS
 10
154.1718604696
 20
128.4494563229
  0
VERTEX
  8
SURFACE
 62
7
  6
CONTINUOUS
 10
154.1743048565
 20
128.4454304209
  0
VERTEX
  8
SURFACE
 62
7
  6
CONTINUOUS
 10
154.1767765586
 20
128.4414024911
  0
SEQEND
  0
POLYLINE
  8
SURFACE
 62
7
  6
CONTINUOUS
 66
1
 70
0
  0
VERTEX
  8
SURFACE
 62
7
  6
CONTINUOUS
 10
154.1265844091
 20
128.533186541
  0
VERTEX
  8
SURFACE
 62
7
  6
CONTINUOUS
 10
154.12848853
 20
128.5292475205
  0
VERTEX
  8
SURFACE
 62
7
  6
CONTINUOUS
 10
154.1304168901
 20
128.5253025791
  0
VERTEX
  8
SURFACE
 62
7
  6
CONTINUOUS
 10
154.1323696416
 20
128.5213518832
  0
VERTEX
  8
SURFACE
 62
7
  6
CONTINUOUS
 10
154.1343469361
 20
128.5173956013
  0
VERTEX
  8
SURFACE
 62
7
  6
CONTINUOUS
 10
154.1363489249
 20
128.5134339033
  0
VERTEX
  8
SURFACE
 62
7
  6
CONTINUOUS
 10
154.1383757586
 20
128.5094669615
  0
VERTEX
  8
SURFACE
 62
7
  6
CONTINUOUS
 10
154.1404275875
 20
128.5054949497
  0
VERTEX
  8
SURFACE
 62
7
  6
CONTINUOUS
 10
154.1425045613
 20
128.5015180436
  0
VERTEX
  8
SURFACE
 62
7
  6
CONTINUOUS
 10
154.1446068292
 20
128.4975364209
  0
SEQEND
  0
LINE
  8
SURFACE
 62
7
  6
CONTINUOUS
 10
154.1228482746
 20
128.5410461626
 11
154.1265844091
 21
128.533186541
  0
LINE
  8
SURFACE
 62
7
  6
CONTINUOUS
 10
154.1192072618
 20
128.5488801486
 11
154.1228482746
 21
128.5410461626
  0
LINE
  8
SURFACE
 62
7
  6
CONTINUOUS
 10
154.1122056726
 20
128.564466178
 11
154.1156601398
 21
128.5566872329
  0
LINE
  8
SURFACE
 62
7
  6
CONTINUOUS
 10
154.1088426194
 20
128.5722157747
 11
154.1122056726
 21
128.564466178
  0
LINE
  8
SURFACE
 62
7
  6
CONTINUOUS
 10
154.1055697354
 20
128.5799348421
 11
154.1088426194
 21
128.5722157747
  0
LINE
  8
SURFACE
 62
7
  6
CONTINUOUS
 10
154.1023857719
 20
128.5876222274
 11
154.1055697354
 21
128.5799348421
  0
LINE
  8
SURFACE
 62
7
  6
CONTINUOUS
 10
154.0992894715
 20
128.5952768191
 11
154.1023857719
 21
128.5876222274
  0
LINE
  8
SURFACE
 62
7
  6
CONTINUOUS
 10
154.0962796203
 20
128.6028974163
 11
154.0992894715
 21
128.5952768191
  0
LINE
  8
SURFACE
 62
7
  6
CONTINUOUS
 10
154.093355145
 20
128.6104824607
 11
154.0962796203
 21
128.6028974163
  0
LINE
  8
SURFACE
 62
7
  6
CONTINUOUS
 10
154.0877583079
 20
128.625538754
 11
154.0905150485
 21
128.6180301627
  0
LINE
  8
SURFACE
 62
7
  6
CONTINUOUS
 10
154.0850838754
 20
128.6330064873
 11
154.0877583079
 21
128.625538754
  0
LINE
  8
SURFACE
 62
7
  6
CONTINUOUS
 10
154.0824906803
 20
128.6404316337
 11
154.0850838754
 21
128.6330064873
  0
LINE
  8
SURFACE
 62
7
  6
CONTINUOUS
 10
154.0799776299
 20
128.6478124833
 11
154.0824906803
 21
128.6404316337
  0
LINE
  8
SURFACE
 62
7
  6
CONTINUOUS
 10
154.0775436101
 20
128.6551473453
 11
154.0799776299
 21
128.6478124833
  0
LINE
  8
SURFACE
 62
7
  6
CONTINUOUS
 10
154.0751874861
 20
128.6624345483
 11
154.0775436101
 21
128.6551473453
  0
LINE
  8
SURFACE
 62
7
  6
CONTINUOUS
 10
154.0729081038
 20
128.6696724404
 11
154.0751874861
 21
128.6624345483
  0
LINE
  8
SURFACE
 62
7
  6
CONTINUOUS
 10
154.07070429
 20
128.6768593893
 11
154.0729081038
 21
128.6696724404
  0
LINE
  8
SURFACE
 62
7
  6
CONTINUOUS
 10
154.0675376499
 20
128.6875407727
 11
154.0696303498
 21
128.6804332554
  0
LINE
  8
SURFACE
 62
7
  6
CONTINUOUS
 10
154.0655175087
 20
128.6945933543
 11
154.0675376499
 21
128.6875407727
  0
LINE
  8
SURFACE
 62
7
  6
CONTINUOUS
 10
154.0635686341
 20
128.701589655
 11
154.0655175087
 21
128.6945933543
  0
LINE
  8
SURFACE
 62
7
  6
CONTINUOUS
 10
154.0616895854
 20
128.7085288764
 11
154.0635686341
 21
128.701589655
  0
LINE
  8
SURFACE
 62
7
  6
CONTINUOUS
 10
154.0598789085
 20
128.715410324
 11
154.0616895854
 21
128.7085288764
  0
LINE
  8
SURFACE
 62
7
  6
CONTINUOUS
 10
154.0581351586
 20
128.7222333291
 11
154.0598789085
 21
128.715410324
  0
LINE
  8
SURFACE
 62
7
  6
CONTINUOUS
 10
154.0564569013
 20
128.7289972486
 11
154.0581351586
 21
128.7222333291
  0
LINE
  8
SURFACE
 62
7
  6
CONTINUOUS
 10
154.054842712
 20
128.7357014639
 11
154.0564569013
 21
128.7289972486
  0
LINE
  8
SURFACE
 62
7
  6
CONTINUOUS
 10
154.0518008928
 20
128.7489284295
 11
154.0532911769
 21
128.742345381
  0
LINE
  8
SURFACE
 62
7
  6
CONTINUOUS
 10
154.0503704679
 20
128.7554500623
 11
154.0518008928
 21
128.7489284295
  0
LINE
  8
SURFACE
 62
7
  6
CONTINUOUS
 10
154.0489985218
 20
128.7619097552
 11
154.0503704679
 21
128.7554500623
  0
LINE
  8
SURFACE
 62
7
  6
CONTINUOUS
 10
154.0476836858
 20
128.7683070061
 11
154.0489985218
 21
128.7619097552
  0
LINE
  8
SURFACE
 62
7
  6
CONTINUOUS
 10
154.0464246031
 20
128.7746413347
 11
154.0476836858
 21
128.7683070061
  0
LINE
  8
SURFACE
 62
7
  6
CONTINUOUS
 10
154.0452199293
 20
128.7809122821
 11
154.0464246031
 21
128.7746413347
  0
LINE
  8
SURFACE
 62
7
  6
CONTINUOUS
 10
154.0440683323
 20
128.7871194099
 11
154.0452199293
 21
128.7809122821
  0
LINE
  8
SURFACE
 62
7
  6
CONTINUOUS
 10
154.0429684927
 20
128.7932623001
 11
154.0440683323
 21
128.7871194099
  0
LINE
  8
SURFACE
 62
7
  6
CONTINUOUS
 10
154.0333904103
 20
128.8614132452
 11
154.0339592073
 21
128.8561598535
  0
POLYLINE
  8
0
 62
7
  6
CONTINUOUS
 66
1
 70
0
  0
VERTEX
  8
0
 62
7
  6
CONTINUOUS
 10
154.0273433093
 20
156.1017641018
  0
VERTEX
  8
0
 62
7
  6
CONTINUOUS
 10
154.0277079609
 20
156.0982086285
  0
VERTEX
  8
0
 62
7
  6
CONTINUOUS
 10
154.0278609839
 20
156.0959579878
  0
SEQEND
  0
LINE
  8
SURFACE
 62
7
  6
CONTINUOUS
 10
154.0328577117
 20
128.8665865108
 11
154.0333904103
 21
128.8614132452
  0
LINE
  8
SURFACE
 62
7
  6
CONTINUOUS
 10
154.0318953714
 20
128.8766930613
 11
154.0323597954
 21
128.8716797457
  0
LINE
  8
SURFACE
 62
7
  6
CONTINUOUS
 10
154.0314631757
 20
128.8816265842
 11
154.0318953714
 21
128.8766930613
  0
LINE
  8
SURFACE
 62
7
  6
CONTINUOUS
 10
154.0310619703
 20
128.8864804557
 11
154.0314631757
 21
128.8816265842
  0
LINE
  8
SURFACE
 62
7
  6
CONTINUOUS
 10
154.0306905429
 20
128.8912548312
 11
154.0310619703
 21
128.8864804557
  0
LINE
  8
SURFACE
 62
7
  6
CONTINUOUS
 10
154.0303477106
 20
128.8959498254
 11
154.0306905429
 21
128.8912548312
  0
LINE
  8
SURFACE
 62
7
  6
CONTINUOUS
 10
154.0300324445
 20
128.9005636049
 11
154.0303477106
 21
128.8959498254
  0
LINE
  8
SURFACE
 62
7
  6
CONTINUOUS
 10
154.029743856
 20
128.9050918777
 11
154.0300324445
 21
128.9005636049
  0
LINE
  8
SURFACE
 62
7
  6
CONTINUOUS
 10
154.0294810114
 20
128.9095302025
 11
154.029743856
 21
128.9050918777
  0
LINE
  8
SURFACE
 62
7
  6
CONTINUOUS
 10
154.0291328454
 20
128.9160093045
 11
154.0294810114
 21
128.9095302025
  0
LINE
  8
SURFACE
 62
7
  6
CONTINUOUS
 10
154.028836813
 20
128.9222617809
 11
154.0291328454
 21
128.9160093045
  0
LINE
  8
SURFACE
 62
7
  6
CONTINUOUS
 10
154.0285885352
 20
128.928289694
 11
154.028836813
 21
128.9222617809
  0
LINE
  8
SURFACE
 62
7
  6
CONTINUOUS
 10
154.0283832452
 20
128.9341136959
 11
154.0285885352
 21
128.928289694
  0
LINE
  8
SURFACE
 62
7
  6
CONTINUOUS
 10
154.0281255558
 20
128.9434269535
 11
154.028268182
 21
128.9378938251
  0
LINE
  8
SURFACE
 62
7
  6
CONTINUOUS
 10
154.0280163082
 20
128.9488040446
 11
154.0281255558
 21
128.9434269535
  0
LINE
  8
SURFACE
 62
7
  6
CONTINUOUS
 10
154.0279395531
 20
128.9538934221
 11
154.0280163082
 21
128.9488040446
  0
LINE
  8
SURFACE
 62
7
  6
CONTINUOUS
 10
154.0278926368
 20
128.9584724156
 11
154.0279395531
 21
128.9538934221
  0
LINE
  8
SURFACE
 62
7
  6
CONTINUOUS
 10
154.0278662355
 20
128.9631887768
 11
154.0278926368
 21
128.9584724156
  0
LINE
  8
0
 62
7
  6
CONTINUOUS
 10
153.1478609839
 20
170.4164391897
 11
153.1478609839
 21
162.6164391897
  0
LINE
  8
SURFACE
 62
7
  6
CONTINUOUS
 10
153.1478609839
 20
118.7164391897
 11
153.1478609839
 21
110.9164391897
  0
LINE
  8
SURFACE
 62
7
  6
CONTINUOUS
 10
154.0278609839
 20
121.9018964569
 11
154.0278609839
 21
132.6520272235
  0
LINE
  8
0
 62
7
  6
CONTINUOUS
 10
154.0278609839
 20
132.6520272243
 11
154.0278609839
 21
159.4309819224
  0
LINE
  8
0
 62
7
  6
CONTINUOUS
 10
154.0279066159
 20
152.3760027336
 11
154.0278709805
 21
152.3709204825
  0
LINE
  8
0
 62
7
  6
CONTINUOUS
 10
154.0279613231
 20
152.3806154936
 11
154.0279066159
 21
152.3760027336
  0
LINE
  8
0
 62
7
  6
CONTINUOUS
 10
154.0280434103
 20
152.3855500549
 11
154.0279613231
 21
152.3806154936
  0
LINE
  8
0
 62
7
  6
CONTINUOUS
 10
154.028152651
 20
152.3906003756
 11
154.0280434103
 21
152.3855500549
  0
LINE
  8
0
 62
7
  6
CONTINUOUS
 10
154.0282912898
 20
152.3957828598
 11
154.028152651
 21
152.3906003756
  0
LINE
  8
0
 62
7
  6
CONTINUOUS
 10
154.0287453018
 20
152.4084956599
 11
154.0285266732
 21
152.4029318097
  0
LINE
  8
0
 62
7
  6
CONTINUOUS
 10
154.0290041233
 20
152.4142511697
 11
154.0287453018
 21
152.4084956599
  0
LINE
  8
0
 62
7
  6
CONTINUOUS
 10
154.0293065256
 20
152.4201991273
 11
154.0290041233
 21
152.4142511697
  0
LINE
  8
0
 62
7
  6
CONTINUOUS
 10
154.0296553001
 20
152.4263280578
 11
154.0293065256
 21
152.4201991273
  0
LINE
  8
0
 62
7
  6
CONTINUOUS
 10
154.0300530388
 20
152.4326260286
 11
154.0296553001
 21
152.4263280578
  0
POLYLINE
  8
SURFACE
 62
7
  6
CONTINUOUS
 66
1
 70
0
  0
VERTEX
  8
SURFACE
 62
7
  6
CONTINUOUS
 10
154.0278609839
 20
125.2369189622
  0
VERTEX
  8
SURFACE
 62
7
  6
CONTINUOUS
 10
154.0277056401
 20
125.2346425821
  0
VERTEX
  8
SURFACE
 62
7
  6
CONTINUOUS
 10
154.0271282197
 20
125.2293784458
  0
VERTEX
  8
SURFACE
 62
7
  6
CONTINUOUS
 10
154.0258626251
 20
125.2212063844
  0
VERTEX
  8
SURFACE
 62
7
  6
CONTINUOUS
 10
154.0236593026
 20
125.2103817921
  0
VERTEX
  8
SURFACE
 62
7
  6
CONTINUOUS
 10
154.0202845071
 20
125.1971287856
  0
VERTEX
  8
SURFACE
 62
7
  6
CONTINUOUS
 10
154.0155615017
 20
125.1818080542
  0
VERTEX
  8
SURFACE
 62
7
  6
CONTINUOUS
 10
154.0093524561
 20
125.164788833
  0
VERTEX
  8
SURFACE
 62
7
  6
CONTINUOUS
 10
154.00152482
 20
125.1463550697
  0
VERTEX
  8
SURFACE
 62
7
  6
CONTINUOUS
 10
153.9919926506
 20
125.1268291528
  0
VERTEX
  8
SURFACE
 62
7
  6
CONTINUOUS
 10
153.9806926033
 20
125.1065087262
  0
VERTEX
  8
SURFACE
 62
7
  6
CONTINUOUS
 10
153.9676754019
 20
125.0858201261
  0
VERTEX
  8
SURFACE
 62
7
  6
CONTINUOUS
 10
153.9526908236
 20
125.0646865166
  0
VERTEX
  8
SURFACE
 62
7
  6
CONTINUOUS
 10
153.9355182635
 20
125.0431698845
  0
VERTEX
  8
SURFACE
 62
7
  6
CONTINUOUS
 10
153.9159800548
 20
125.0214494782
  0
VERTEX
  8
SURFACE
 62
7
  6
CONTINUOUS
 10
153.8937771041
 20
124.9996437193
  0
VERTEX
  8
SURFACE
 62
7
  6
CONTINUOUS
 10
153.8689634341
 20
124.9782478215
  0
VERTEX
  8
SURFACE
 62
7
  6
CONTINUOUS
 10
153.8413624017
 20
124.9575320395
  0
VERTEX
  8
SURFACE
 62
7
  6
CONTINUOUS
 10
153.8115428005
 20
124.9382723384
  0
VERTEX
  8
SURFACE
 62
7
  6
CONTINUOUS
 10
153.7800914429
 20
124.9210152089
  0
VERTEX
  8
SURFACE
 62
7
  6
CONTINUOUS
 10
153.7472163168
 20
124.9059445763
  0
VERTEX
  8
SURFACE
 62
7
  6
CONTINUOUS
 10
153.7133360514
 20
124.8932650702
  0
VERTEX
  8
SURFACE
 62
7
  6
CONTINUOUS
 10
153.6783939068
 20
124.8829330906
  0
VERTEX
  8
SURFACE
 62
7
  6
CONTINUOUS
 10
153.6424945592
 20
124.8749654886
  0
VERTEX
  8
SURFACE
 62
7
  6
CONTINUOUS
 10
153.605789213
 20
124.8693678398
  0
VERTEX
  8
SURFACE
 62
7
  6
CONTINUOUS
 10
153.5686405201
 20
124.8661233829
  0
VERTEX
  8
SURFACE
 62
7
  6
CONTINUOUS
 10
153.5500706168
 20
124.8653612074
  0
SEQEND
  0
LINE
  8
0
 62
7
  6
CONTINUOUS
 10
154.0305021446
 20
152.4390812595
 11
154.0300530388
 21
152.4326260286
  0
LINE
  8
0
 62
7
  6
CONTINUOUS
 10
154.0308313618
 20
152.4434687041
 11
154.0305021446
 21
152.4390812595
  0
LINE
  8
0
 62
7
  6
CONTINUOUS
 10
154.0311854838
 20
152.4479232425
 11
154.0308313618
 21
152.4434687041
  0
LINE
  8
0
 62
7
  6
CONTINUOUS
 10
154.0315654509
 20
152.4524450326
 11
154.0311854838
 21
152.4479232425
  0
LINE
  8
0
 62
7
  6
CONTINUOUS
 10
154.0319722201
 20
152.4570342001
 11
154.0315654509
 21
152.4524450326
  0
LINE
  8
0
 62
7
  6
CONTINUOUS
 10
154.0324067672
 20
152.4616908601
 11
154.0319722201
 21
152.4570342001
  0
LINE
  8
0
 62
7
  6
CONTINUOUS
 10
154.0336212362
 20
152.4736284493
 11
154.0331128521
 21
152.4688026247
  0
LINE
  8
0
 62
7
  6
CONTINUOUS
 10
154.0341609619
 20
152.4785220827
 11
154.0336212362
 21
152.4736284493
  0
LINE
  8
0
 62
7
  6
CONTINUOUS
 10
154.03473309
 20
152.4834835883
 11
154.0341609619
 21
152.4785220827
  0
LINE
  8
0
 62
7
  6
CONTINUOUS
 10
154.0353387
 20
152.4885130102
 11
154.03473309
 21
152.4834835883
  0
LINE
  8
0
 62
7
  6
CONTINUOUS
 10
154.0359788276
 20
152.4936098915
 11
154.0353387
 21
152.4885130102
  0
LINE
  8
0
 62
7
  6
CONTINUOUS
 10
154.0366544084
 20
152.4987729433
 11
154.0359788276
 21
152.4936098915
  0
LINE
  8
0
 62
7
  6
CONTINUOUS
 10
154.0373663583
 20
152.5040007879
 11
154.0366544084
 21
152.4987729433
  0
LINE
  8
0
 62
7
  6
CONTINUOUS
 10
154.0381155823
 20
152.5092920379
 11
154.0373663583
 21
152.5040007879
  0
LINE
  8
0
 62
7
  6
CONTINUOUS
 10
154.0389029735
 20
152.5146452957
 11
154.0381155823
 21
152.5092920379
  0
LINE
  8
0
 62
7
  6
CONTINUOUS
 10
154.039729412
 20
152.5200591539
 11
154.0389029735
 21
152.5146452957
  0
LINE
  8
0
 62
7
  6
CONTINUOUS
 10
154.0405957646
 20
152.5255321954
 11
154.039729412
 21
152.5200591539
  0
LINE
  8
0
 62
7
  6
CONTINUOUS
 10
154.0429418236
 20
152.5394643303
 11
154.0419719911
 21
152.5338495949
  0
LINE
  8
DEFAULT_1
 62
7
  6
CENTER
 10
143.1478609839
 20
140.6664391897
 11
172.0278609839
 21
140.6664391897
  0
POLYLINE
  8
0
 62
7
  6
CONTINUOUS
 66
1
 70
0
  0
VERTEX
  8
0
 62
7
  6
CONTINUOUS
 10
154.0203429941
 20
156.1355406858
  0
VERTEX
  8
0
 62
7
  6
CONTINUOUS
 10
154.0236942881
 20
156.1223428248
  0
VERTEX
  8
0
 62
7
  6
CONTINUOUS
 10
154.0258810956
 20
156.1115678213
  0
VERTEX
  8
0
 62
7
  6
CONTINUOUS
 10
154.0271362277
 20
156.1034382387
  0
VERTEX
  8
0
 62
7
  6
CONTINUOUS
 10
154.0273433093
 20
156.1017641018
  0
SEQEND
  0
LINE
  8
SURFACE
 62
7
  6
CONTINUOUS
 10
154.0419191561
 20
128.7993402482
 11
154.0429684927
 21
128.7932623001
  0
LINE
  8
SURFACE
 62
7
  6
CONTINUOUS
 10
154.0395096417
 20
128.8142396668
 11
154.040437467
 21
128.8083317013
  0
LINE
  8
SURFACE
 62
7
  6
CONTINUOUS
 10
154.0386285016
 20
128.8200764283
 11
154.0395096417
 21
128.8142396668
  0
LINE
  8
SURFACE
 62
7
  6
CONTINUOUS
 10
154.0377929207
 20
128.8258401711
 11
154.0386285016
 21
128.8200764283
  0
LINE
  8
SURFACE
 62
7
  6
CONTINUOUS
 10
154.0370017543
 20
128.8315290946
 11
154.0377929207
 21
128.8258401711
  0
LINE
  8
SURFACE
 62
7
  6
CONTINUOUS
 10
154.0362538418
 20
128.8371414106
 11
154.0370017543
 21
128.8315290946
  0
LINE
  8
SURFACE
 62
7
  6
CONTINUOUS
 10
154.035548011
 20
128.8426753098
 11
154.0362538418
 21
128.8371414106
  0
LINE
  8
SURFACE
 62
7
  6
CONTINUOUS
 10
154.034883032
 20
128.8481293582
 11
154.035548011
 21
128.8426753098
  0
POLYLINE
  8
SURFACE
 62
7
  6
CONTINUOUS
 66
1
 70
0
  0
VERTEX
  8
SURFACE
 62
7
  6
CONTINUOUS
 10
154.0339592073
 20
128.8561598535
  0
VERTEX
  8
SURFACE
 62
7
  6
CONTINUOUS
 10
154.0342575613
 20
128.8535030851
  0
VERTEX
  8
SURFACE
 62
7
  6
CONTINUOUS
 10
154.034883032
 20
128.8481293582
  0
SEQEND
  0
LINE
  8
DEFAULT_1
 62
7
  6
CENTER
 10
161.5278609839
 20
43.113220074
 11
161.5278609839
 21
238.2196583054
  0
LINE
  8
SURFACE
 62
7
  6
CONTINUOUS
 10
151.9542466506
 20
125.129071725
 11
153.7311439952
 21
127.0682149026
  0
POLYLINE
  8
SURFACE
 62
7
  6
CONTINUOUS
 66
1
 70
0
  0
VERTEX
  8
SURFACE
 62
7
  6
CONTINUOUS
 10
151.9541962644
 20
125.1290158383
  0
VERTEX
  8
SURFACE
 62
7
  6
CONTINUOUS
 10
151.9353782006
 20
125.1090370178
  0
VERTEX
  8
SURFACE
 62
7
  6
CONTINUOUS
 10
151.8926080377
 20
125.0674193499
  0
VERTEX
  8
SURFACE
 62
7
  6
CONTINUOUS
 10
151.8474315456
 20
125.0284270499
  0
VERTEX
  8
SURFACE
 62
7
  6
CONTINUOUS
 10
151.8000096142
 20
124.9921989793
  0
VERTEX
  8
SURFACE
 62
7
  6
CONTINUOUS
 10
151.75051113
 20
124.9588641549
  0
VERTEX
  8
SURFACE
 62
7
  6
CONTINUOUS
 10
151.6991123745
 20
124.9285412897
  0
VERTEX
  8
SURFACE
 62
7
  6
CONTINUOUS
 10
151.6459963962
 20
124.9013383699
  0
VERTEX
  8
SURFACE
 62
7
  6
CONTINUOUS
 10
151.5913523592
 20
124.8773522705
  0
VERTEX
  8
SURFACE
 62
7
  6
CONTINUOUS
 10
151.5353748696
 20
124.8566684105
  0
VERTEX
  8
SURFACE
 62
7
  6
CONTINUOUS
 10
151.4782632798
 20
124.8393604474
  0
VERTEX
  8
SURFACE
 62
7
  6
CONTINUOUS
 10
151.4202209789
 20
124.8254900165
  0
VERTEX
  8
SURFACE
 62
7
  6
CONTINUOUS
 10
151.3614546787
 20
124.8151065126
  0
VERTEX
  8
SURFACE
 62
7
  6
CONTINUOUS
 10
151.3021736689
 20
124.8082469113
  0
VERTEX
  8
SURFACE
 62
7
  6
CONTINUOUS
 10
151.2430959933
 20
124.804948783
  0
SEQEND
  0
POLYLINE
  8
0
 62
7
  6
CONTINUOUS
 66
1
 70
0
  0
VERTEX
  8
0
 62
7
  6
CONTINUOUS
 10
153.7311511608
 20
154.2646556584
  0
VERTEX
  8
0
 62
7
  6
CONTINUOUS
 10
153.7495687863
 20
154.2450277783
  0
VERTEX
  8
0
 62
7
  6
CONTINUOUS
 10
153.7902160705
 20
154.2047726525
  0
VERTEX
  8
0
 62
7
  6
CONTINUOUS
 10
153.8304770698
 20
154.1685373292
  0
SEQEND
  0
LINE
  8
0
 62
7
  6
CONTINUOUS
 10
153.7311439952
 20
154.2646634767
 11
151.9542466506
 21
156.2038066544
  0
POLYLINE
  8
SURFACE
 62
7
  6
CONTINUOUS
 66
1
 70
0
  0
VERTEX
  8
SURFACE
 62
7
  6
CONTINUOUS
 10
168.5170288314
 20
127.5100170611
  0
VERTEX
  8
SURFACE
 62
7
  6
CONTINUOUS
 10
168.5136024721
 20
127.5486808862
  0
VERTEX
  8
SURFACE
 62
7
  6
CONTINUOUS
 10
168.5083494641
 20
127.5862296584
  0
VERTEX
  8
SURFACE
 62
7
  6
CONTINUOUS
 10
168.5012077937
 20
127.6224623826
  0
VERTEX
  8
SURFACE
 62
7
  6
CONTINUOUS
 10
168.4923635017
 20
127.6572409939
  0
VERTEX
  8
SURFACE
 62
7
  6
CONTINUOUS
 10
168.4819428082
 20
127.6904371775
  0
VERTEX
  8
SURFACE
 62
7
  6
CONTINUOUS
 10
168.4700631608
 20
127.721951783
  0
VERTEX
  8
SURFACE
 62
7
  6
CONTINUOUS
 10
168.4568480981
 20
127.751700398
  0
VERTEX
  8
SURFACE
 62
7
  6
CONTINUOUS
 10
168.4424055669
 20
127.7796187934
  0
VERTEX
  8
SURFACE
 62
7
  6
CONTINUOUS
 10
168.4268513545
 20
127.8056563564
  0
VERTEX
  8
SURFACE
 62
7
  6
CONTINUOUS
 10
168.4102854795
 20
127.8297731609
  0
VERTEX
  8
SURFACE
 62
7
  6
CONTINUOUS
 10
168.3928154378
 20
127.8519417947
  0
VERTEX
  8
SURFACE
 62
7
  6
CONTINUOUS
 10
168.3745345844
 20
127.8721413453
  0
VERTEX
  8
SURFACE
 62
7
  6
CONTINUOUS
 10
168.3555426874
 20
127.8903616644
  0
VERTEX
  8
SURFACE
 62
7
  6
CONTINUOUS
 10
168.3359280037
 20
127.9065967286
  0
VERTEX
  8
SURFACE
 62
7
  6
CONTINUOUS
 10
168.3157838542
 20
127.9208498191
  0
VERTEX
  8
SURFACE
 62
7
  6
CONTINUOUS
 10
168.2951948146
 20
127.9331272971
  0
VERTEX
  8
SURFACE
 62
7
  6
CONTINUOUS
 10
168.2742495911
 20
127.9434435665
  0
VERTEX
  8
SURFACE
 62
7
  6
CONTINUOUS
 10
168.2530291138
 20
127.9518166063
  0
VERTEX
  8
SURFACE
 62
7
  6
CONTINUOUS
 10
168.231617774
 20
127.95827126
  0
VERTEX
  8
SURFACE
 62
7
  6
CONTINUOUS
 10
168.2100938948
 20
127.9628360439
  0
VERTEX
  8
SURFACE
 62
7
  6
CONTINUOUS
 10
168.1885772363
 20
127.9655457945
  0
VERTEX
  8
SURFACE
 62
7
  6
CONTINUOUS
 10
168.1670278783
 20
127.9664391897
  0
SEQEND
  0
POLYLINE
  8
0
 62
7
  6
CONTINUOUS
 66
1
 70
0
  0
VERTEX
  8
0
 62
7
  6
CONTINUOUS
 10
168.5178609839
 20
233.1529064179
  0
VERTEX
  8
0
 62
7
  6
CONTINUOUS
 10
168.5163945946
 20
233.3027050869
  0
VERTEX
  8
0
 62
7
  6
CONTINUOUS
 10
168.5119592822
 20
233.4513277397
  0
VERTEX
  8
0
 62
7
  6
CONTINUOUS
 10
168.5045028448
 20
233.5991004115
  0
VERTEX
  8
0
 62
7
  6
CONTINUOUS
 10
168.4940091582
 20
233.7450509214
  0
VERTEX
  8
0
 62
7
  6
CONTINUOUS
 10
168.480403195
 20
233.8884781053
  0
VERTEX
  8
0
 62
7
  6
CONTINUOUS
 10
168.4636713516
 20
234.0289000095
  0
VERTEX
  8
0
 62
7
  6
CONTINUOUS
 10
168.4437985331
 20
234.1655141701
  0
VERTEX
  8
0
 62
7
  6
CONTINUOUS
 10
168.4206054316
 20
234.2985855657
  0
VERTEX
  8
0
 62
7
  6
CONTINUOUS
 10
168.3939112193
 20
234.4282681871
  0
VERTEX
  8
0
 62
7
  6
CONTINUOUS
 10
168.3635841512
 20
234.5540984081
  0
VERTEX
  8
0
 62
7
  6
CONTINUOUS
 10
168.329426191
 20
234.6758325702
  0
VERTEX
  8
0
 62
7
  6
CONTINUOUS
 10
168.2913599937
 20
234.7929707187
  0
VERTEX
  8
0
 62
7
  6
CONTINUOUS
 10
168.2492710083
 20
234.9050014863
  0
VERTEX
  8
0
 62
7
  6
CONTINUOUS
 10
168.2030375098
 20
235.0117201047
  0
VERTEX
  8
0
 62
7
  6
CONTINUOUS
 10
168.1526477384
 20
235.1126588447
  0
VERTEX
  8
0
 62
7
  6
CONTINUOUS
 10
168.0976509443
 20
235.2080995863
  0
VERTEX
  8
0
 62
7
  6
CONTINUOUS
 10
168.0376092576
 20
235.2983029843
  0
VERTEX
  8
0
 62
7
  6
CONTINUOUS
 10
167.9723342551
 20
235.3828767186
  0
VERTEX
  8
0
 62
7
  6
CONTINUOUS
 10
167.9015226084
 20
235.4616135214
  0
VERTEX
  8
0
 62
7
  6
CONTINUOUS
 10
167.8250390983
 20
235.5342279743
  0
VERTEX
  8
0
 62
7
  6
CONTINUOUS
 10
167.7427443964
 20
235.6003943773
  0
VERTEX
  8
0
 62
7
  6
CONTINUOUS
 10
167.6543886285
 20
235.6600324645
  0
VERTEX
  8
0
 62
7
  6
CONTINUOUS
 10
167.5599366106
 20
235.7129329846
  0
VERTEX
  8
0
 62
7
  6
CONTINUOUS
 10
167.4586290922
 20
235.7591655203
  0
VERTEX
  8
0
 62
7
  6
CONTINUOUS
 10
167.3497686234
 20
235.7988222511
  0
VERTEX
  8
0
 62
7
  6
CONTINUOUS
 10
167.2329122156
 20
235.8316530769
  0
VERTEX
  8
0
 62
7
  6
CONTINUOUS
 10
167.1076282164
 20
235.8575096533
  0
VERTEX
  8
0
 62
7
  6
CONTINUOUS
 10
166.9730681427
 20
235.8762043578
  0
VERTEX
  8
0
 62
7
  6
CONTINUOUS
 10
166.8282349714
 20
235.8874595262
  0
VERTEX
  8
0
 62
7
  6
CONTINUOUS
 10
166.6729052358
 20
235.8914391897
  0
SEQEND
  0
POLYLINE
  8
SURFACE
 62
7
  6
CONTINUOUS
 66
1
 70
0
  0
VERTEX
  8
SURFACE
 62
7
  6
CONTINUOUS
 10
168.5178609354
 20
127.48223918
  0
VERTEX
  8
SURFACE
 62
7
  6
CONTINUOUS
 10
168.517837341
 20
127.4868758693
  0
VERTEX
  8
SURFACE
 62
7
  6
CONTINUOUS
 10
168.5177677294
 20
127.491510241
  0
VERTEX
  8
SURFACE
 62
7
  6
CONTINUOUS
 10
168.5176521183
 20
127.4961427629
  0
VERTEX
  8
SURFACE
 62
7
  6
CONTINUOUS
 10
168.5174904549
 20
127.5007720311
  0
VERTEX
  8
SURFACE
 62
7
  6
CONTINUOUS
 10
168.5172826868
 20
127.5053966411
  0
VERTEX
  8
SURFACE
 62
7
  6
CONTINUOUS
 10
168.5170288314
 20
127.5100170611
  0
SEQEND
  0
LINE
  8
SURFACE
 62
7
  6
CONTINUOUS
 10
165.0478609839
 20
126.7726787464
 11
165.0478609839
 21
45.4414391897
  0
LINE
  8
0
 62
7
  6
CONTINUOUS
 10
165.0478609839
 20
154.560199633
 11
165.0478609839
 21
235.8914391897
  0
LINE
  8
SURFACE
 62
7
  6
CONTINUOUS
 10
168.5178609354
 20
127.48223918
 11
168.5178609839
 21
48.1799719614
  0
LINE
  8
0
 62
7
  6
CONTINUOUS
 10
168.5178609354
 20
153.8506391994
 11
168.5178609839
 21
233.1529064179
  0
LINE
  8
SURFACE
 62
7
  6
CONTINUOUS
 10
169.0278609839
 20
128.5383541614
 11
169.0278609839
 21
46.441414673
  0
LINE
  8
0
 62
7
  6
CONTINUOUS
 10
169.0278609839
 20
128.5383542509
 11
169.0278609839
 21
234.8914391897
  0
POLYLINE
  8
0
 62
7
  6
CONTINUOUS
 66
1
 70
0
  0
VERTEX
  8
0
 62
7
  6
CONTINUOUS
 10
168.5178609354
 20
153.8506391994
  0
VERTEX
  8
0
 62
7
  6
CONTINUOUS
 10
168.517837341
 20
153.84600251
  0
VERTEX
  8
0
 62
7
  6
CONTINUOUS
 10
168.5177677294
 20
153.8413681384
  0
VERTEX
  8
0
 62
7
  6
CONTINUOUS
 10
168.5176521183
 20
153.8367356164
  0
VERTEX
  8
0
 62
7
  6
CONTINUOUS
 10
168.5174904549
 20
153.8321063483
  0
VERTEX
  8
0
 62
7
  6
CONTINUOUS
 10
168.5172826868
 20
153.8274817383
  0
VERTEX
  8
0
 62
7
  6
CONTINUOUS
 10
168.5170288314
 20
153.8228613183
  0
SEQEND
  0
POLYLINE
  8
SURFACE
 62
7
  6
CONTINUOUS
 66
1
 70
0
  0
VERTEX
  8
SURFACE
 62
7
  6
CONTINUOUS
 10
168.5178609839
 20
48.1799719614
  0
VERTEX
  8
SURFACE
 62
7
  6
CONTINUOUS
 10
168.5163945946
 20
48.0301732925
  0
VERTEX
  8
SURFACE
 62
7
  6
CONTINUOUS
 10
168.5119592822
 20
47.8815506396
  0
VERTEX
  8
SURFACE
 62
7
  6
CONTINUOUS
 10
168.5045028448
 20
47.7337779679
  0
VERTEX
  8
SURFACE
 62
7
  6
CONTINUOUS
 10
168.4940091582
 20
47.587827458
  0
VERTEX
  8
SURFACE
 62
7
  6
CONTINUOUS
 10
168.480403195
 20
47.4444002741
  0
VERTEX
  8
SURFACE
 62
7
  6
CONTINUOUS
 10
168.4636713516
 20
47.3039783699
  0
VERTEX
  8
SURFACE
 62
7
  6
CONTINUOUS
 10
168.4437985331
 20
47.1673642093
  0
VERTEX
  8
SURFACE
 62
7
  6
CONTINUOUS
 10
168.4206054316
 20
47.0342928136
  0
VERTEX
  8
SURFACE
 62
7
  6
CONTINUOUS
 10
168.3939112193
 20
46.9046101922
  0
VERTEX
  8
SURFACE
 62
7
  6
CONTINUOUS
 10
168.3635841512
 20
46.7787799712
  0
VERTEX
  8
SURFACE
 62
7
  6
CONTINUOUS
 10
168.329426191
 20
46.6570458092
  0
VERTEX
  8
SURFACE
 62
7
  6
CONTINUOUS
 10
168.2913599937
 20
46.5399076607
  0
VERTEX
  8
SURFACE
 62
7
  6
CONTINUOUS
 10
168.2492710083
 20
46.427876893
  0
VERTEX
  8
SURFACE
 62
7
  6
CONTINUOUS
 10
168.2030375098
 20
46.3211582747
  0
VERTEX
  8
SURFACE
 62
7
  6
CONTINUOUS
 10
168.1526477384
 20
46.2202195347
  0
VERTEX
  8
SURFACE
 62
7
  6
CONTINUOUS
 10
168.0976509443
 20
46.124778793
  0
VERTEX
  8
SURFACE
 62
7
  6
CONTINUOUS
 10
168.0376092576
 20
46.0345753951
  0
VERTEX
  8
SURFACE
 62
7
  6
CONTINUOUS
 10
167.9723342551
 20
45.9500016608
  0
VERTEX
  8
SURFACE
 62
7
  6
CONTINUOUS
 10
167.9015226084
 20
45.871264858
  0
VERTEX
  8
SURFACE
 62
7
  6
CONTINUOUS
 10
167.8250390983
 20
45.7986504051
  0
VERTEX
  8
SURFACE
 62
7
  6
CONTINUOUS
 10
167.7427443964
 20
45.732484002
  0
VERTEX
  8
SURFACE
 62
7
  6
CONTINUOUS
 10
167.6543886285
 20
45.6728459148
  0
VERTEX
  8
SURFACE
 62
7
  6
CONTINUOUS
 10
167.5599366106
 20
45.6199453948
  0
VERTEX
  8
SURFACE
 62
7
  6
CONTINUOUS
 10
167.4586290922
 20
45.573712859
  0
VERTEX
  8
SURFACE
 62
7
  6
CONTINUOUS
 10
167.3497686234
 20
45.5340561282
  0
VERTEX
  8
SURFACE
 62
7
  6
CONTINUOUS
 10
167.2329122156
 20
45.5012253025
  0
VERTEX
  8
SURFACE
 62
7
  6
CONTINUOUS
 10
167.1076282164
 20
45.4753687261
  0
VERTEX
  8
SURFACE
 62
7
  6
CONTINUOUS
 10
166.9730681427
 20
45.4566740216
  0
VERTEX
  8
SURFACE
 62
7
  6
CONTINUOUS
 10
166.8282349714
 20
45.4454188531
  0
VERTEX
  8
SURFACE
 62
7
  6
CONTINUOUS
 10
166.6729052358
 20
45.4414391897
  0
SEQEND
  0
POLYLINE
  8
0
 62
7
  6
CONTINUOUS
 66
1
 70
0
  0
VERTEX
  8
0
 62
7
  6
CONTINUOUS
 10
168.5170288314
 20
153.8228613183
  0
VERTEX
  8
0
 62
7
  6
CONTINUOUS
 10
168.5136024721
 20
153.7841974931
  0
VERTEX
  8
0
 62
7
  6
CONTINUOUS
 10
168.5083494641
 20
153.746648721
  0
VERTEX
  8
0
 62
7
  6
CONTINUOUS
 10
168.5012077937
 20
153.7104159968
  0
VERTEX
  8
0
 62
7
  6
CONTINUOUS
 10
168.4923635017
 20
153.6756373855
  0
VERTEX
  8
0
 62
7
  6
CONTINUOUS
 10
168.4819428082
 20
153.6424412019
  0
VERTEX
  8
0
 62
7
  6
CONTINUOUS
 10
168.4700631608
 20
153.6109265964
  0
VERTEX
  8
0
 62
7
  6
CONTINUOUS
 10
168.4568480981
 20
153.5811779813
  0
VERTEX
  8
0
 62
7
  6
CONTINUOUS
 10
168.4424055669
 20
153.553259586
  0
VERTEX
  8
0
 62
7
  6
CONTINUOUS
 10
168.4268513545
 20
153.527222023
  0
VERTEX
  8
0
 62
7
  6
CONTINUOUS
 10
168.4102854795
 20
153.5031052185
  0
VERTEX
  8
0
 62
7
  6
CONTINUOUS
 10
168.3928154378
 20
153.4809365846
  0
VERTEX
  8
0
 62
7
  6
CONTINUOUS
 10
168.3745345844
 20
153.4607370341
  0
VERTEX
  8
0
 62
7
  6
CONTINUOUS
 10
168.3555426874
 20
153.442516715
  0
VERTEX
  8
0
 62
7
  6
CONTINUOUS
 10
168.3359280037
 20
153.4262816508
  0
VERTEX
  8
0
 62
7
  6
CONTINUOUS
 10
168.3157838542
 20
153.4120285603
  0
VERTEX
  8
0
 62
7
  6
CONTINUOUS
 10
168.2951948146
 20
153.3997510822
  0
VERTEX
  8
0
 62
7
  6
CONTINUOUS
 10
168.2742495911
 20
153.3894348129
  0
VERTEX
  8
0
 62
7
  6
CONTINUOUS
 10
168.2530291138
 20
153.3810617731
  0
VERTEX
  8
0
 62
7
  6
CONTINUOUS
 10
168.231617774
 20
153.3746071193
  0
VERTEX
  8
0
 62
7
  6
CONTINUOUS
 10
168.2100938948
 20
153.3700423355
  0
VERTEX
  8
0
 62
7
  6
CONTINUOUS
 10
168.1885772363
 20
153.3673325849
  0
VERTEX
  8
0
 62
7
  6
CONTINUOUS
 10
168.1670278783
 20
153.3664391897
  0
SEQEND
  0
POLYLINE
  8
SURFACE
 62
7
  6
CONTINUOUS
 66
1
 70
0
  0
VERTEX
  8
SURFACE
 62
7
  6
CONTINUOUS
 10
153.8686625975
 20
127.195818066
  0
VERTEX
  8
SURFACE
 62
7
  6
CONTINUOUS
 10
153.8285312346
 20
127.1626650647
  0
VERTEX
  8
SURFACE
 62
7
  6
CONTINUOUS
 10
153.7881943505
 20
127.1261954752
  0
VERTEX
  8
SURFACE
 62
7
  6
CONTINUOUS
 10
153.7475524459
 20
127.0857465776
  0
VERTEX
  8
SURFACE
 62
7
  6
CONTINUOUS
 10
153.7311502633
 20
127.0682217415
  0
SEQEND
  0
POLYLINE
  8
SURFACE
 62
7
  6
CONTINUOUS
 66
1
 70
0
  0
VERTEX
  8
SURFACE
 62
7
  6
CONTINUOUS
 10
154.0278609839
 20
127.3032452773
  0
VERTEX
  8
SURFACE
 62
7
  6
CONTINUOUS
 10
153.9887796006
 20
127.2799344994
  0
VERTEX
  8
SURFACE
 62
7
  6
CONTINUOUS
 10
153.9486563972
 20
127.2540682229
  0
VERTEX
  8
SURFACE
 62
7
  6
CONTINUOUS
 10
153.9086806975
 20
127.2261579338
  0
VERTEX
  8
SURFACE
 62
7
  6
CONTINUOUS
 10
153.8686625975
 20
127.195818066
  0
SEQEND
  0
POLYLINE
  8
SURFACE
 62
7
  6
CONTINUOUS
 66
1
 70
0
  0
VERTEX
  8
SURFACE
 62
7
  6
CONTINUOUS
 10
157.6152497382
 20
128.2001813915
  0
VERTEX
  8
SURFACE
 62
7
  6
CONTINUOUS
 10
157.6141698421
 20
128.1996879853
  0
VERTEX
  8
SURFACE
 62
7
  6
CONTINUOUS
 10
157.6137697843
 20
128.199509583
  0
VERTEX
  8
SURFACE
 62
7
  6
CONTINUOUS
 10
157.6156509828
 20
128.2002556104
  0
VERTEX
  8
SURFACE
 62
7
  6
CONTINUOUS
 10
157.6197581818
 20
128.2017785723
  0
VERTEX
  8
SURFACE
 62
7
  6
CONTINUOUS
 10
157.6260699187
 20
128.2039666816
  0
VERTEX
  8
SURFACE
 62
7
  6
CONTINUOUS
 10
157.634526388
 20
128.2067129179
  0
VERTEX
  8
SURFACE
 62
7
  6
CONTINUOUS
 10
157.6451249143
 20
128.2099439732
  0
VERTEX
  8
SURFACE
 62
7
  6
CONTINUOUS
 10
157.6578312748
 20
128.2135876134
  0
VERTEX
  8
SURFACE
 62
7
  6
CONTINUOUS
 10
157.6726518578
 20
128.2175926346
  0
VERTEX
  8
SURFACE
 62
7
  6
CONTINUOUS
 10
157.6895711829
 20
128.221908632
  0
VERTEX
  8
SURFACE
 62
7
  6
CONTINUOUS
 10
157.7086038651
 20
128.2264987363
  0
VERTEX
  8
SURFACE
 62
7
  6
CONTINUOUS
 10
157.729748955
 20
128.2313266371
  0
VERTEX
  8
SURFACE
 62
7
  6
CONTINUOUS
 10
157.7530298158
 20
128.236365358
  0
VERTEX
  8
SURFACE
 62
7
  6
CONTINUOUS
 10
157.7784587739
 20
128.2415882943
  0
VERTEX
  8
SURFACE
 62
7
  6
CONTINUOUS
 10
157.8060597994
 20
128.2469737051
  0
VERTEX
  8
SURFACE
 62
7
  6
CONTINUOUS
 10
157.8358487853
 20
128.2525002417
  0
VERTEX
  8
SURFACE
 62
7
  6
CONTINUOUS
 10
157.8678539394
 20
128.2581505976
  0
VERTEX
  8
SURFACE
 62
7
  6
CONTINUOUS
 10
157.902096941
 20
128.2639076845
  0
VERTEX
  8
SURFACE
 62
7
  6
CONTINUOUS
 10
157.9386072145
 20
128.2697569484
  0
VERTEX
  8
SURFACE
 62
7
  6
CONTINUOUS
 10
157.977407129
 20
128.275683598
  0
VERTEX
  8
SURFACE
 62
7
  6
CONTINUOUS
 10
158.0185249936
 20
128.2816746398
  0
VERTEX
  8
SURFACE
 62
7
  6
CONTINUOUS
 10
158.0619849866
 20
128.2877172409
  0
VERTEX
  8
SURFACE
 62
7
  6
CONTINUOUS
 10
158.107813876
 20
128.2937996596
  0
VERTEX
  8
SURFACE
 62
7
  6
CONTINUOUS
 10
158.1560339254
 20
128.2999101254
  0
VERTEX
  8
SURFACE
 62
7
  6
CONTINUOUS
 10
158.2066687704
 20
128.3060374277
  0
VERTEX
  8
SURFACE
 62
7
  6
CONTINUOUS
 10
158.2597377874
 20
128.3121703311
  0
VERTEX
  8
SURFACE
 62
7
  6
CONTINUOUS
 10
158.31526258
 20
128.318298373
  0
VERTEX
  8
SURFACE
 62
7
  6
CONTINUOUS
 10
158.37326124
 20
128.3244111533
  0
VERTEX
  8
SURFACE
 62
7
  6
CONTINUOUS
 10
158.4337501802
 20
128.3304982845
  0
SEQEND
  0
POLYLINE
  8
0
 62
7
  6
CONTINUOUS
 66
1
 70
0
  0
VERTEX
  8
0
 62
7
  6
CONTINUOUS
 10
154.799310884
 20
153.3399736158
  0
VERTEX
  8
0
 62
7
  6
CONTINUOUS
 10
154.7932921485
 20
153.3385410305
  0
VERTEX
  8
0
 62
7
  6
CONTINUOUS
 10
154.7872940507
 20
153.3370741248
  0
VERTEX
  8
0
 62
7
  6
CONTINUOUS
 10
154.7813167672
 20
153.3355731711
  0
VERTEX
  8
0
 62
7
  6
CONTINUOUS
 10
154.7753604716
 20
153.3340384418
  0
VERTEX
  8
0
 62
7
  6
CONTINUOUS
 10
154.7694253346
 20
153.3324702101
  0
VERTEX
  8
0
 62
7
  6
CONTINUOUS
 10
154.7635115242
 20
153.3308687489
  0
VERTEX
  8
0
 62
7
  6
CONTINUOUS
 10
154.7576192053
 20
153.329234332
  0
VERTEX
  8
0
 62
7
  6
CONTINUOUS
 10
154.7517485402
 20
153.3275672329
  0
VERTEX
  8
0
 62
7
  6
CONTINUOUS
 10
154.745899688
 20
153.3258677255
  0
SEQEND
  0
POLYLINE
  8
0
 62
7
  6
CONTINUOUS
 66
1
 70
0
  0
VERTEX
  8
0
 62
7
  6
CONTINUOUS
 10
154.8605923724
 20
153.3523522525
  0
VERTEX
  8
0
 62
7
  6
CONTINUOUS
 10
154.8543776168
 20
153.3512777499
  0
VERTEX
  8
0
 62
7
  6
CONTINUOUS
 10
154.8481815714
 20
153.3501662293
  0
VERTEX
  8
0
 62
7
  6
CONTINUOUS
 10
154.8420044423
 20
153.3490179579
  0
VERTEX
  8
0
 62
7
  6
CONTINUOUS
 10
154.8358464327
 20
153.3478332038
  0
VERTEX
  8
0
 62
7
  6
CONTINUOUS
 10
154.8297077427
 20
153.3466122354
  0
VERTEX
  8
0
 62
7
  6
CONTINUOUS
 10
154.8235885695
 20
153.3453553218
  0
VERTEX
  8
0
 62
7
  6
CONTINUOUS
 10
154.8174891073
 20
153.3440627327
  0
VERTEX
  8
0
 62
7
  6
CONTINUOUS
 10
154.8114095473
 20
153.3427347382
  0
VERTEX
  8
0
 62
7
  6
CONTINUOUS
 10
154.8053500777
 20
153.3413716088
  0
SEQEND
  0
POLYLINE
  8
0
 62
7
  6
CONTINUOUS
 66
1
 70
0
  0
VERTEX
  8
0
 62
7
  6
CONTINUOUS
 10
154.9237215046
 20
153.3610029791
  0
VERTEX
  8
0
 62
7
  6
CONTINUOUS
 10
154.9173316415
 20
153.3603132016
  0
VERTEX
  8
0
 62
7
  6
CONTINUOUS
 10
154.9109582632
 20
153.3595837737
  0
VERTEX
  8
0
 62
7
  6
CONTINUOUS
 10
154.9046016053
 20
153.3588149546
  0
VERTEX
  8
0
 62
7
  6
CONTINUOUS
 10
154.8982619011
 20
153.3580070049
  0
VERTEX
  8
0
 62
7
  6
CONTINUOUS
 10
154.8919393802
 20
153.3571601857
  0
VERTEX
  8
0
 62
7
  6
CONTINUOUS
 10
154.8856342701
 20
153.3562747593
  0
VERTEX
  8
0
 62
7
  6
CONTINUOUS
 10
154.8793467946
 20
153.3553509887
  0
VERTEX
  8
0
 62
7
  6
CONTINUOUS
 10
154.8730771749
 20
153.3543891375
  0
SEQEND
  0
LINE
  8
0
 62
7
  6
CONTINUOUS
 10
164.5458422051
 20
152.9951020862
 11
164.4073934582
 21
152.9828448407
  0
LINE
  8
0
 62
7
  6
CONTINUOUS
 10
164.4073934582
 20
152.9828448407
 11
164.258136676
 21
152.9708711901
  0
LINE
  8
0
 62
7
  6
CONTINUOUS
 10
164.258136676
 20
152.9708711901
 11
164.0977016848
 21
152.9592472607
  0
LINE
  8
0
 62
7
  6
CONTINUOUS
 10
164.0977016848
 20
152.9592472607
 11
163.92570083
 21
152.9480441858
  0
LINE
  8
0
 62
7
  6
CONTINUOUS
 10
163.92570083
 20
152.9480441858
 11
163.7417602299
 21
152.937342122
  0
LINE
  8
0
 62
7
  6
CONTINUOUS
 10
163.7417602299
 20
152.937342122
 11
163.5455368162
 21
152.9272305822
  0
LINE
  8
0
 62
7
  6
CONTINUOUS
 10
163.5455368162
 20
152.9272305822
 11
163.3367103691
 21
152.917808721
  0
POLYLINE
  8
0
 62
7
  6
CONTINUOUS
 66
1
 70
0
  0
VERTEX
  8
0
 62
7
  6
CONTINUOUS
 10
154.9884731292
 20
153.3656636103
  0
VERTEX
  8
0
 62
7
  6
CONTINUOUS
 10
154.981931883
 20
153.3653843837
  0
VERTEX
  8
0
 62
7
  6
CONTINUOUS
 10
154.9754046834
 20
153.3650629704
  0
VERTEX
  8
0
 62
7
  6
CONTINUOUS
 10
154.9688917368
 20
153.3646996174
  0
VERTEX
  8
0
 62
7
  6
CONTINUOUS
 10
154.9623933084
 20
153.3642945753
  0
VERTEX
  8
0
 62
7
  6
CONTINUOUS
 10
154.9559096401
 20
153.3638480946
  0
VERTEX
  8
0
 62
7
  6
CONTINUOUS
 10
154.9494409883
 20
153.3633604277
  0
VERTEX
  8
0
 62
7
  6
CONTINUOUS
 10
154.9429876003
 20
153.3628318277
  0
VERTEX
  8
0
 62
7
  6
CONTINUOUS
 10
154.936549727
 20
153.3622625491
  0
SEQEND
  0
LINE
  8
0
 62
7
  6
CONTINUOUS
 10
163.3367103691
 20
152.917808721
 11
163.1149801836
 21
152.9091862924
  0
POLYLINE
  8
0
 62
7
  6
CONTINUOUS
 66
1
 70
0
  0
VERTEX
  8
0
 62
7
  6
CONTINUOUS
 10
155.0278918183
 20
153.3664380991
  0
VERTEX
  8
0
 62
7
  6
CONTINUOUS
 10
154.9630371756
 20
153.3643326773
  0
VERTEX
  8
0
 62
7
  6
CONTINUOUS
 10
154.8983127093
 20
153.358008672
  0
VERTEX
  8
0
 62
7
  6
CONTINUOUS
 10
154.8340160823
 20
153.347465815
  0
VERTEX
  8
0
 62
7
  6
CONTINUOUS
 10
154.7703964778
 20
153.3327192047
  0
VERTEX
  8
0
 62
7
  6
CONTINUOUS
 10
154.7076671791
 20
153.313781686
  0
VERTEX
  8
0
 62
7
  6
CONTINUOUS
 10
154.6462389402
 20
153.2907472302
  0
VERTEX
  8
0
 62
7
  6
CONTINUOUS
 10
154.5865008462
 20
153.2637570044
  0
VERTEX
  8
0
 62
7
  6
CONTINUOUS
 10
154.5286647646
 20
153.2329148809
  0
VERTEX
  8
0
 62
7
  6
CONTINUOUS
 10
154.4729818379
 20
153.1983550276
  0
VERTEX
  8
0
 62
7
  6
CONTINUOUS
 10
154.4196755666
 20
153.1602184231
  0
VERTEX
  8
0
 62
7
  6
CONTINUOUS
 10
154.3689553007
 20
153.1186470712
  0
VERTEX
  8
0
 62
7
  6
CONTINUOUS
 10
154.3210685002
 20
153.0738419991
  0
VERTEX
  8
0
 62
7
  6
CONTINUOUS
 10
154.2762506178
 20
153.026026315
  0
VERTEX
  8
0
 62
7
  6
CONTINUOUS
 10
154.2346577126
 20
152.9753758536
  0
VERTEX
  8
0
 62
7
  6
CONTINUOUS
 10
154.1964332958
 20
152.9220497112
  0
VERTEX
  8
0
 62
7
  6
CONTINUOUS
 10
154.1618034646
 20
152.8663610651
  0
VERTEX
  8
0
 62
7
  6
CONTINUOUS
 10
154.1309681348
 20
152.8086613765
  0
VERTEX
  8
0
 62
7
  6
CONTINUOUS
 10
154.1039834218
 20
152.7491032538
  0
VERTEX
  8
0
 62
7
  6
CONTINUOUS
 10
154.0809296952
 20
152.6878496538
  0
VERTEX
  8
0
 62
7
  6
CONTINUOUS
 10
154.0619268747
 20
152.6252005327
  0
VERTEX
  8
0
 62
7
  6
CONTINUOUS
 10
154.047064719
 20
152.5614373651
  0
VERTEX
  8
0
 62
7
  6
CONTINUOUS
 10
154.0364079564
 20
152.4968755346
  0
VERTEX
  8
0
 62
7
  6
CONTINUOUS
 10
154.0300045823
 20
152.43181282
  0
VERTEX
  8
0
 62
7
  6
CONTINUOUS
 10
154.0278609839
 20
152.366409159
  0
SEQEND
  0
LINE
  8
0
 62
7
  6
CONTINUOUS
 10
163.1149801836
 20
152.9091862924
 11
162.8801212474
 21
152.9014856532
  0
LINE
  8
0
 62
7
  6
CONTINUOUS
 10
162.8801212474
 20
152.9014856532
 11
162.6320226372
 21
152.8948444896
  0
LINE
  8
0
 62
7
  6
CONTINUOUS
 10
162.6320226372
 20
152.8948444896
 11
162.3707292399
 21
152.8894147487
  0
LINE
  8
0
 62
7
  6
CONTINUOUS
 10
162.3707292399
 20
152.8894147487
 11
162.096468744
 21
152.8853631664
  0
POLYLINE
  8
0
 62
7
  6
CONTINUOUS
 66
1
 70
0
  0
VERTEX
  8
0
 62
7
  6
CONTINUOUS
 10
155.0213796594
 20
153.3664182564
  0
VERTEX
  8
0
 62
7
  6
CONTINUOUS
 10
155.0147755228
 20
153.3663537137
  0
VERTEX
  8
0
 62
7
  6
CONTINUOUS
 10
155.0081803119
 20
153.36624572
  0
VERTEX
  8
0
 62
7
  6
CONTINUOUS
 10
155.0015968579
 20
153.366094512
  0
SEQEND
  0
LINE
  8
0
 62
7
  6
CONTINUOUS
 10
162.096468744
 20
152.8853631664
 11
161.809628797
 21
152.8828698875
  0
LINE
  8
0
 62
7
  6
CONTINUOUS
 10
161.809628797
 20
152.8828698875
 11
161.5128609839
 21
152.88211951
  0
LINE
  8
0
 62
7
  6
CONTINUOUS
 10
155.0213796594
 20
153.3664182564
 11
168.5278609839
 21
153.3664391897
  0
LINE
  8
0
 62
7
  6
CONTINUOUS
 10
161.5128609839
 20
152.8821194637
 11
161.2471540842
 21
152.8828639209
  0
LINE
  8
0
 62
7
  6
CONTINUOUS
 10
161.2471540842
 20
152.8828639209
 11
160.9586273331
 21
152.885370539
  0
LINE
  8
0
 62
7
  6
CONTINUOUS
 10
160.9586273331
 20
152.885370539
 11
160.6828264007
 21
152.8894533766
  0
LINE
  8
0
 62
7
  6
CONTINUOUS
 10
160.6828264007
 20
152.8894533766
 11
160.4201459731
 21
152.8949292102
  0
LINE
  8
0
 62
7
  6
CONTINUOUS
 10
160.4201459731
 20
152.8949292102
 11
160.1708180399
 21
152.901628443
  0
LINE
  8
0
 62
7
  6
CONTINUOUS
 10
160.1708180399
 20
152.901628443
 11
159.9348865351
 21
152.9093966539
  0
LINE
  8
0
 62
7
  6
CONTINUOUS
 10
159.9348865351
 20
152.9093966539
 11
159.7122369958
 21
152.9180939783
  0
LINE
  8
0
 62
7
  6
CONTINUOUS
 10
159.7122369958
 20
152.9180939783
 11
159.5026388476
 21
152.9275961321
  0
LINE
  8
0
 62
7
  6
CONTINUOUS
 10
159.5026388476
 20
152.9275961321
 11
159.3057847201
 21
152.9377917951
  0
LINE
  8
0
 62
7
  6
CONTINUOUS
 10
159.3057847201
 20
152.9377917951
 11
159.1213438438
 21
152.9485805308
  0
LINE
  8
0
 62
7
  6
CONTINUOUS
 10
159.1213438438
 20
152.9485805308
 11
158.9489577422
 21
152.9598722969
  0
LINE
  8
0
 62
7
  6
CONTINUOUS
 10
158.9489577422
 20
152.9598722969
 11
158.7882392576
 21
152.9715864978
  0
LINE
  8
0
 62
7
  6
CONTINUOUS
 10
158.7882392576
 20
152.9715864978
 11
158.6387882511
 21
152.9836520187
  0
POLYLINE
  8
0
 62
7
  6
CONTINUOUS
 66
1
 70
0
  0
VERTEX
  8
0
 62
7
  6
CONTINUOUS
 10
158.6387882511
 20
152.9836520187
  0
VERTEX
  8
0
 62
7
  6
CONTINUOUS
 10
158.500234815
 20
152.9960017798
  0
VERTEX
  8
0
 62
7
  6
CONTINUOUS
 10
158.4349911528
 20
153.0022581263
  0
VERTEX
  8
0
 62
7
  6
CONTINUOUS
 10
158.3724244303
 20
153.0085534435
  0
VERTEX
  8
0
 62
7
  6
CONTINUOUS
 10
158.3125211487
 20
153.0148760323
  0
VERTEX
  8
0
 62
7
  6
CONTINUOUS
 10
158.2552678747
 20
153.0212138632
  0
VERTEX
  8
0
 62
7
  6
CONTINUOUS
 10
158.200644824
 20
153.0275552911
  0
VERTEX
  8
0
 62
7
  6
CONTINUOUS
 10
158.1486320989
 20
153.0338880932
  0
VERTEX
  8
0
 62
7
  6
CONTINUOUS
 10
158.099205327
 20
153.0401999655
  0
VERTEX
  8
0
 62
7
  6
CONTINUOUS
 10
158.0523434389
 20
153.0464775877
  0
VERTEX
  8
0
 62
7
  6
CONTINUOUS
 10
158.0080177333
 20
153.0527081413
  0
VERTEX
  8
0
 62
7
  6
CONTINUOUS
 10
157.9662034537
 20
153.0588774969
  0
VERTEX
  8
0
 62
7
  6
CONTINUOUS
 10
157.9268678584
 20
153.0649718116
  0
VERTEX
  8
0
 62
7
  6
CONTINUOUS
 10
157.8899934583
 20
153.0709738577
  0
VERTEX
  8
0
 62
7
  6
CONTINUOUS
 10
157.8555517286
 20
153.0768669379
  0
VERTEX
  8
0
 62
7
  6
CONTINUOUS
 10
157.823520512
 20
153.0826319366
  0
VERTEX
  8
0
 62
7
  6
CONTINUOUS
 10
157.7938699528
 20
153.0882494363
  0
VERTEX
  8
0
 62
7
  6
CONTINUOUS
 10
157.7665763098
 20
153.0936970323
  0
VERTEX
  8
0
 62
7
  6
CONTINUOUS
 10
157.7416126934
 20
153.0989507589
  0
VERTEX
  8
0
 62
7
  6
CONTINUOUS
 10
157.7189430175
 20
153.1039863313
  0
VERTEX
  8
0
 62
7
  6
CONTINUOUS
 10
157.6985287618
 20
153.108777698
  0
VERTEX
  8
0
 62
7
  6
CONTINUOUS
 10
157.6803431217
 20
153.1132932312
  0
VERTEX
  8
0
 62
7
  6
CONTINUOUS
 10
157.664349489
 20
153.1175003209
  0
VERTEX
  8
0
 62
7
  6
CONTINUOUS
 10
157.6505439735
 20
153.1213534207
  0
VERTEX
  8
0
 62
7
  6
CONTINUOUS
 10
157.6389035408
 20
153.124806443
  0
VERTEX
  8
0
 62
7
  6
CONTINUOUS
 10
157.6294465894
 20
153.127793684
  0
VERTEX
  8
0
 62
7
  6
CONTINUOUS
 10
157.6221616391
 20
153.1302490814
  0
VERTEX
  8
0
 62
7
  6
CONTINUOUS
 10
157.6170986789
 20
153.1320736692
  0
VERTEX
  8
0
 62
7
  6
CONTINUOUS
 10
157.6152387304
 20
153.1327823722
  0
SEQEND
  0
POLYLINE
  8
0
 62
7
  6
CONTINUOUS
 66
1
 70
0
  0
VERTEX
  8
0
 62
7
  6
CONTINUOUS
 10
153.8304770698
 20
154.1685373292
  0
VERTEX
  8
0
 62
7
  6
CONTINUOUS
 10
153.8704710073
 20
154.1356332741
  0
VERTEX
  8
0
 62
7
  6
CONTINUOUS
 10
153.9103069675
 20
154.1055401754
  0
VERTEX
  8
0
 62
7
  6
CONTINUOUS
 10
153.9500662323
 20
154.0778662206
  0
VERTEX
  8
0
 62
7
  6
CONTINUOUS
 10
153.9899544127
 20
154.0522165616
  0
VERTEX
  8
0
 62
7
  6
CONTINUOUS
 10
154.0278609839
 20
154.0296517295
  0
SEQEND
  0
LINE
  8
0
 62
7
  6
CONTINUOUS
 10
154.0278609839
 20
156.4550080454
 11
150.1216840356
 21
156.5572948886
  0
POLYLINE
  8
0
 62
7
  6
CONTINUOUS
 66
1
 70
0
  0
VERTEX
  8
0
 62
7
  6
CONTINUOUS
 10
153.5500682939
 20
156.4675172328
  0
VERTEX
  8
0
 62
7
  6
CONTINUOUS
 10
153.5702727213
 20
156.4666611787
  0
VERTEX
  8
0
 62
7
  6
CONTINUOUS
 10
153.6074197337
 20
156.4633137059
  0
VERTEX
  8
0
 62
7
  6
CONTINUOUS
 10
153.6440752466
 20
156.457615472
  0
VERTEX
  8
0
 62
7
  6
CONTINUOUS
 10
153.6799011126
 20
156.449553707
  0
VERTEX
  8
0
 62
7
  6
CONTINUOUS
 10
153.7147637222
 20
156.4391336958
  0
VERTEX
  8
0
 62
7
  6
CONTINUOUS
 10
153.7485590458
 20
156.4263735835
  0
VERTEX
  8
0
 62
7
  6
CONTINUOUS
 10
153.781348121
 20
156.4112290357
  0
VERTEX
  8
0
 62
7
  6
CONTINUOUS
 10
153.8127067182
 20
156.3939096726
  0
VERTEX
  8
0
 62
7
  6
CONTINUOUS
 10
153.8424227787
 20
156.3746045022
  0
VERTEX
  8
0
 62
7
  6
CONTINUOUS
 10
153.8699124445
 20
156.3538635047
  0
VERTEX
  8
0
 62
7
  6
CONTINUOUS
 10
153.8946072819
 20
156.3324676866
  0
VERTEX
  8
0
 62
7
  6
CONTINUOUS
 10
153.9166908245
 20
156.3106834352
  0
VERTEX
  8
0
 62
7
  6
CONTINUOUS
 10
153.9361146442
 20
156.2890024561
  0
VERTEX
  8
0
 62
7
  6
CONTINUOUS
 10
153.9531806181
 20
156.2675390804
  0
VERTEX
  8
0
 62
7
  6
CONTINUOUS
 10
153.9680689049
 20
156.2464678764
  0
VERTEX
  8
0
 62
7
  6
CONTINUOUS
 10
153.9810017685
 20
156.225846243
  0
VERTEX
  8
0
 62
7
  6
CONTINUOUS
 10
153.992231337
 20
156.2055905117
  0
VERTEX
  8
0
 62
7
  6
CONTINUOUS
 10
154.0017042736
 20
156.1861287147
  0
VERTEX
  8
0
 62
7
  6
CONTINUOUS
 10
154.0094824342
 20
156.1677589784
  0
VERTEX
  8
0
 62
7
  6
CONTINUOUS
 10
154.015651417
 20
156.1508019838
  0
VERTEX
  8
0
 62
7
  6
CONTINUOUS
 10
154.0203429941
 20
156.1355406858
  0
SEQEND
  0
POLYLINE
  8
0
 62
7
  6
CONTINUOUS
 66
1
 70
0
  0
VERTEX
  8
0
 62
7
  6
CONTINUOUS
 10
151.2430959933
 20
156.5279295964
  0
VERTEX
  8
0
 62
7
  6
CONTINUOUS
 10
151.3019839166
 20
156.5246476862
  0
VERTEX
  8
0
 62
7
  6
CONTINUOUS
 10
151.3610777761
 20
156.5178268474
  0
VERTEX
  8
0
 62
7
  6
CONTINUOUS
 10
151.419661536
 20
156.5075043579
  0
VERTEX
  8
0
 62
7
  6
CONTINUOUS
 10
151.4775278862
 20
156.4937167422
  0
VERTEX
  8
0
 62
7
  6
CONTINUOUS
 10
151.5344720551
 20
156.4765127875
  0
VERTEX
  8
0
 62
7
  6
CONTINUOUS
 10
151.5902925411
 20
156.4559533687
  0
VERTEX
  8
0
 62
7
  6
CONTINUOUS
 10
151.6447918172
 20
156.4321112343
  0
VERTEX
  8
0
 62
7
  6
CONTINUOUS
 10
151.6977770295
 20
156.4050707498
  0
VERTEX
  8
0
 62
7
  6
CONTINUOUS
 10
151.7490606816
 20
156.3749275987
  0
VERTEX
  8
0
 62
7
  6
CONTINUOUS
 10
151.7984612984
 20
156.3417884436
  0
VERTEX
  8
0
 62
7
  6
CONTINUOUS
 10
151.845804068
 20
156.3057705491
  0
VERTEX
  8
0
 62
7
  6
CONTINUOUS
 10
151.8909214601
 20
156.2670013666
  0
VERTEX
  8
0
 62
7
  6
CONTINUOUS
 10
151.9336538189
 20
156.2256180837
  0
VERTEX
  8
0
 62
7
  6
CONTINUOUS
 10
151.9541962644
 20
156.2038625411
  0
SEQEND
  0
LINE
  8
0
 62
7
  6
CONTINUOUS
 10
153.5605675717
 20
162.1164391897
 11
164.5478609839
 21
162.1164391897
  0
LINE
  8
0
 62
7
  6
CONTINUOUS
 10
150.1478609839
 20
171.4164391897
 11
152.1478609839
 21
171.4164391897
  0
LINE
  8
0
 62
7
  6
CONTINUOUS
 10
165.0478609839
 20
235.8914391897
 11
168.0278855006
 21
235.8914391897
  0
POLYLINE
  8
SURFACE
 62
7
  6
CONTINUOUS
 66
1
 70
0
  0
VERTEX
  8
SURFACE
 62
7
  6
CONTINUOUS
 10
46.4315994452
 20
264.5805132089
  0
VERTEX
  8
SURFACE
 62
7
  6
CONTINUOUS
 10
46.4359247748
 20
264.4017886481
  0
VERTEX
  8
SURFACE
 62
7
  6
CONTINUOUS
 10
46.4489581964
 20
264.2228188369
  0
VERTEX
  8
SURFACE
 62
7
  6
CONTINUOUS
 10
46.4707779249
 20
264.0439552034
  0
VERTEX
  8
SURFACE
 62
7
  6
CONTINUOUS
 10
46.5013931264
 20
263.8658818324
  0
VERTEX
  8
SURFACE
 62
7
  6
CONTINUOUS
 10
46.5407628319
 20
263.6892029016
  0
VERTEX
  8
SURFACE
 62
7
  6
CONTINUOUS
 10
46.5887952443
 20
263.5145061817
  0
VERTEX
  8
SURFACE
 62
7
  6
CONTINUOUS
 10
46.6453380791
 20
263.3423960827
  0
VERTEX
  8
SURFACE
 62
7
  6
CONTINUOUS
 10
46.7102227
 20
263.1733656995
  0
VERTEX
  8
SURFACE
 62
7
  6
CONTINUOUS
 10
46.7831993787
 20
263.0079923792
  0
VERTEX
  8
SURFACE
 62
7
  6
CONTINUOUS
 10
46.8641213152
 20
262.8465347174
  0
VERTEX
  8
SURFACE
 62
7
  6
CONTINUOUS
 10
46.9528022448
 20
262.689329283
  0
VERTEX
  8
SURFACE
 62
7
  6
CONTINUOUS
 10
47.0490617084
 20
262.5366834235
  0
VERTEX
  8
SURFACE
 62
7
  6
CONTINUOUS
 10
47.1527340998
 20
262.3888745372
  0
VERTEX
  8
SURFACE
 62
7
  6
CONTINUOUS
 10
47.263551467
 20
262.2463064399
  0
VERTEX
  8
SURFACE
 62
7
  6
CONTINUOUS
 10
47.3812534341
 20
262.1093287273
  0
VERTEX
  8
SURFACE
 62
7
  6
CONTINUOUS
 10
47.5055376076
 20
261.9783030732
  0
VERTEX
  8
SURFACE
 62
7
  6
CONTINUOUS
 10
47.6360868371
 20
261.8535665459
  0
VERTEX
  8
SURFACE
 62
7
  6
CONTINUOUS
 10
47.7725656406
 20
261.7354368988
  0
VERTEX
  8
SURFACE
 62
7
  6
CONTINUOUS
 10
47.9146133844
 20
261.6242176924
  0
VERTEX
  8
SURFACE
 62
7
  6
CONTINUOUS
 10
48.0618835172
 20
261.5201688998
  0
VERTEX
  8
SURFACE
 62
7
  6
CONTINUOUS
 10
48.2139753498
 20
261.423558653
  0
VERTEX
  8
SURFACE
 62
7
  6
CONTINUOUS
 10
48.3706136813
 20
261.3345530411
  0
VERTEX
  8
SURFACE
 62
7
  6
CONTINUOUS
 10
48.531495608
 20
261.2533322728
  0
VERTEX
  8
SURFACE
 62
7
  6
CONTINUOUS
 10
48.6962815061
 20
261.1800862813
  0
VERTEX
  8
SURFACE
 62
7
  6
CONTINUOUS
 10
48.8647117381
 20
261.1149634859
  0
VERTEX
  8
SURFACE
 62
7
  6
CONTINUOUS
 10
49.0362058381
 20
261.0582161931
  0
VERTEX
  8
SURFACE
 62
7
  6
CONTINUOUS
 10
49.2102659666
 20
261.0100144602
  0
VERTEX
  8
SURFACE
 62
7
  6
CONTINUOUS
 10
49.3862905851
 20
260.9705093108
  0
VERTEX
  8
SURFACE
 62
7
  6
CONTINUOUS
 10
49.56369153
 20
260.9397916153
  0
VERTEX
  8
SURFACE
 62
7
  6
CONTINUOUS
 10
49.7418706331
 20
260.9179003012
  0
VERTEX
  8
SURFACE
 62
7
  6
CONTINUOUS
 10
49.9201497783
 20
260.9048246691
  0
VERTEX
  8
SURFACE
 62
7
  6
CONTINUOUS
 10
50.0981538404
 20
260.9004854052
  0
SEQEND
  0
LINE
  8
SURFACE
 62
7
  6
CONTINUOUS
 10
46.9528701455
 20
264.6104854052
 11
46.9528701455
 21
264.5804854052
  0
LINE
  8
DEFAULT_1
 62
7
  6
CENTER
 10
50.6478701455
 20
268.9954854052
 11
50.6478701455
 21
266.5955854052
  0
LINE
  8
0
 62
2
  6
CONTINUOUS
 10
50.6478701455
 20
265.4754854052
 11
50.6478701455
 21
263.7154854052
  0
LINE
  8
DEFAULT_1
 62
7
  6
CENTER
 10
50.6478701455
 20
260.1954854052
 11
50.6478701455
 21
262.5953854052
  0
LINE
  8
SURFACE
 62
7
  6
CONTINUOUS
 10
55.7908173328
 20
271.2992421953
 11
55.7008105853
 21
271.2346522995
  0
LINE
  8
SURFACE
 62
7
  6
CONTINUOUS
 10
55.909403442
 20
271.3834082754
 11
55.7908173328
 21
271.2992421953
  0
LINE
  8
SURFACE
 62
7
  6
CONTINUOUS
 10
56.0192250031
 20
271.460439859
 11
55.909403442
 21
271.3834082754
  0
POLYLINE
  8
SURFACE
 62
7
  6
CONTINUOUS
 66
1
 70
0
  0
VERTEX
  8
SURFACE
 62
7
  6
CONTINUOUS
 10
56.1989079343
 20
271.5846532526
  0
VERTEX
  8
SURFACE
 62
7
  6
CONTINUOUS
 10
56.1940005115
 20
271.5812268934
  0
VERTEX
  8
SURFACE
 62
7
  6
CONTINUOUS
 10
56.1862487828
 20
271.5759738853
  0
VERTEX
  8
SURFACE
 62
7
  6
CONTINUOUS
 10
56.1305934545
 20
271.5376875821
  0
SEQEND
  0
LINE
  8
SURFACE
 62
7
  6
CONTINUOUS
 10
56.1305934545
 20
271.5376875821
 11
56.0192250031
 21
271.460439859
  0
LINE
  8
0
 62
7
  6
CONTINUOUS
 10
54.3428701455
 20
264.6104854052
 11
54.3428701455
 21
264.5804854052
  0
POLYLINE
  8
SURFACE
 62
7
  6
CONTINUOUS
 66
1
 70
0
  0
VERTEX
  8
SURFACE
 62
7
  6
CONTINUOUS
 10
55.5222109959
 20
264.6104572248
  0
VERTEX
  8
SURFACE
 62
7
  6
CONTINUOUS
 10
55.5178730588
 20
264.7885990577
  0
VERTEX
  8
SURFACE
 62
7
  6
CONTINUOUS
 10
55.5047972733
 20
264.967018888
  0
VERTEX
  8
SURFACE
 62
7
  6
CONTINUOUS
 10
55.4829012294
 20
265.1453686028
  0
VERTEX
  8
SURFACE
 62
7
  6
CONTINUOUS
 10
55.452171119
 20
265.3229684493
  0
VERTEX
  8
SURFACE
 62
7
  6
CONTINUOUS
 10
55.4126422606
 20
265.4992180292
  0
VERTEX
  8
SURFACE
 62
7
  6
CONTINUOUS
 10
55.3644026876
 20
265.6735317124
  0
VERTEX
  8
SURFACE
 62
7
  6
CONTINUOUS
 10
55.3075997519
 20
265.84530707
  0
VERTEX
  8
SURFACE
 62
7
  6
CONTINUOUS
 10
55.2423986938
 20
266.0140520993
  0
VERTEX
  8
SURFACE
 62
7
  6
CONTINUOUS
 10
55.169046275
 20
266.1791881979
  0
VERTEX
  8
SURFACE
 62
7
  6
CONTINUOUS
 10
55.0876828325
 20
266.3404626219
  0
VERTEX
  8
SURFACE
 62
7
  6
CONTINUOUS
 10
54.9984885668
 20
266.4975412344
  0
VERTEX
  8
SURFACE
 62
7
  6
CONTINUOUS
 10
54.9016360937
 20
266.6501205352
  0
VERTEX
  8
SURFACE
 62
7
  6
CONTINUOUS
 10
54.7972811798
 20
266.7979269825
  0
VERTEX
  8
SURFACE
 62
7
  6
CONTINUOUS
 10
54.6856877042
 20
266.9405522733
  0
VERTEX
  8
SURFACE
 62
7
  6
CONTINUOUS
 10
54.5671098947
 20
267.0776441417
  0
VERTEX
  8
SURFACE
 62
7
  6
CONTINUOUS
 10
54.4418477974
 20
267.208834592
  0
VERTEX
  8
SURFACE
 62
7
  6
CONTINUOUS
 10
54.3102164469
 20
267.333779972
  0
VERTEX
  8
SURFACE
 62
7
  6
CONTINUOUS
 10
54.1725481497
 20
267.4521577239
  0
VERTEX
  8
SURFACE
 62
7
  6
CONTINUOUS
 10
54.0292003669
 20
267.5636588001
  0
VERTEX
  8
SURFACE
 62
7
  6
CONTINUOUS
 10
53.8805203974
 20
267.6680149632
  0
VERTEX
  8
SURFACE
 62
7
  6
CONTINUOUS
 10
53.7269079859
 20
267.7649512901
  0
VERTEX
  8
SURFACE
 62
7
  6
CONTINUOUS
 10
53.5686448999
 20
267.8542904168
  0
VERTEX
  8
SURFACE
 62
7
  6
CONTINUOUS
 10
53.4060406918
 20
267.9358424919
  0
VERTEX
  8
SURFACE
 62
7
  6
CONTINUOUS
 10
53.2394406809
 20
268.0094098573
  0
VERTEX
  8
SURFACE
 62
7
  6
CONTINUOUS
 10
53.0691126772
 20
268.0748359989
  0
VERTEX
  8
SURFACE
 62
7
  6
CONTINUOUS
 10
52.8956415287
 20
268.1318637059
  0
VERTEX
  8
SURFACE
 62
7
  6
CONTINUOUS
 10
52.7195305883
 20
268.180317286
  0
VERTEX
  8
SURFACE
 62
7
  6
CONTINUOUS
 10
52.5413893554
 20
268.2200399562
  0
VERTEX
  8
SURFACE
 62
7
  6
CONTINUOUS
 10
52.361813606
 20
268.2509354169
  0
VERTEX
  8
SURFACE
 62
7
  6
CONTINUOUS
 10
52.1814112782
 20
268.2729593726
  0
VERTEX
  8
SURFACE
 62
7
  6
CONTINUOUS
 10
52.000873626
 20
268.2861176676
  0
VERTEX
  8
SURFACE
 62
7
  6
CONTINUOUS
 10
51.8205515611
 20
268.2904854051
  0
SEQEND
  0
LINE
  8
SURFACE
 62
7
  6
CONTINUOUS
 10
67.6478701334
 20
252.2154854052
 11
89.6831775816
 21
252.2154854052
  0
LINE
  8
SURFACE
 62
7
  6
CONTINUOUS
 10
85.3530355954
 20
256.2154854052
 11
71.0865684003
 21
256.2154854052
  0
LINE
  8
SURFACE
 62
7
  6
CONTINUOUS
 10
66.6478701455
 20
256.0954857544
 11
66.6478701455
 21
253.2154851557
  0
LINE
  8
SURFACE
 62
7
  6
CONTINUOUS
 10
50.6478701455
 20
257.0954854052
 11
65.6478703231
 21
257.0954854052
  0
LINE
  8
DEFAULT_1
 62
7
  6
CENTER
 10
69.6978701455
 20
246.2154854052
 11
69.6978701455
 21
275.0954854052
  0
POLYLINE
  8
SURFACE
 62
7
  6
CONTINUOUS
 66
1
 70
0
  0
VERTEX
  8
SURFACE
 62
7
  6
CONTINUOUS
 10
51.8205516107
 20
260.9004854053
  0
VERTEX
  8
SURFACE
 62
7
  6
CONTINUOUS
 10
52.000873706
 20
260.9048531467
  0
VERTEX
  8
SURFACE
 62
7
  6
CONTINUOUS
 10
52.181411376
 20
260.9180114473
  0
VERTEX
  8
SURFACE
 62
7
  6
CONTINUOUS
 10
52.3618137057
 20
260.9400354081
  0
VERTEX
  8
SURFACE
 62
7
  6
CONTINUOUS
 10
52.5413894506
 20
260.970930873
  0
VERTEX
  8
SURFACE
 62
7
  6
CONTINUOUS
 10
52.7195306818
 20
261.0106535477
  0
VERTEX
  8
SURFACE
 62
7
  6
CONTINUOUS
 10
52.8956416202
 20
261.0591071321
  0
VERTEX
  8
SURFACE
 62
7
  6
CONTINUOUS
 10
53.0691127664
 20
261.1161348433
  0
VERTEX
  8
SURFACE
 62
7
  6
CONTINUOUS
 10
53.2394407676
 20
261.1815609889
  0
VERTEX
  8
SURFACE
 62
7
  6
CONTINUOUS
 10
53.4060407757
 20
261.255128358
  0
VERTEX
  8
SURFACE
 62
7
  6
CONTINUOUS
 10
53.5686449811
 20
261.3366804368
  0
VERTEX
  8
SURFACE
 62
7
  6
CONTINUOUS
 10
53.7269080641
 20
261.426019567
  0
VERTEX
  8
SURFACE
 62
7
  6
CONTINUOUS
 10
53.8805204725
 20
261.5229558971
  0
VERTEX
  8
SURFACE
 62
7
  6
CONTINUOUS
 10
54.0292004388
 20
261.6273120634
  0
VERTEX
  8
SURFACE
 62
7
  6
CONTINUOUS
 10
54.1725482182
 20
261.7388131425
  0
VERTEX
  8
SURFACE
 62
7
  6
CONTINUOUS
 10
54.3102165119
 20
261.8571908971
  0
VERTEX
  8
SURFACE
 62
7
  6
CONTINUOUS
 10
54.4418478589
 20
261.9821362796
  0
VERTEX
  8
SURFACE
 62
7
  6
CONTINUOUS
 10
54.5671099525
 20
262.1133267322
  0
VERTEX
  8
SURFACE
 62
7
  6
CONTINUOUS
 10
54.6856877582
 20
262.2504186028
  0
VERTEX
  8
SURFACE
 62
7
  6
CONTINUOUS
 10
54.79728123
 20
262.3930438954
  0
VERTEX
  8
SURFACE
 62
7
  6
CONTINUOUS
 10
54.90163614
 20
262.5408503444
  0
VERTEX
  8
SURFACE
 62
7
  6
CONTINUOUS
 10
54.9984886093
 20
262.6934296466
  0
VERTEX
  8
SURFACE
 62
7
  6
CONTINUOUS
 10
55.087682871
 20
262.8505082604
  0
VERTEX
  8
SURFACE
 62
7
  6
CONTINUOUS
 10
55.1690463096
 20
263.0117826855
  0
VERTEX
  8
SURFACE
 62
7
  6
CONTINUOUS
 10
55.2423987245
 20
263.1769187849
  0
VERTEX
  8
SURFACE
 62
7
  6
CONTINUOUS
 10
55.3075997786
 20
263.3456638149
  0
VERTEX
  8
SURFACE
 62
7
  6
CONTINUOUS
 10
55.3644027103
 20
263.517439173
  0
VERTEX
  8
SURFACE
 62
7
  6
CONTINUOUS
 10
55.4126422794
 20
263.6917528563
  0
VERTEX
  8
SURFACE
 62
7
  6
CONTINUOUS
 10
55.4521711339
 20
263.8680024362
  0
VERTEX
  8
SURFACE
 62
7
  6
CONTINUOUS
 10
55.4829012408
 20
264.0456022846
  0
VERTEX
  8
SURFACE
 62
7
  6
CONTINUOUS
 10
55.5047972805
 20
264.2239519966
  0
VERTEX
  8
SURFACE
 62
7
  6
CONTINUOUS
 10
55.5178730617
 20
264.4023718125
  0
VERTEX
  8
SURFACE
 62
7
  6
CONTINUOUS
 10
55.5222109959
 20
264.5805136217
  0
SEQEND
  0
POLYLINE
  8
0
 62
7
  6
CONTINUOUS
 66
1
 70
0
  0
VERTEX
  8
0
 62
7
  6
CONTINUOUS
 10
50.6458497972
 20
260.9004854052
  0
VERTEX
  8
0
 62
7
  6
CONTINUOUS
 10
50.8052569724
 20
260.9039077549
  0
VERTEX
  8
0
 62
7
  6
CONTINUOUS
 10
50.9645501502
 20
260.9141843881
  0
VERTEX
  8
0
 62
7
  6
CONTINUOUS
 10
51.1234097094
 20
260.9313167846
  0
VERTEX
  8
0
 62
7
  6
CONTINUOUS
 10
51.2816103986
 20
260.9553065784
  0
VERTEX
  8
0
 62
7
  6
CONTINUOUS
 10
51.438892909
 20
260.9861481736
  0
VERTEX
  8
0
 62
7
  6
CONTINUOUS
 10
51.5950272904
 20
261.0238383226
  0
VERTEX
  8
0
 62
7
  6
CONTINUOUS
 10
51.7498164584
 20
261.0683844003
  0
VERTEX
  8
0
 62
7
  6
CONTINUOUS
 10
51.9028809822
 20
261.1197357327
  0
VERTEX
  8
0
 62
7
  6
CONTINUOUS
 10
52.0539418751
 20
261.1778554388
  0
VERTEX
  8
0
 62
7
  6
CONTINUOUS
 10
52.2025067309
 20
261.242599919
  0
VERTEX
  8
0
 62
7
  6
CONTINUOUS
 10
52.3481565701
 20
261.3138093818
  0
VERTEX
  8
0
 62
7
  6
CONTINUOUS
 10
52.4904650831
 20
261.3912766991
  0
VERTEX
  8
0
 62
7
  6
CONTINUOUS
 10
52.6289506018
 20
261.4747103965
  0
VERTEX
  8
0
 62
7
  6
CONTINUOUS
 10
52.7634766694
 20
261.5639888544
  0
VERTEX
  8
0
 62
7
  6
CONTINUOUS
 10
52.8937620907
 20
261.6588915839
  0
VERTEX
  8
0
 62
7
  6
CONTINUOUS
 10
53.0197940774
 20
261.759393492
  0
VERTEX
  8
0
 62
7
  6
CONTINUOUS
 10
53.1416024253
 20
261.8655565805
  0
VERTEX
  8
0
 62
7
  6
CONTINUOUS
 10
53.2586980058
 20
261.9769993527
  0
VERTEX
  8
0
 62
7
  6
CONTINUOUS
 10
53.3707545375
 20
262.0934181285
  0
VERTEX
  8
0
 62
7
  6
CONTINUOUS
 10
53.4774609973
 20
262.2144687452
  0
VERTEX
  8
0
 62
7
  6
CONTINUOUS
 10
53.5784268156
 20
262.3396383331
  0
VERTEX
  8
0
 62
7
  6
CONTINUOUS
 10
53.6737469071
 20
262.4689784644
  0
VERTEX
  8
0
 62
7
  6
CONTINUOUS
 10
53.763424104
 20
262.6025027259
  0
VERTEX
  8
0
 62
7
  6
CONTINUOUS
 10
53.8472296836
 20
262.7399102807
  0
VERTEX
  8
0
 62
7
  6
CONTINUOUS
 10
53.9250424497
 20
262.8810510421
  0
VERTEX
  8
0
 62
7
  6
CONTINUOUS
 10
53.9965818958
 20
263.0254503782
  0
VERTEX
  8
0
 62
7
  6
CONTINUOUS
 10
54.0616346385
 20
263.1726514093
  0
VERTEX
  8
0
 62
7
  6
CONTINUOUS
 10
54.1200908429
 20
263.3223390197
  0
VERTEX
  8
0
 62
7
  6
CONTINUOUS
 10
54.1717945957
 20
263.473994514
  0
VERTEX
  8
0
 62
7
  6
CONTINUOUS
 10
54.2168154298
 20
263.6277274869
  0
VERTEX
  8
0
 62
7
  6
CONTINUOUS
 10
54.2551655478
 20
263.783671764
  0
VERTEX
  8
0
 62
7
  6
CONTINUOUS
 10
54.2866750605
 20
263.9412962041
  0
VERTEX
  8
0
 62
7
  6
CONTINUOUS
 10
54.3112560277
 20
264.1002589458
  0
VERTEX
  8
0
 62
7
  6
CONTINUOUS
 10
54.3288306241
 20
264.2600796223
  0
VERTEX
  8
0
 62
7
  6
CONTINUOUS
 10
54.3393631194
 20
264.4202330599
  0
VERTEX
  8
0
 62
7
  6
CONTINUOUS
 10
54.3428701455
 20
264.5804854052
  0
SEQEND
  0
LINE
  8
DEFAULT_1
 62
7
  6
CENTER
 10
93.1478701455
 20
264.5954854052
 11
90.7479701455
 21
264.5954854052
  0
LINE
  8
0
 62
2
  6
CONTINUOUS
 10
89.6278701455
 20
264.5954854052
 11
87.8678701455
 21
264.5954854052
  0
LINE
  8
DEFAULT_1
 62
7
  6
CENTER
 10
55.0478701455
 20
264.5954854052
 11
52.6479701455
 21
264.5954854052
  0
LINE
  8
0
 62
2
  6
CONTINUOUS
 10
51.5278701455
 20
264.5954854052
 11
49.7678701455
 21
264.5954854052
  0
LINE
  8
DEFAULT_1
 62
7
  6
CENTER
 10
46.2478701455
 20
264.5954854052
 11
48.6477701455
 21
264.5954854052
  0
LINE
  8
DEFAULT_1
 62
7
  6
CENTER
 10
84.3478701455
 20
264.5954854052
 11
86.7477701455
 21
264.5954854052
  0
POLYLINE
  8
SURFACE
 62
7
  6
CONTINUOUS
 66
1
 70
0
  0
VERTEX
  8
SURFACE
 62
7
  6
CONTINUOUS
 10
66.1279716518
 20
269.7405296571
  0
VERTEX
  8
SURFACE
 62
7
  6
CONTINUOUS
 10
66.3216969964
 20
269.5278118797
  0
VERTEX
  8
SURFACE
 62
7
  6
CONTINUOUS
 10
66.5068238416
 20
269.3082346825
  0
VERTEX
  8
SURFACE
 62
7
  6
CONTINUOUS
 10
66.6834828743
 20
269.0816165835
  0
VERTEX
  8
SURFACE
 62
7
  6
CONTINUOUS
 10
66.8512820341
 20
268.8485020284
  0
VERTEX
  8
SURFACE
 62
7
  6
CONTINUOUS
 10
67.0098292606
 20
268.6094354629
  0
VERTEX
  8
SURFACE
 62
7
  6
CONTINUOUS
 10
67.1592552406
 20
268.3642354052
  0
SEQEND
  0
POLYLINE
  8
SURFACE
 62
7
  6
CONTINUOUS
 66
1
 70
0
  0
VERTEX
  8
SURFACE
 62
7
  6
CONTINUOUS
 10
50.0981538402
 20
268.2904854052
  0
VERTEX
  8
SURFACE
 62
7
  6
CONTINUOUS
 10
49.9201496961
 20
268.2861461372
  0
VERTEX
  8
SURFACE
 62
7
  6
CONTINUOUS
 10
49.7418705327
 20
268.2730704994
  0
VERTEX
  8
SURFACE
 62
7
  6
CONTINUOUS
 10
49.5636914278
 20
268.2511791799
  0
VERTEX
  8
SURFACE
 62
7
  6
CONTINUOUS
 10
49.3862904877
 20
268.2204614802
  0
VERTEX
  8
SURFACE
 62
7
  6
CONTINUOUS
 10
49.2102658711
 20
268.1809563263
  0
VERTEX
  8
SURFACE
 62
7
  6
CONTINUOUS
 10
49.0362057448
 20
268.132754589
  0
VERTEX
  8
SURFACE
 62
7
  6
CONTINUOUS
 10
48.8647116473
 20
268.0760072919
  0
VERTEX
  8
SURFACE
 62
7
  6
CONTINUOUS
 10
48.696281418
 20
268.0108844925
  0
VERTEX
  8
SURFACE
 62
7
  6
CONTINUOUS
 10
48.5314955228
 20
267.9376384971
  0
VERTEX
  8
SURFACE
 62
7
  6
CONTINUOUS
 10
48.3706135991
 20
267.8564177252
  0
VERTEX
  8
SURFACE
 62
7
  6
CONTINUOUS
 10
48.2139752707
 20
267.7674121099
  0
VERTEX
  8
SURFACE
 62
7
  6
CONTINUOUS
 10
48.0618834414
 20
267.6708018598
  0
VERTEX
  8
SURFACE
 62
7
  6
CONTINUOUS
 10
47.914613312
 20
267.5667530641
  0
VERTEX
  8
SURFACE
 62
7
  6
CONTINUOUS
 10
47.7725655716
 20
267.4555338548
  0
VERTEX
  8
SURFACE
 62
7
  6
CONTINUOUS
 10
47.6360867717
 20
267.337404205
  0
VERTEX
  8
SURFACE
 62
7
  6
CONTINUOUS
 10
47.505537546
 20
267.2126676753
  0
VERTEX
  8
SURFACE
 62
7
  6
CONTINUOUS
 10
47.3812533763
 20
267.081642019
  0
VERTEX
  8
SURFACE
 62
7
  6
CONTINUOUS
 10
47.2635514131
 20
266.9446643044
  0
VERTEX
  8
SURFACE
 62
7
  6
CONTINUOUS
 10
47.1527340498
 20
266.8020962054
  0
VERTEX
  8
SURFACE
 62
7
  6
CONTINUOUS
 10
47.0490616623
 20
266.6542873176
  0
VERTEX
  8
SURFACE
 62
7
  6
CONTINUOUS
 10
46.9528022027
 20
266.5016414568
  0
VERTEX
  8
SURFACE
 62
7
  6
CONTINUOUS
 10
46.864121277
 20
266.3444360213
  0
VERTEX
  8
SURFACE
 62
7
  6
CONTINUOUS
 10
46.7831993445
 20
266.1829783585
  0
VERTEX
  8
SURFACE
 62
7
  6
CONTINUOUS
 10
46.7102226697
 20
266.0176050376
  0
VERTEX
  8
SURFACE
 62
7
  6
CONTINUOUS
 10
46.6453380529
 20
265.8485746538
  0
VERTEX
  8
SURFACE
 62
7
  6
CONTINUOUS
 10
46.5887952219
 20
265.6764645546
  0
VERTEX
  8
SURFACE
 62
7
  6
CONTINUOUS
 10
46.5407628135
 20
265.5017678347
  0
VERTEX
  8
SURFACE
 62
7
  6
CONTINUOUS
 10
46.5013931118
 20
265.3250889042
  0
VERTEX
  8
SURFACE
 62
7
  6
CONTINUOUS
 10
46.4707779138
 20
265.1470155315
  0
VERTEX
  8
SURFACE
 62
7
  6
CONTINUOUS
 10
46.4489581894
 20
264.968151901
  0
VERTEX
  8
SURFACE
 62
7
  6
CONTINUOUS
 10
46.435924772
 20
264.789182104
  0
VERTEX
  8
SURFACE
 62
7
  6
CONTINUOUS
 10
46.4315994452
 20
264.6104575664
  0
SEQEND
  0
LINE
  8
SURFACE
 62
7
  6
CONTINUOUS
 10
60.4776318864
 20
268.1154854052
 11
87.6024444605
 21
268.1154854052
  0
LINE
  8
SURFACE
 62
7
  6
CONTINUOUS
 10
89.1442407789
 20
268.1154854052
 11
93.9678701455
 21
268.1154854052
  0
POLYLINE
  8
0
 62
7
  6
CONTINUOUS
 66
1
 70
0
  0
VERTEX
  8
0
 62
7
  6
CONTINUOUS
 10
50.6458497972
 20
268.2904854052
  0
VERTEX
  8
0
 62
7
  6
CONTINUOUS
 10
50.8052569725
 20
268.2870630555
  0
VERTEX
  8
0
 62
7
  6
CONTINUOUS
 10
50.9645501504
 20
268.2767864222
  0
VERTEX
  8
0
 62
7
  6
CONTINUOUS
 10
51.1234097096
 20
268.2596540257
  0
VERTEX
  8
0
 62
7
  6
CONTINUOUS
 10
51.2816103989
 20
268.2356642319
  0
VERTEX
  8
0
 62
7
  6
CONTINUOUS
 10
51.4388929094
 20
268.2048226367
  0
VERTEX
  8
0
 62
7
  6
CONTINUOUS
 10
51.5950272909
 20
268.1671324876
  0
VERTEX
  8
0
 62
7
  6
CONTINUOUS
 10
51.749816459
 20
268.1225864099
  0
VERTEX
  8
0
 62
7
  6
CONTINUOUS
 10
51.9028809829
 20
268.0712350774
  0
VERTEX
  8
0
 62
7
  6
CONTINUOUS
 10
52.0539418758
 20
268.0131153713
  0
VERTEX
  8
0
 62
7
  6
CONTINUOUS
 10
52.2025067317
 20
267.948370891
  0
VERTEX
  8
0
 62
7
  6
CONTINUOUS
 10
52.3481565708
 20
267.8771614282
  0
VERTEX
  8
0
 62
7
  6
CONTINUOUS
 10
52.4904650838
 20
267.7996941109
  0
VERTEX
  8
0
 62
7
  6
CONTINUOUS
 10
52.6289506024
 20
267.7162604136
  0
VERTEX
  8
0
 62
7
  6
CONTINUOUS
 10
52.7634766699
 20
267.6269819557
  0
VERTEX
  8
0
 62
7
  6
CONTINUOUS
 10
52.8937620911
 20
267.5320792261
  0
VERTEX
  8
0
 62
7
  6
CONTINUOUS
 10
53.0197940778
 20
267.431577318
  0
VERTEX
  8
0
 62
7
  6
CONTINUOUS
 10
53.1416024258
 20
267.3254142294
  0
VERTEX
  8
0
 62
7
  6
CONTINUOUS
 10
53.2586980062
 20
267.2139714572
  0
VERTEX
  8
0
 62
7
  6
CONTINUOUS
 10
53.3707545379
 20
267.0975526814
  0
VERTEX
  8
0
 62
7
  6
CONTINUOUS
 10
53.4774609976
 20
266.9765020648
  0
VERTEX
  8
0
 62
7
  6
CONTINUOUS
 10
53.5784268159
 20
266.851332477
  0
VERTEX
  8
0
 62
7
  6
CONTINUOUS
 10
53.6737469073
 20
266.7219923457
  0
VERTEX
  8
0
 62
7
  6
CONTINUOUS
 10
53.7634241042
 20
266.5884680841
  0
VERTEX
  8
0
 62
7
  6
CONTINUOUS
 10
53.8472296839
 20
266.4510605293
  0
VERTEX
  8
0
 62
7
  6
CONTINUOUS
 10
53.9250424499
 20
266.3099197678
  0
VERTEX
  8
0
 62
7
  6
CONTINUOUS
 10
53.996581896
 20
266.1655204318
  0
VERTEX
  8
0
 62
7
  6
CONTINUOUS
 10
54.0616346386
 20
266.0183194007
  0
VERTEX
  8
0
 62
7
  6
CONTINUOUS
 10
54.120090843
 20
265.8686317904
  0
VERTEX
  8
0
 62
7
  6
CONTINUOUS
 10
54.1717945958
 20
265.7169762962
  0
VERTEX
  8
0
 62
7
  6
CONTINUOUS
 10
54.2168154299
 20
265.5632433233
  0
VERTEX
  8
0
 62
7
  6
CONTINUOUS
 10
54.2551655479
 20
265.4072990462
  0
VERTEX
  8
0
 62
7
  6
CONTINUOUS
 10
54.2866750605
 20
265.2496746061
  0
VERTEX
  8
0
 62
7
  6
CONTINUOUS
 10
54.3112560277
 20
265.0907118644
  0
VERTEX
  8
0
 62
7
  6
CONTINUOUS
 10
54.3288306241
 20
264.930891188
  0
VERTEX
  8
0
 62
7
  6
CONTINUOUS
 10
54.3393631194
 20
264.7707377503
  0
VERTEX
  8
0
 62
7
  6
CONTINUOUS
 10
54.3428701455
 20
264.6104854052
  0
SEQEND
  0
POLYLINE
  8
SURFACE
 62
7
  6
CONTINUOUS
 66
1
 70
0
  0
VERTEX
  8
SURFACE
 62
7
  6
CONTINUOUS
 10
67.5931951173
 20
268.1154854052
  0
VERTEX
  8
SURFACE
 62
7
  6
CONTINUOUS
 10
67.5556354042
 20
268.1168936412
  0
VERTEX
  8
SURFACE
 62
7
  6
CONTINUOUS
 10
67.518495323
 20
268.1210540879
  0
VERTEX
  8
SURFACE
 62
7
  6
CONTINUOUS
 10
67.4816725642
 20
268.1279906035
  0
VERTEX
  8
SURFACE
 62
7
  6
CONTINUOUS
 10
67.4454740557
 20
268.1376316128
  0
VERTEX
  8
SURFACE
 62
7
  6
CONTINUOUS
 10
67.4101095087
 20
268.1499445191
  0
VERTEX
  8
SURFACE
 62
7
  6
CONTINUOUS
 10
67.3757682643
 20
268.1648362445
  0
VERTEX
  8
SURFACE
 62
7
  6
CONTINUOUS
 10
67.3426521232
 20
268.1822428347
  0
VERTEX
  8
SURFACE
 62
7
  6
CONTINUOUS
 10
67.3109334179
 20
268.2020443225
  0
VERTEX
  8
SURFACE
 62
7
  6
CONTINUOUS
 10
67.2808012053
 20
268.2241472941
  0
VERTEX
  8
SURFACE
 62
7
  6
CONTINUOUS
 10
67.2524071122
 20
268.2484081347
  0
VERTEX
  8
SURFACE
 62
7
  6
CONTINUOUS
 10
67.2259231469
 20
268.2747066227
  0
VERTEX
  8
SURFACE
 62
7
  6
CONTINUOUS
 10
67.201477222
 20
268.3028791643
  0
VERTEX
  8
SURFACE
 62
7
  6
CONTINUOUS
 10
67.1792777427
 20
268.3326966334
  0
VERTEX
  8
SURFACE
 62
7
  6
CONTINUOUS
 10
67.1592552406
 20
268.3642354052
  0
SEQEND
  0
LINE
  8
SURFACE
 62
7
  6
CONTINUOUS
 10
56.201338184
 20
271.5854853566
 11
63.1393875576
 21
271.5854854052
  0
POLYLINE
  8
SURFACE
 62
7
  6
CONTINUOUS
 66
1
 70
0
  0
VERTEX
  8
SURFACE
 62
7
  6
CONTINUOUS
 10
63.1393875576
 20
271.5854854052
  0
VERTEX
  8
SURFACE
 62
7
  6
CONTINUOUS
 10
63.1562751995
 20
271.5840190159
  0
VERTEX
  8
SURFACE
 62
7
  6
CONTINUOUS
 10
63.1806805547
 20
271.5795837035
  0
VERTEX
  8
SURFACE
 62
7
  6
CONTINUOUS
 10
63.2126562124
 20
271.572127266
  0
VERTEX
  8
SURFACE
 62
7
  6
CONTINUOUS
 10
63.2519766916
 20
271.5616335795
  0
VERTEX
  8
SURFACE
 62
7
  6
CONTINUOUS
 10
63.2985209854
 20
271.5480276163
  0
VERTEX
  8
SURFACE
 62
7
  6
CONTINUOUS
 10
63.351970412
 20
271.5312957728
  0
VERTEX
  8
SURFACE
 62
7
  6
CONTINUOUS
 10
63.4119327139
 20
271.5114229544
  0
VERTEX
  8
SURFACE
 62
7
  6
CONTINUOUS
 10
63.478454889
 20
271.4882298528
  0
VERTEX
  8
SURFACE
 62
7
  6
CONTINUOUS
 10
63.5515131921
 20
271.4615356405
  0
VERTEX
  8
SURFACE
 62
7
  6
CONTINUOUS
 10
63.6308604562
 20
271.4312085724
  0
VERTEX
  8
SURFACE
 62
7
  6
CONTINUOUS
 10
63.7163700254
 20
271.3970506123
  0
VERTEX
  8
SURFACE
 62
7
  6
CONTINUOUS
 10
63.8075885274
 20
271.3589844149
  0
VERTEX
  8
SURFACE
 62
7
  6
CONTINUOUS
 10
63.9041244658
 20
271.3168954296
  0
VERTEX
  8
SURFACE
 62
7
  6
CONTINUOUS
 10
64.0056123888
 20
271.2706619311
  0
VERTEX
  8
SURFACE
 62
7
  6
CONTINUOUS
 10
64.1114452595
 20
271.2202721596
  0
VERTEX
  8
SURFACE
 62
7
  6
CONTINUOUS
 10
64.2219064361
 20
271.1652753656
  0
VERTEX
  8
SURFACE
 62
7
  6
CONTINUOUS
 10
64.3371634873
 20
271.1052336789
  0
VERTEX
  8
SURFACE
 62
7
  6
CONTINUOUS
 10
64.456822634
 20
271.0399586764
  0
VERTEX
  8
SURFACE
 62
7
  6
CONTINUOUS
 10
64.5806810474
 20
270.9691470297
  0
VERTEX
  8
SURFACE
 62
7
  6
CONTINUOUS
 10
64.7082296189
 20
270.8926635195
  0
VERTEX
  8
SURFACE
 62
7
  6
CONTINUOUS
 10
64.8389711704
 20
270.8103688176
  0
VERTEX
  8
SURFACE
 62
7
  6
CONTINUOUS
 10
64.9725967004
 20
270.7220130498
  0
VERTEX
  8
SURFACE
 62
7
  6
CONTINUOUS
 10
65.1084763954
 20
270.6275610318
  0
VERTEX
  8
SURFACE
 62
7
  6
CONTINUOUS
 10
65.2469803395
 20
270.5262535134
  0
VERTEX
  8
SURFACE
 62
7
  6
CONTINUOUS
 10
65.3882637575
 20
270.4173930447
  0
VERTEX
  8
SURFACE
 62
7
  6
CONTINUOUS
 10
65.532033486
 20
270.3005366369
  0
VERTEX
  8
SURFACE
 62
7
  6
CONTINUOUS
 10
65.6779384555
 20
270.1752526377
  0
VERTEX
  8
SURFACE
 62
7
  6
CONTINUOUS
 10
65.8260165369
 20
270.040692564
  0
VERTEX
  8
SURFACE
 62
7
  6
CONTINUOUS
 10
65.9763039531
 20
269.8958593927
  0
VERTEX
  8
SURFACE
 62
7
  6
CONTINUOUS
 10
66.1279716518
 20
269.7405296571
  0
SEQEND
  0
POLYLINE
  8
SURFACE
 62
7
  6
CONTINUOUS
 66
1
 70
0
  0
VERTEX
  8
SURFACE
 62
7
  6
CONTINUOUS
 10
56.201338184
 20
271.5854853566
  0
VERTEX
  8
SURFACE
 62
7
  6
CONTINUOUS
 10
56.2009325263
 20
271.5854617622
  0
VERTEX
  8
SURFACE
 62
7
  6
CONTINUOUS
 10
56.2005270713
 20
271.5853921507
  0
VERTEX
  8
SURFACE
 62
7
  6
CONTINUOUS
 10
56.2001217781
 20
271.5852765395
  0
VERTEX
  8
SURFACE
 62
7
  6
CONTINUOUS
 10
56.1997167697
 20
271.5851148762
  0
VERTEX
  8
SURFACE
 62
7
  6
CONTINUOUS
 10
56.1993121687
 20
271.584907108
  0
VERTEX
  8
SURFACE
 62
7
  6
CONTINUOUS
 10
56.1989079343
 20
271.5846532526
  0
SEQEND
  0
LINE
  8
SURFACE
 62
7
  6
CONTINUOUS
 10
50.6478711666
 20
272.0954854052
 11
88.7478701455
 21
272.0954854052
  0
LINE
  8
0
 62
7
  6
CONTINUOUS
 10
63.6374849066
 20
272.0954854052
 11
83.555287742
 21
272.0954854052
  0
LINE
  8
0
 62
7
  6
CONTINUOUS
 10
87.895477014
 20
272.0954854052
 11
87.9129081626
 21
272.0954854052
  0
LINE
  8
DEFAULT_1
 62
7
  6
CENTER
 10
88.7478701455
 20
268.9954854052
 11
88.7478701455
 21
266.5955854052
  0
LINE
  8
0
 62
2
  6
CONTINUOUS
 10
88.7478701455
 20
265.4754854052
 11
88.7478701455
 21
263.7154854052
  0
LINE
  8
DEFAULT_1
 62
7
  6
CENTER
 10
88.7478701455
 20
260.1954854052
 11
88.7478701455
 21
262.5953854052
  0
LINE
  8
SURFACE
 62
7
  6
CONTINUOUS
 10
90.5678701455
 20
262.2357899404
 11
90.5678701455
 21
266.95518087
  0
LINE
  8
SURFACE
 62
7
  6
CONTINUOUS
 10
95.2430606739
 20
260.8454854052
 11
90.5492029854
 21
252.7154854052
  0
LINE
  8
SURFACE
 62
7
  6
CONTINUOUS
 10
93.9678701455
 20
269.5393300629
 11
93.9678701455
 21
268.1154854052
  0
POLYLINE
  8
SURFACE
 62
7
  6
CONTINUOUS
 66
1
 70
0
  0
VERTEX
  8
SURFACE
 62
7
  6
CONTINUOUS
 10
93.9719539122
 20
268.1114016385
  0
VERTEX
  8
SURFACE
 62
7
  6
CONTINUOUS
 10
93.9688545405
 20
268.114474664
  0
VERTEX
  8
SURFACE
 62
7
  6
CONTINUOUS
 10
93.9678701455
 20
268.1154854052
  0
SEQEND
  0
LINE
  8
SURFACE
 62
7
  6
CONTINUOUS
 10
94.4678701455
 20
267.6154854052
 11
93.9719539122
 21
268.1114016385
  0
ARC
  8
SURFACE
 62
7
  6
CONTINUOUS
 10
66.1279716518
 20
48.4414391897
 40
3.0
 50
184.9999987654
 51
269.9999990619
  0
ARC
  8
SURFACE
 62
7
  6
CONTINUOUS
 10
51.469700617
 20
128.4664391897
 40
0.5
 50
265.0000235066
 51
270.0
  0
ARC
  8
SURFACE
 62
7
  6
CONTINUOUS
 10
55.7008105853
 20
127.4664391897
 40
0.5
 50
5.0
 51
90.0
  0
ARC
  8
SURFACE
 62
7
  6
CONTINUOUS
 10
45.9339013472
 20
128.9507588693
 40
0.5
 50
265.0
 51
279.9166711355
  0
ARC
  8
0
 62
7
  6
CONTINUOUS
 10
66.1279716518
 20
232.8914391897
 40
3.0
 50
90.0000009381
 51
175.0000012346
  0
ARC
  8
0
 62
7
  6
CONTINUOUS
 10
55.7008105853
 20
153.8664391897
 40
0.5
 50
270.0
 51
355.0
  0
ARC
  8
0
 62
7
  6
CONTINUOUS
 10
51.469700617
 20
152.8664391897
 40
0.5
 50
90.0
 51
94.9999764934
  0
ARC
  8
0
 62
7
  6
CONTINUOUS
 10
45.9339019135
 20
152.3821195596
 40
0.499999932
 50
82.9697821147
 51
95.0000651369
  0
ARC
  8
SURFACE
 62
7
  6
CONTINUOUS
 10
90.9678701455
 20
48.4414391897
 40
3.0
 50
270.0
 51
360.0
  0
ARC
  8
SURFACE
 62
7
  6
CONTINUOUS
 10
87.895477014
 20
126.2664391897
 40
1.2
 50
85.0
 51
90.0007487371
  0
ARC
  8
SURFACE
 62
7
  6
CONTINUOUS
 10
95.2478701455
 20
120.2164391897
 40
1.0
 50
269.9999998686
 51
360.0
  0
ARC
  8
SURFACE
 62
7
  6
CONTINUOUS
 10
95.2478701394
 20
125.8239521089
 40
0.9999999991
 50
0.0
 51
84.9857197575
  0
ARC
  8
SURFACE
 62
7
  6
CONTINUOUS
 10
94.4678701455
 20
118.7164391897
 40
0.5
 50
90.0
 51
179.9999981308
  0
ARC
  8
SURFACE
 62
7
  6
CONTINUOUS
 10
84.555287742
 20
127.9664391897
 40
0.5
 50
180.0
 51
269.9999219164
  0
ARC
  8
0
 62
7
  6
CONTINUOUS
 10
90.9678701455
 20
232.8914391897
 40
3.0
 50
0.0
 51
90.0
  0
ARC
  8
0
 62
7
  6
CONTINUOUS
 10
87.895477014
 20
155.0664391897
 40
1.2
 50
269.9992512629
 51
275.0
  0
ARC
  8
0
 62
7
  6
CONTINUOUS
 10
95.2478701455
 20
161.1164391897
 40
1.0
 50
0.0
 51
90.0000001314
  0
ARC
  8
0
 62
7
  6
CONTINUOUS
 10
95.2478701394
 20
155.5089262704
 40
0.9999999991
 50
275.011191055
 51
360.0
  0
ARC
  8
0
 62
7
  6
CONTINUOUS
 10
84.555287742
 20
153.3664391897
 40
0.5
 50
90.0000780836
 51
180.0
  0
ARC
  8
0
 62
7
  6
CONTINUOUS
 10
94.4678701455
 20
162.6164391897
 40
0.5
 50
180.0000018692
 51
270.0
  0
ARC
  8
SURFACE
 62
7
  6
CONTINUOUS
 10
152.1478609839
 20
110.9164391897
 40
1.0
 50
270.0
 51
360.0
  0
ARC
  8
SURFACE
 62
7
  6
CONTINUOUS
 10
150.1478609839
 20
123.7759261658
 40
1.0
 50
91.5
 51
180.0
  0
ARC
  8
SURFACE
 62
7
  6
CONTINUOUS
 10
150.1478609839
 20
110.9164391897
 40
1.0
 50
180.0
 51
270.0
  0
ARC
  8
SURFACE
 62
7
  6
CONTINUOUS
 10
157.3328609839
 20
128.4664391897
 40
0.5
 50
270.0
 51
333.2948421704
  0
ARC
  8
SURFACE
 62
7
  6
CONTINUOUS
 10
153.6478609452
 20
118.7164391897
 40
0.4999999957
 50
99.9999960589
 51
180.0
  0
ARC
  8
0
 62
7
  6
CONTINUOUS
 10
152.1478609839
 20
170.4164391897
 40
1.0
 50
0.0
 51
90.0
  0
ARC
  8
0
 62
7
  6
CONTINUOUS
 10
150.1478609839
 20
157.5569522136
 40
1.0
 50
180.0
 51
268.5
  0
ARC
  8
0
 62
7
  6
CONTINUOUS
 10
150.1478609839
 20
170.4164391897
 40
1.0
 50
90.0
 51
180.0
  0
ARC
  8
0
 62
7
  6
CONTINUOUS
 10
153.6478609452
 20
162.6164391897
 40
0.4999999957
 50
180.0
 51
260.0000039411
  0
ARC
  8
0
 62
7
  6
CONTINUOUS
 10
157.3328613381
 20
152.8664391897
 40
0.4999999576
 50
26.7405190677
 51
90.0000405894
  0
ARC
  8
SURFACE
 62
7
  6
CONTINUOUS
 10
168.0278855006
 20
46.441414673
 40
0.9999754833
 50
270.0
 51
360.0
  0
ARC
  8
SURFACE
 62
7
  6
CONTINUOUS
 10
164.5478609839
 20
118.7164391897
 40
0.5
 50
0.0
 51
90.0
  0
ARC
  8
SURFACE
 62
7
  6
CONTINUOUS
 10
165.7228609839
 20
128.4664391897
 40
0.5
 50
206.7094490794
 51
270.0
  0
ARC
  8
SURFACE
 62
7
  6
CONTINUOUS
 10
168.5278609839
 20
128.4664391897
 40
0.5
 50
270.0
 51
360.0
  0
ARC
  8
0
 62
7
  6
CONTINUOUS
 10
168.0278855006
 20
234.8914637063
 40
0.9999754833
 50
0.0
 51
90.0
  0
ARC
  8
0
 62
7
  6
CONTINUOUS
 10
165.7228609839
 20
152.8664391897
 40
0.5
 50
90.0
 51
153.2916407149
  0
ARC
  8
0
 62
7
  6
CONTINUOUS
 10
164.5478609839
 20
162.6164391897
 40
0.5
 50
270.0
 51
355.6939538877
  0
ARC
  8
0
 62
7
  6
CONTINUOUS
 10
168.5278609839
 20
152.8664391897
 40
0.5
 50
0.0
 51
90.0
  0
ARC
  8
SURFACE
 62
7
  6
CONTINUOUS
 10
67.6478701455
 20
253.2154854052
 40
1.0
 50
180.0000285902
 51
269.9999993053
  0
ARC
  8
SURFACE
 62
7
  6
CONTINUOUS
 10
65.6478701455
 20
256.0954854052
 40
1.0
 50
0.0000200068
 51
89.999989825
  0
ARC
  8
0
 62
7
  6
CONTINUOUS
 10
65.6478701455
 20
256.0954854052
 40
1.0
 50
0.0
 51
4.0492922789
  0
ARC
  8
SURFACE
 62
7
  6
CONTINUOUS
 10
50.6478701455
 20
264.5954854052
 40
7.5
 50
89.9999921994
 51
270.0
  0
ARC
  8
0
 62
7
  6
CONTINUOUS
 10
50.6478701455
 20
264.5954854052
 40
7.5
 50
89.9999921994
 51
270.0
  0
ARC
  8
SURFACE
 62
7
  6
CONTINUOUS
 10
50.6328701455
 20
264.5804854052
 40
3.68
 50
180.0
 51
270.0
  0
ARC
  8
SURFACE
 62
7
  6
CONTINUOUS
 10
50.6328701455
 20
264.6104854052
 40
3.68
 50
90.0
 51
180.0
  0
ARC
  8
SURFACE
 62
7
  6
CONTINUOUS
 10
89.6831775816
 20
253.2154854052
 40
1.0
 50
270.0
 51
330.0
  0
ARC
  8
0
 62
7
  6
CONTINUOUS
 10
88.0778701455
 20
263.9090801124
 40
3.0
 50
276.6864390383
 51
326.0987380031
  0
ARC
  8
SURFACE
 62
7
  6
CONTINUOUS
 10
88.0778701455
 20
263.9090801124
 40
3.0
 50
276.6864390383
 51
326.0987380031
  0
ARC
  8
0
 62
7
  6
CONTINUOUS
 10
88.0778701455
 20
265.2818906979
 40
3.0
 50
71.4421922795
 51
71.4857371009
  0
ARC
  8
0
 62
7
  6
CONTINUOUS
 10
88.0778701455
 20
265.2818906979
 40
3.0
 50
33.9012619969
 51
69.3780027962
  0
ARC
  8
SURFACE
 62
7
  6
CONTINUOUS
 10
88.0778701455
 20
265.2818906979
 40
3.0
 50
33.9012619969
 51
83.3135609617
  0
ARC
  8
0
 62
7
  6
CONTINUOUS
 10
88.7478701455
 20
264.5954854052
 40
7.5
 50
330.7303669375
 51
28.0460946422
  0
ARC
  8
SURFACE
 62
7
  6
CONTINUOUS
 10
88.7478701455
 20
264.5954854052
 40
7.5
 50
330.0
 51
90.0
  0
ARC
  8
0
 62
7
  6
CONTINUOUS
 10
88.7478701455
 20
264.5954854052
 40
3.68
 50
262.0505210937
 51
265.0006272484
  0
ARC
  8
0
 62
7
  6
CONTINUOUS
 10
88.7478701455
 20
264.5954854052
 40
3.68
 50
258.2753701271
 51
259.2332684532
  0
ARC
  8
0
 62
7
  6
CONTINUOUS
 10
88.7478701455
 20
264.5954854052
 40
3.68
 50
255.6082137161
 51
256.6070286496
  0
ARC
  8
SURFACE
 62
7
  6
CONTINUOUS
 10
88.7478701455
 20
264.5954854052
 40
3.68
 50
94.9993727516
 51
265.0006272484
  0
ARC
  8
SURFACE
 62
7
  6
CONTINUOUS
 10
87.6024444605
 20
268.6154854052
 40
0.5
 50
270.0
 51
285.9039358527
  0
ARC
  8
SURFACE
 62
7
  6
CONTINUOUS
 10
89.1442407789
 20
268.6154854052
 40
0.5
 50
252.2612480055
 51
270.0
  0
ARC
  8
SURFACE
 62
7
  6
CONTINUOUS
 10
92.9678701455
 20
269.5393300629
 40
1.0
 50
0.0
 51
49.5163697517
  0
ENDSEC
  0
EOF
