  0
SECTION
  2
HEADER
  9
$EXTMAX
 10
420.0
 20
297.0
 30
0.0
  9
$EXTMIN
 10
0.0
 20
0.0
 30
0.0
  9
$LIMMIN
 10
0.0
 20
0.0
  9
$LIMMAX
 10
420.0
 20
297.0
  9
$VIEWCTR
 10
210.0
 20
148.5
  9
$VIEWSIZE
 40
297.0
  9
$CLAYER
  8
0
  9
$LTSCALE
 40
23.1
  9
$CELTYPE
  6
BYLAYER
  9
$DIMSCALE
 40
1.0
  9
$DIMASZ
 40
3.5
  9
$DIMEXO
 40
1.0
  9
$DIMDLI
 40
15.96
  9
$DIMEXE
 40
2.0
  9
$DIMCEN
 40
3.78
  9
$DIMLFAC
 40
1.0
  9
$DIMBLK
  1
_FILLED
  9
$DIMTXT
 40
3.5
  9
$PDMODE
 70
3
  9
$PDSIZE
 40
0.3125
  9
$TILEMODE
 70
1
  0
ENDSEC
  0
SECTION
  2
TABLES
  0
TABLE
  2
LTYPE
 70
6
  0
LTYPE
  2
BYBLOCK
 70
0
  3

 72
65
 73
0
 40
0.0
  0
LTYPE
  2
BYLAYER
 70
0
  3

 72
65
 73
0
 40
0.0
  0
LTYPE
  2
CONTINUOUS
 70
64
  3
Solid line
 72
65
 73
0
 40
0.0
  0
LTYPE
  2
CENTER
 70
64
  3
____ _ ____ _ ____ _ ____ _ ____ _ ____ _ ____
 72
65
 73
4
 40
0.6
 49
0.375
 49
-0.075
 49
0.075
 49
-0.075
  0
LTYPE
  2
HIDDEN
 70
64
  3
- - - - - - - - - - - - - - - - - - - -
 72
65
 73
2
 40
0.2
 49
0.1
 49
-0.1
  0
LTYPE
  2
PHANTOM
 70
64
  3
_____ _ _ _____ _ _ _____ _ _ _____
 72
65
 73
6
 40
0.8
 49
0.45
 49
-0.05
 49
0.1
 49
-0.05
 49
0.1
 49
-0.05
  0
LTYPE
  2
DOT
 70
64
  3
. . . . . . . . . . . . . . . . . . . .
 72
65
 73
2
 40
0.2
 49
0.1
 49
-0.1
  0
LTYPE
  2
DASHED
 70
64
  3
- - - - - - - - - - - - - - - - - - - -
 72
65
 73
2
 40
0.2
 49
0.1
 49
-0.1
  0
ENDTAB
  0
TABLE
  2
LAYER
 70
36
  0
LAYER
  2
0
 70
0
 62
7
  6
CONTINUOUS
  0
LAYER
  2
DEFAULT_1
 70
0
 62
7
  6
CENTER
  0
LAYER
  2
DEFAULT_2
 70
0
 62
8
  6
HIDDEN
  0
LAYER
  2
DEFAULT_3
 70
0
 62
7
  6
PHANTOM
  0
LAYER
  2
1_AXIS
 70
0
 62
7
  6
CONTINUOUS
  0
LAYER
  2
1_DATUM_PLANE
 70
0
 62
7
  6
CONTINUOUS
  0
LAYER
  2
2_FEATURE
 70
0
 62
7
  6
CONTINUOUS
  0
LAYER
  2
4_QUILT
 70
0
 62
7
  6
CONTINUOUS
  0
LAYER
  2
6_DIM
 70
0
 62
7
  6
CONTINUOUS
  0
LAYER
  2
AXES
 70
0
 62
7
  6
CONTINUOUS
  0
LAYER
  2
CSYS
 70
0
 62
7
  6
CONTINUOUS
  0
LAYER
  2
CURVES
 70
0
 62
7
  6
CONTINUOUS
  0
LAYER
  2
NOTES
 70
0
 62
7
  6
CONTINUOUS
  0
LAYER
  2
PLANES
 70
0
 62
7
  6
CONTINUOUS
  0
LAYER
  2
QUILTS
 70
0
 62
7
  6
CONTINUOUS
  0
LAYER
  2
SH
 70
0
 62
7
  6
CONTINUOUS
  0
ENDTAB
  0
TABLE
  2
STYLE
 70
1
  0
STYLE
  2
STANDARD
 70
0
 40
0.0
 41
0.8
 50
0.0
 71
0
 42
0.2
  3
txt
  4

  0
STYLE
  2
TEXTSTYLE_1
 70
0
 40
0.0
 41
0.8
 50
0.0
 71
0
 42
0.2
  3
gdt
  4

  0
STYLE
  2
TEXTSTYLE_2
 70
0
 40
0.0
 41
0.6
 50
0.0
 71
0
 42
0.2
  3
txt
  4

  0
STYLE
  2
TEXTSTYLE_3
 70
0
 40
0.0
 41
1.0
 50
0.0
 71
0
 42
0.2
  3
ftb_____.ttf
  4

  0
STYLE
  2
TEXTSTYLE_4
 70
0
 40
0.0
 41
1.0
 50
0.0
 71
0
 42
0.2
  3
fti_____.ttf
  4

  0
STYLE
  2
TEXTSTYLE_5
 70
0
 40
0.0
 41
1.0
 50
0.0
 71
0
 42
0.2
  3
frutiger light.ttf
  4

  0
STYLE
  2
TEXTSTYLE_6
 70
0
 40
0.0
 41
0.7
 50
0.0
 71
0
 42
0.2
  3
txt
  4

  0
STYLE
  2
TEXTSTYLE_7
 70
0
 40
0.0
 41
0.8
 50
0.0
 71
0
 42
0.2
  3
txt
  4

  0
ENDTAB
  0
ENDSEC
  0
SECTION
  2
BLOCKS
  0
BLOCK
  8
0
 62
2
  6
CONTINUOUS
  2
SYMBOL_5_BL1
 70
64
 10
382.3920721743
 20
35.81661148
  0
TEXT
  8
0
 62
7
  6
CONTINUOUS
 10
373.4503571828
 20
30.9093678571
  7
TEXTSTYLE_4
 40
1.0655737705
  1
The brand for plastic modular belts and chains
 41
1.0
 72
0
  0
LINE
  8
0
 62
7
  6
CONTINUOUS
 10
358.3701405634
 20
36.3903819718
 11
358.3701405634
 21
34.2592344308
  0
LINE
  8
0
 62
7
  6
CONTINUOUS
 10
358.6592030565
 20
31.2683031351
 11
358.6592030565
 21
31.3650941944
  0
LINE
  8
0
 62
7
  6
CONTINUOUS
 10
358.3701405634
 20
31.332830508
 11
358.4279530651
 21
31.1392483894
  0
LINE
  8
0
 62
7
  6
CONTINUOUS
 10
359.7635831863
 20
34.1772672177
 11
359.7635831863
 21
36.3903819718
  0
LINE
  8
0
 62
7
  6
CONTINUOUS
 10
360.6826405082
 20
32.3330049227
 11
360.6826405082
 21
30.81661148
  0
LINE
  8
0
 62
7
  6
CONTINUOUS
 10
360.9717030634
 20
30.81661148
 11
360.9717030634
 21
31.5586763581
  0
LINE
  8
0
 62
7
  6
CONTINUOUS
 10
360.9717030634
 20
31.6877311038
 11
360.9717030634
 21
32.3330049227
  0
LINE
  8
0
 62
7
  6
CONTINUOUS
 10
358.4279530651
 20
31.5264126717
 11
358.3701405634
 21
31.332830508
  0
LINE
  8
0
 62
7
  6
CONTINUOUS
 10
358.7748280496
 20
31.106984703
 11
358.6592030565
 21
31.2683031351
  0
LINE
  8
0
 62
7
  6
CONTINUOUS
 10
359.8732656185
 20
31.623203731
 11
359.9310780634
 21
31.5264126717
  0
LINE
  8
0
 62
7
  6
CONTINUOUS
 10
360.2201406185
 20
31.5264126717
 11
360.1623280082
 21
31.6554674174
  0
LINE
  8
0
 62
7
  6
CONTINUOUS
 10
361.648829088
 20
36.3903819718
 11
361.648829088
 21
34.5871032833
  0
LINE
  8
0
 62
7
  6
CONTINUOUS
 10
361.648829088
 20
33.2756278735
 11
361.648829088
 21
32.6198901686
  0
LINE
  8
0
 62
7
  6
CONTINUOUS
 10
362.0123280634
 20
31.4618852989
 11
362.0123280634
 21
30.81661148
  0
LINE
  8
0
 62
7
  6
CONTINUOUS
 10
362.3013904531
 20
30.81661148
 11
362.3013904531
 21
31.4618852989
  0
LINE
  8
0
 62
7
  6
CONTINUOUS
 10
358.6592030565
 20
31.3650941944
 11
358.7170155634
 21
31.4941489853
  0
LINE
  8
0
 62
7
  6
CONTINUOUS
 10
358.4279530651
 20
31.1392483894
 11
358.5435780634
 21
31.0101936212
  0
LINE
  8
0
 62
7
  6
CONTINUOUS
 10
361.9545154531
 20
31.5909400446
 11
362.0123280634
 21
31.4618852989
  0
LINE
  8
0
 62
7
  6
CONTINUOUS
 10
362.7638906736
 20
31.106984703
 11
362.8217029531
 21
30.9779299347
  0
LINE
  8
0
 62
7
  6
CONTINUOUS
 10
362.3013904531
 20
31.4618852989
 11
362.2435781736
 21
31.623203731
  0
LINE
  8
0
 62
7
  6
CONTINUOUS
 10
362.7638906736
 20
31.6554674174
 11
362.7638906736
 21
31.5909400446
  0
LINE
  8
0
 62
7
  6
CONTINUOUS
 10
362.7638906736
 20
31.2037757623
 11
362.7638906736
 21
31.106984703
  0
LINE
  8
0
 62
7
  6
CONTINUOUS
 10
363.0422717109
 20
32.6198901686
 11
363.0422717109
 21
36.3903819718
  0
LINE
  8
0
 62
7
  6
CONTINUOUS
 10
363.0529530634
 20
31.074720994
 11
363.0529530634
 21
31.1392483894
  0
LINE
  8
0
 62
7
  6
CONTINUOUS
 10
363.3701405634
 20
36.3903819718
 11
363.3701405634
 21
32.6198901686
  0
LINE
  8
0
 62
7
  6
CONTINUOUS
 10
360.1623280082
 20
31.0101936212
 11
360.2201406185
 21
31.1392483894
  0
LINE
  8
0
 62
7
  6
CONTINUOUS
 10
364.5560782839
 20
30.9134025506
 11
364.4982653428
 21
31.074720994
  0
LINE
  8
0
 62
7
  6
CONTINUOUS
 10
364.2092032839
 20
31.5909400446
 11
364.2092032839
 21
31.4941489853
  0
LINE
  8
0
 62
7
  6
CONTINUOUS
 10
364.2092032839
 20
31.3650941944
 11
364.2092032839
 21
31.1715120759
  0
LINE
  8
0
 62
7
  6
CONTINUOUS
 10
364.4982653428
 20
31.074720994
 11
364.4982653428
 21
31.5909400446
  0
LINE
  8
0
 62
7
  6
CONTINUOUS
 10
364.7635831863
 20
32.6198901686
 11
364.7635831863
 21
34.4231688571
  0
LINE
  8
0
 62
7
  6
CONTINUOUS
 10
364.7635831863
 20
35.7346442669
 11
364.7635831863
 21
36.3903819718
  0
LINE
  8
0
 62
7
  6
CONTINUOUS
 10
365.0763907839
 20
32.3330049227
 11
365.0763907839
 21
32.1716864905
  0
LINE
  8
0
 62
7
  6
CONTINUOUS
 10
365.0763907839
 20
31.8490495359
 11
365.0763907839
 21
30.81661148
  0
LINE
  8
0
 62
7
  6
CONTINUOUS
 10
365.3654528428
 20
30.81661148
 11
365.3654528428
 21
31.8490495359
  0
LINE
  8
0
 62
7
  6
CONTINUOUS
 10
365.3654528428
 20
32.1716864905
 11
365.3654528428
 21
32.3330049227
  0
LINE
  8
0
 62
7
  6
CONTINUOUS
 10
359.9310780634
 20
31.1392483894
 11
359.8732656185
 21
31.0424573076
  0
LINE
  8
0
 62
7
  6
CONTINUOUS
 10
362.2435781736
 20
31.623203731
 11
362.1857655634
 21
31.6877311038
  0
LINE
  8
0
 62
7
  6
CONTINUOUS
 10
363.1107656736
 20
31.0101936212
 11
363.0529530634
 21
31.074720994
  0
LINE
  8
0
 62
7
  6
CONTINUOUS
 10
364.2670155634
 20
30.8811388585
 11
364.3248278428
 21
30.81661148
  0
LINE
  8
0
 62
7
  6
CONTINUOUS
 10
364.2092032839
 20
30.9779299347
 11
364.2670155634
 21
30.8811388585
  0
LINE
  8
0
 62
7
  6
CONTINUOUS
 10
364.6138905634
 20
30.81661148
 11
364.5560782839
 21
30.9134025506
  0
LINE
  8
0
 62
7
  6
CONTINUOUS
 10
364.4982653428
 20
31.5909400446
 11
364.4404530634
 21
31.6877311038
  0
LINE
  8
0
 62
7
  6
CONTINUOUS
 10
365.8279530634
 20
31.8490495359
 11
365.8279530634
 21
30.81661148
  0
LINE
  8
0
 62
7
  6
CONTINUOUS
 10
366.1170157839
 20
30.81661148
 11
366.1170157839
 21
31.5586763581
  0
LINE
  8
0
 62
7
  6
CONTINUOUS
 10
366.1170157839
 20
31.6877311038
 11
366.1170157839
 21
31.8490495359
  0
LINE
  8
0
 62
7
  6
CONTINUOUS
 10
366.648829088
 20
34.8330049227
 11
366.648829088
 21
32.6198901686
  0
LINE
  8
0
 62
7
  6
CONTINUOUS
 10
358.5435780634
 20
31.6554674174
 11
358.4279530651
 21
31.5264126717
  0
LINE
  8
0
 62
7
  6
CONTINUOUS
 10
358.7170155634
 20
31.4941489853
 11
358.7748280496
 21
31.5586763581
  0
LINE
  8
0
 62
7
  6
CONTINUOUS
 10
358.5435780634
 20
31.0101936212
 11
358.6592030565
 21
30.945666237
  0
LINE
  8
0
 62
7
  6
CONTINUOUS
 10
358.9482655496
 20
31.0101936212
 11
358.7748280496
 21
31.106984703
  0
LINE
  8
0
 62
7
  6
CONTINUOUS
 10
364.1513903428
 20
31.6554674174
 11
364.2092032839
 21
31.5909400446
  0
LINE
  8
0
 62
7
  6
CONTINUOUS
 10
367.0998278428
 20
31.5909400446
 11
367.1576407839
 21
31.4296216124
  0
LINE
  8
0
 62
7
  6
CONTINUOUS
 10
367.4467028428
 20
31.4296216124
 11
367.3888905634
 21
31.5909400446
  0
LINE
  8
0
 62
7
  6
CONTINUOUS
 10
367.1576407839
 20
31.4296216124
 11
367.1576407839
 21
30.81661148
  0
LINE
  8
0
 62
7
  6
CONTINUOUS
 10
367.4467028428
 20
30.81661148
 11
367.4467028428
 21
31.4296216124
  0
LINE
  8
0
 62
7
  6
CONTINUOUS
 10
367.9092030634
 20
31.6554674174
 11
367.9092030634
 21
31.5909400446
  0
LINE
  8
0
 62
7
  6
CONTINUOUS
 10
368.0422717109
 20
32.6198901686
 11
368.0422717109
 21
34.7510377095
  0
LINE
  8
0
 62
7
  6
CONTINUOUS
 10
368.3701405634
 20
36.3903819718
 11
368.3701405634
 21
32.6198901686
  0
LINE
  8
0
 62
7
  6
CONTINUOUS
 10
363.0529530634
 20
31.1392483894
 11
363.1107656736
 21
31.2360394487
  0
LINE
  8
0
 62
7
  6
CONTINUOUS
 10
358.6592030565
 20
30.945666237
 11
358.8326405772
 21
30.8811388585
  0
LINE
  8
0
 62
7
  6
CONTINUOUS
 10
360.1623280082
 20
31.6554674174
 11
359.9888905082
 21
31.7522584767
  0
LINE
  8
0
 62
7
  6
CONTINUOUS
 10
362.8217029531
 20
30.9779299347
 11
362.9951404531
 21
30.8811388585
  0
LINE
  8
0
 62
7
  6
CONTINUOUS
 10
361.8388905634
 20
31.6554674174
 11
361.9545154531
 21
31.5909400446
  0
LINE
  8
0
 62
7
  6
CONTINUOUS
 10
362.1857655634
 20
31.6877311038
 11
362.0701406736
 21
31.7522584767
  0
LINE
  8
0
 62
7
  6
CONTINUOUS
 10
367.9092030634
 20
31.074720994
 11
368.0248282839
 21
30.945666237
  0
LINE
  8
0
 62
7
  6
CONTINUOUS
 10
368.2560780634
 20
31.0101936212
 11
368.1982657839
 21
31.074720994
  0
LINE
  8
0
 62
7
  6
CONTINUOUS
 10
367.9092030634
 20
31.5909400446
 11
368.0248282839
 21
31.4618852989
  0
LINE
  8
0
 62
7
  6
CONTINUOUS
 10
367.3888905634
 20
31.5909400446
 11
367.3310782839
 21
31.6877311038
  0
LINE
  8
0
 62
7
  6
CONTINUOUS
 10
369.7592026223
 20
31.0101936212
 11
369.7592026223
 21
31.074720994
  0
LINE
  8
0
 62
7
  6
CONTINUOUS
 10
369.7635831863
 20
32.6198901686
 11
369.7635831863
 21
36.3903819718
  0
LINE
  8
0
 62
7
  6
CONTINUOUS
 10
362.8217029531
 20
31.7199947902
 11
362.7638906736
 21
31.6554674174
  0
LINE
  8
0
 62
7
  6
CONTINUOUS
 10
359.6998280358
 20
31.6877311038
 11
359.8732656185
 21
31.623203731
  0
LINE
  8
0
 62
7
  6
CONTINUOUS
 10
364.4404530634
 20
31.6877311038
 11
364.3248278428
 21
31.7522584767
  0
LINE
  8
0
 62
7
  6
CONTINUOUS
 10
368.2560780634
 20
31.5264126717
 11
368.1982657839
 21
31.5909400446
  0
LINE
  8
0
 62
7
  6
CONTINUOUS
 10
369.4123282839
 20
31.1392483894
 11
369.4701405634
 21
31.074720994
  0
LINE
  8
0
 62
7
  6
CONTINUOUS
 10
369.7592026223
 20
31.074720994
 11
369.6435780634
 21
31.2037757623
  0
LINE
  8
0
 62
7
  6
CONTINUOUS
 10
369.4123282839
 20
31.6554674174
 11
369.4701405634
 21
31.5909400446
  0
LINE
  8
0
 62
7
  6
CONTINUOUS
 10
369.7592026223
 20
31.5909400446
 11
369.6435780634
 21
31.7199947902
  0
LINE
  8
0
 62
7
  6
CONTINUOUS
 10
363.0529530634
 20
31.5909400446
 11
363.1107656736
 21
31.6554674174
  0
LINE
  8
0
 62
7
  6
CONTINUOUS
 10
362.8795155634
 20
31.332830508
 11
362.7638906736
 21
31.2037757623
  0
LINE
  8
0
 62
7
  6
CONTINUOUS
 10
364.2092032839
 20
31.1715120759
 11
364.1513903428
 21
31.106984703
  0
LINE
  8
0
 62
7
  6
CONTINUOUS
 10
364.1513903428
 20
30.9134025506
 11
364.2092032839
 21
30.9779299347
  0
LINE
  8
0
 62
7
  6
CONTINUOUS
 10
362.9951404531
 20
30.8811388585
 11
363.1107656736
 21
30.8488751693
  0
LINE
  8
0
 62
7
  6
CONTINUOUS
 10
359.9888905082
 20
31.7522584767
 11
359.7576405634
 21
31.8167858495
  0
LINE
  8
0
 62
7
  6
CONTINUOUS
 10
363.3420154531
 20
30.945666237
 11
363.1107656736
 21
31.0101936212
  0
LINE
  8
0
 62
7
  6
CONTINUOUS
 10
362.0701406736
 20
31.7522584767
 11
361.8967031736
 21
31.8167858495
  0
LINE
  8
0
 62
7
  6
CONTINUOUS
 10
364.3248278428
 20
31.7522584767
 11
364.1513903428
 21
31.8167858495
  0
LINE
  8
0
 62
7
  6
CONTINUOUS
 10
366.9842032839
 20
31.6554674174
 11
367.0998278428
 21
31.5909400446
  0
LINE
  8
0
 62
7
  6
CONTINUOUS
 10
367.3310782839
 20
31.6877311038
 11
367.2154530634
 21
31.7522584767
  0
LINE
  8
0
 62
7
  6
CONTINUOUS
 10
358.8326405772
 20
30.8811388585
 11
359.0060780772
 21
30.8488751693
  0
LINE
  8
0
 62
7
  6
CONTINUOUS
 10
359.2951405909
 20
30.945666237
 11
358.9482655496
 21
31.0101936212
  0
LINE
  8
0
 62
7
  6
CONTINUOUS
 10
361.7232656736
 20
31.6877311038
 11
361.8388905634
 21
31.6554674174
  0
LINE
  8
0
 62
7
  6
CONTINUOUS
 10
364.0357657839
 20
31.6877311038
 11
364.1513903428
 21
31.6554674174
  0
LINE
  8
0
 62
7
  6
CONTINUOUS
 10
368.3717032839
 20
30.9779299347
 11
368.2560780634
 21
31.0101936212
  0
LINE
  8
0
 62
7
  6
CONTINUOUS
 10
366.8685780634
 20
31.6877311038
 11
366.9842032839
 21
31.6554674174
  0
LINE
  8
0
 62
7
  6
CONTINUOUS
 10
368.0248282839
 20
30.945666237
 11
368.1982657839
 21
30.8811388585
  0
LINE
  8
0
 62
7
  6
CONTINUOUS
 10
367.2154530634
 20
31.7522584767
 11
367.0420155634
 21
31.8167858495
  0
LINE
  8
0
 62
7
  6
CONTINUOUS
 10
368.4295155634
 20
31.4618852989
 11
368.2560780634
 21
31.5264126717
  0
LINE
  8
0
 62
7
  6
CONTINUOUS
 10
369.2388907839
 20
31.2037757623
 11
369.4123282839
 21
31.1392483894
  0
LINE
  8
0
 62
7
  6
CONTINUOUS
 10
369.6435780634
 20
31.7199947902
 11
369.4701405634
 21
31.7845221631
  0
LINE
  8
0
 62
7
  6
CONTINUOUS
 10
368.0248282839
 20
31.4618852989
 11
368.2560780634
 21
31.3650941944
  0
LINE
  8
0
 62
7
  6
CONTINUOUS
 10
369.6435780634
 20
31.2037757623
 11
369.4123282839
 21
31.3005668216
  0
LINE
  8
0
 62
7
  6
CONTINUOUS
 10
368.1982657839
 20
31.5909400446
 11
368.2560780634
 21
31.6554674174
  0
LINE
  8
0
 62
7
  6
CONTINUOUS
 10
358.6592030565
 20
31.7199947902
 11
358.5435780634
 21
31.6554674174
  0
LINE
  8
0
 62
7
  6
CONTINUOUS
 10
358.7748280496
 20
31.5586763581
 11
358.9482655496
 21
31.6554674174
  0
LINE
  8
0
 62
7
  6
CONTINUOUS
 10
361.0873281185
 20
31.7522584767
 11
360.9717030634
 21
31.6877311038
  0
LINE
  8
0
 62
7
  6
CONTINUOUS
 10
360.9717030634
 20
31.5586763581
 11
361.0873281185
 21
31.623203731
  0
LINE
  8
0
 62
7
  6
CONTINUOUS
 10
359.9888905082
 20
30.9134025506
 11
360.1623280082
 21
31.0101936212
  0
LINE
  8
0
 62
7
  6
CONTINUOUS
 10
359.0060780772
 20
30.8488751693
 11
359.3529530358
 21
30.81661148
  0
LINE
  8
0
 62
7
  6
CONTINUOUS
 10
363.1107656736
 20
30.8488751693
 11
363.3420154531
 21
30.81661148
  0
LINE
  8
0
 62
7
  6
CONTINUOUS
 10
361.4920155634
 20
31.7199947902
 11
361.7232656736
 21
31.6877311038
  0
LINE
  8
0
 62
7
  6
CONTINUOUS
 10
363.8045156736
 20
31.7199947902
 11
364.0357657839
 21
31.6877311038
  0
LINE
  8
0
 62
7
  6
CONTINUOUS
 10
368.2560780634
 20
31.3650941944
 11
369.2388907839
 21
31.2037757623
  0
LINE
  8
0
 62
7
  6
CONTINUOUS
 10
369.4123282839
 20
31.3005668216
 11
368.4295155634
 21
31.4618852989
  0
LINE
  8
0
 62
7
  6
CONTINUOUS
 10
361.8967031736
 20
31.8167858495
 11
361.7232656736
 21
31.8490495359
  0
LINE
  8
0
 62
7
  6
CONTINUOUS
 10
368.1982657839
 20
30.8811388585
 11
368.3717032839
 21
30.8488751693
  0
LINE
  8
0
 62
7
  6
CONTINUOUS
 10
367.0420155634
 20
31.8167858495
 11
366.8685780634
 21
31.8490495359
  0
LINE
  8
0
 62
7
  6
CONTINUOUS
 10
369.2967030634
 20
31.6877311038
 11
369.4123282839
 21
31.6554674174
  0
LINE
  8
0
 62
7
  6
CONTINUOUS
 10
369.4701405634
 20
31.074720994
 11
369.4123282839
 21
31.0101936212
  0
LINE
  8
0
 62
7
  6
CONTINUOUS
 10
368.0248282839
 20
31.7522584767
 11
367.9092030634
 21
31.6554674174
  0
LINE
  8
0
 62
7
  6
CONTINUOUS
 10
362.9373281736
 20
31.7845221631
 11
362.8217029531
 21
31.7199947902
  0
LINE
  8
0
 62
7
  6
CONTINUOUS
 10
362.9951404531
 20
31.397357926
 11
362.8795155634
 21
31.332830508
  0
LINE
  8
0
 62
7
  6
CONTINUOUS
 10
363.1107656736
 20
31.2360394487
 11
363.2263905634
 21
31.3005668216
  0
LINE
  8
0
 62
7
  6
CONTINUOUS
 10
360.6826405082
 20
30.81661148
 11
360.9717030634
 21
30.81661148
  0
LINE
  8
0
 62
7
  6
CONTINUOUS
 10
362.0123280634
 20
30.81661148
 11
362.3013904531
 21
30.81661148
  0
LINE
  8
0
 62
7
  6
CONTINUOUS
 10
363.3420154531
 20
30.81661148
 11
363.6888904531
 21
30.81661148
  0
LINE
  8
0
 62
7
  6
CONTINUOUS
 10
364.3248278428
 20
30.81661148
 11
364.6138905634
 21
30.81661148
  0
LINE
  8
0
 62
7
  6
CONTINUOUS
 10
365.0763907839
 20
30.81661148
 11
365.3654528428
 21
30.81661148
  0
LINE
  8
0
 62
7
  6
CONTINUOUS
 10
365.8279530634
 20
30.81661148
 11
366.1170157839
 21
30.81661148
  0
LINE
  8
0
 62
7
  6
CONTINUOUS
 10
367.1576407839
 20
30.81661148
 11
367.4467028428
 21
30.81661148
  0
LINE
  8
0
 62
7
  6
CONTINUOUS
 10
368.7185782839
 20
30.81661148
 11
369.0654532839
 21
30.81661148
  0
LINE
  8
0
 62
7
  6
CONTINUOUS
 10
369.0654532839
 20
30.945666237
 11
368.7185782839
 21
30.945666237
  0
LINE
  8
0
 62
7
  6
CONTINUOUS
 10
363.6888904531
 20
30.945666237
 11
363.3420154531
 21
30.945666237
  0
LINE
  8
0
 62
7
  6
CONTINUOUS
 10
368.1982657839
 20
31.074720994
 11
367.9092030634
 21
31.074720994
  0
LINE
  8
0
 62
7
  6
CONTINUOUS
 10
360.2201406185
 20
31.1392483894
 11
359.9310780634
 21
31.1392483894
  0
LINE
  8
0
 62
7
  6
CONTINUOUS
 10
359.2951405909
 20
31.7199947902
 11
359.6998280358
 21
31.6877311038
  0
LINE
  8
0
 62
7
  6
CONTINUOUS
 10
359.7576405634
 20
31.8167858495
 11
359.3529530358
 21
31.8490495359
  0
LINE
  8
0
 62
7
  6
CONTINUOUS
 10
368.3717032839
 20
30.8488751693
 11
368.7185782839
 21
30.81661148
  0
LINE
  8
0
 62
7
  6
CONTINUOUS
 10
368.7185782839
 20
30.945666237
 11
368.3717032839
 21
30.9779299347
  0
LINE
  8
0
 62
7
  6
CONTINUOUS
 10
364.1513903428
 20
31.8167858495
 11
363.8045156736
 21
31.8490495359
  0
LINE
  8
0
 62
7
  6
CONTINUOUS
 10
368.9498280634
 20
31.7199947902
 11
369.2967030634
 21
31.6877311038
  0
LINE
  8
0
 62
7
  6
CONTINUOUS
 10
369.2967030634
 20
31.8167858495
 11
368.9498280634
 21
31.8490495359
  0
LINE
  8
0
 62
7
  6
CONTINUOUS
 10
366.6373282839
 20
31.7199947902
 11
366.8685780634
 21
31.6877311038
  0
LINE
  8
0
 62
7
  6
CONTINUOUS
 10
369.4701405634
 20
31.7845221631
 11
369.2967030634
 21
31.8167858495
  0
LINE
  8
0
 62
7
  6
CONTINUOUS
 10
369.6435780634
 20
30.9134025506
 11
369.7592026223
 21
31.0101936212
  0
LINE
  8
0
 62
7
  6
CONTINUOUS
 10
364.1513903428
 20
31.106984703
 11
363.9779528428
 21
31.0101936212
  0
LINE
  8
0
 62
7
  6
CONTINUOUS
 10
366.2326403428
 20
31.7522584767
 11
366.1170157839
 21
31.6877311038
  0
LINE
  8
0
 62
7
  6
CONTINUOUS
 10
366.1170157839
 20
31.5586763581
 11
366.2326403428
 21
31.623203731
  0
LINE
  8
0
 62
7
  6
CONTINUOUS
 10
358.8326405772
 20
31.7845221631
 11
358.6592030565
 21
31.7199947902
  0
LINE
  8
0
 62
7
  6
CONTINUOUS
 10
361.2607654531
 20
31.8167858495
 11
361.0873281185
 21
31.7522584767
  0
LINE
  8
0
 62
7
  6
CONTINUOUS
 10
361.0873281185
 20
31.623203731
 11
361.2607654531
 21
31.6877311038
  0
LINE
  8
0
 62
7
  6
CONTINUOUS
 10
359.8732656185
 20
31.0424573076
 11
359.6998280358
 21
30.9779299347
  0
LINE
  8
0
 62
7
  6
CONTINUOUS
 10
369.2967030634
 20
30.9779299347
 11
369.0654532839
 21
30.945666237
  0
LINE
  8
0
 62
7
  6
CONTINUOUS
 10
363.6888904531
 20
30.81661148
 11
363.9779528428
 21
30.8488751693
  0
LINE
  8
0
 62
7
  6
CONTINUOUS
 10
369.0654532839
 20
30.81661148
 11
369.4123282839
 21
30.8488751693
  0
LINE
  8
0
 62
7
  6
CONTINUOUS
 10
359.3529530358
 20
30.81661148
 11
359.7576405634
 21
30.8488751693
  0
LINE
  8
0
 62
7
  6
CONTINUOUS
 10
359.6998280358
 20
30.9779299347
 11
359.2951405909
 21
30.945666237
  0
LINE
  8
0
 62
7
  6
CONTINUOUS
 10
363.5732655634
 20
31.3650941944
 11
364.2092032839
 21
31.3650941944
  0
LINE
  8
0
 62
7
  6
CONTINUOUS
 10
364.2092032839
 20
31.4941489853
 11
363.5732655634
 21
31.4941489853
  0
LINE
  8
0
 62
7
  6
CONTINUOUS
 10
359.9310780634
 20
31.5264126717
 11
360.2201406185
 21
31.5264126717
  0
LINE
  8
0
 62
7
  6
CONTINUOUS
 10
362.7638906736
 20
31.5909400446
 11
363.0529530634
 21
31.5909400446
  0
LINE
  8
0
 62
7
  6
CONTINUOUS
 10
369.4701405634
 20
31.5909400446
 11
369.7592026223
 21
31.5909400446
  0
LINE
  8
0
 62
7
  6
CONTINUOUS
 10
363.4576406736
 20
31.7199947902
 11
363.8045156736
 21
31.7199947902
  0
LINE
  8
0
 62
7
  6
CONTINUOUS
 10
368.6029530634
 20
31.7199947902
 11
368.9498280634
 21
31.7199947902
  0
LINE
  8
0
 62
7
  6
CONTINUOUS
 10
368.9498280634
 20
31.8490495359
 11
368.6029530634
 21
31.8490495359
  0
LINE
  8
0
 62
7
  6
CONTINUOUS
 10
366.8685780634
 20
31.8490495359
 11
366.6373282839
 21
31.8490495359
  0
LINE
  8
0
 62
7
  6
CONTINUOUS
 10
366.1170157839
 20
31.8490495359
 11
365.8279530634
 21
31.8490495359
  0
LINE
  8
0
 62
7
  6
CONTINUOUS
 10
365.3654528428
 20
31.8490495359
 11
365.0763907839
 21
31.8490495359
  0
LINE
  8
0
 62
7
  6
CONTINUOUS
 10
363.8045156736
 20
31.8490495359
 11
363.4576406736
 21
31.8490495359
  0
LINE
  8
0
 62
7
  6
CONTINUOUS
 10
361.7232656736
 20
31.8490495359
 11
361.4920155634
 21
31.8490495359
  0
LINE
  8
0
 62
7
  6
CONTINUOUS
 10
365.0763907839
 20
32.1716864905
 11
365.3654528428
 21
32.1716864905
  0
LINE
  8
0
 62
7
  6
CONTINUOUS
 10
365.3654528428
 20
32.3330049227
 11
365.0763907839
 21
32.3330049227
  0
LINE
  8
0
 62
7
  6
CONTINUOUS
 10
360.9717030634
 20
32.3330049227
 11
360.6826405082
 21
32.3330049227
  0
LINE
  8
0
 62
7
  6
CONTINUOUS
 10
360.0094848257
 20
32.6198901686
 11
360.4220561743
 21
32.6198901686
  0
LINE
  8
0
 62
7
  6
CONTINUOUS
 10
361.648829088
 20
32.6198901686
 11
363.0422717109
 21
32.6198901686
  0
LINE
  8
0
 62
7
  6
CONTINUOUS
 10
363.3701405634
 20
32.6198901686
 11
364.7635831863
 21
32.6198901686
  0
LINE
  8
0
 62
7
  6
CONTINUOUS
 10
366.648829088
 20
32.6198901686
 11
368.0422717109
 21
32.6198901686
  0
LINE
  8
0
 62
7
  6
CONTINUOUS
 10
368.3701405634
 20
32.6198901686
 11
369.7635831863
 21
32.6198901686
  0
LINE
  8
0
 62
7
  6
CONTINUOUS
 10
366.4060778428
 20
31.8167858495
 11
366.2326403428
 21
31.7522584767
  0
LINE
  8
0
 62
7
  6
CONTINUOUS
 10
363.9779528428
 20
30.8488751693
 11
364.1513903428
 21
30.9134025506
  0
LINE
  8
0
 62
7
  6
CONTINUOUS
 10
369.4123282839
 20
30.8488751693
 11
369.6435780634
 21
30.9134025506
  0
LINE
  8
0
 62
7
  6
CONTINUOUS
 10
369.4123282839
 20
31.0101936212
 11
369.2967030634
 21
30.9779299347
  0
LINE
  8
0
 62
7
  6
CONTINUOUS
 10
368.3717032839
 20
31.6877311038
 11
368.6029530634
 21
31.7199947902
  0
LINE
  8
0
 62
7
  6
CONTINUOUS
 10
366.4060778428
 20
31.6877311038
 11
366.6373282839
 21
31.7199947902
  0
LINE
  8
0
 62
7
  6
CONTINUOUS
 10
363.3420154531
 20
31.332830508
 11
363.5732655634
 21
31.3650941944
  0
LINE
  8
0
 62
7
  6
CONTINUOUS
 10
366.6373282839
 20
31.8490495359
 11
366.4060778428
 21
31.8167858495
  0
LINE
  8
0
 62
7
  6
CONTINUOUS
 10
363.2263905634
 20
31.6877311038
 11
363.4576406736
 21
31.7199947902
  0
LINE
  8
0
 62
7
  6
CONTINUOUS
 10
368.6029530634
 20
31.8490495359
 11
368.2560780634
 21
31.8167858495
  0
LINE
  8
0
 62
7
  6
CONTINUOUS
 10
363.5732655634
 20
31.4941489853
 11
363.2263905634
 21
31.4618852989
  0
LINE
  8
0
 62
7
  6
CONTINUOUS
 10
359.3529530358
 20
31.8490495359
 11
359.0060780772
 21
31.8167858495
  0
LINE
  8
0
 62
7
  6
CONTINUOUS
 10
363.4576406736
 20
31.8490495359
 11
363.0529530634
 21
31.8167858495
  0
LINE
  8
0
 62
7
  6
CONTINUOUS
 10
360.8291569568
 20
33.7674311522
 11
360.1734192519
 21
33.7674311522
  0
LINE
  8
0
 62
7
  6
CONTINUOUS
 10
366.2326403428
 20
31.623203731
 11
366.4060778428
 21
31.6877311038
  0
LINE
  8
0
 62
7
  6
CONTINUOUS
 10
368.2560780634
 20
31.6554674174
 11
368.3717032839
 21
31.6877311038
  0
LINE
  8
0
 62
7
  6
CONTINUOUS
 10
368.2560780634
 20
31.8167858495
 11
368.0248282839
 21
31.7522584767
  0
LINE
  8
0
 62
7
  6
CONTINUOUS
 10
363.9779528428
 20
31.0101936212
 11
363.6888904531
 21
30.945666237
  0
LINE
  8
0
 62
7
  6
CONTINUOUS
 10
361.2607654531
 20
31.6877311038
 11
361.4920155634
 21
31.7199947902
  0
LINE
  8
0
 62
7
  6
CONTINUOUS
 10
361.4920155634
 20
31.8490495359
 11
361.2607654531
 21
31.8167858495
  0
LINE
  8
0
 62
7
  6
CONTINUOUS
 10
359.0638905634
 20
31.6877311038
 11
359.2951405909
 21
31.7199947902
  0
LINE
  8
0
 62
7
  6
CONTINUOUS
 10
365.5832553175
 20
35.2428409882
 11
366.2389930224
 21
35.2428409882
  0
LINE
  8
0
 62
7
  6
CONTINUOUS
 10
363.2263905634
 20
31.3005668216
 11
363.3420154531
 21
31.332830508
  0
LINE
  8
0
 62
7
  6
CONTINUOUS
 10
363.2263905634
 20
31.4618852989
 11
362.9951404531
 21
31.397357926
  0
LINE
  8
0
 62
7
  6
CONTINUOUS
 10
363.1107656736
 20
31.6554674174
 11
363.2263905634
 21
31.6877311038
  0
LINE
  8
0
 62
7
  6
CONTINUOUS
 10
359.7576405634
 20
30.8488751693
 11
359.9888905082
 21
30.9134025506
  0
LINE
  8
0
 62
7
  6
CONTINUOUS
 10
363.0529530634
 20
31.8167858495
 11
362.9373281736
 21
31.7845221631
  0
LINE
  8
0
 62
7
  6
CONTINUOUS
 10
359.0060780772
 20
31.8167858495
 11
358.8326405772
 21
31.7845221631
  0
LINE
  8
0
 62
7
  6
CONTINUOUS
 10
369.7635831863
 20
36.3903819718
 11
368.3701405634
 21
36.3903819718
  0
LINE
  8
0
 62
7
  6
CONTINUOUS
 10
366.4029274486
 20
36.3903819718
 11
365.9903561
 21
36.3903819718
  0
LINE
  8
0
 62
7
  6
CONTINUOUS
 10
364.7635831863
 20
36.3903819718
 11
363.3701405634
 21
36.3903819718
  0
LINE
  8
0
 62
7
  6
CONTINUOUS
 10
363.0422717109
 20
36.3903819718
 11
361.648829088
 21
36.3903819718
  0
LINE
  8
0
 62
7
  6
CONTINUOUS
 10
359.7635831863
 20
36.3903819718
 11
358.3701405634
 21
36.3903819718
  0
LINE
  8
0
 62
7
  6
CONTINUOUS
 10
358.9482655496
 20
31.6554674174
 11
359.0638905634
 21
31.6877311038
  0
CIRCLE
  8
0
 62
7
  6
CONTINUOUS
 10
369.0668618749
 20
38.7264475456
 40
2.0901639344
  0
ARC
  8
0
 62
7
  6
CONTINUOUS
 10
360.0094848257
 20
34.2592344308
 40
1.6393442623
 50
180.0
 51
270.0
  0
ARC
  8
0
 62
7
  6
CONTINUOUS
 10
366.4029274486
 20
34.7510377095
 40
1.6393442623
 50
0.0
 51
90.0
  0
ARC
  8
0
 62
7
  6
CONTINUOUS
 10
360.4220561743
 20
34.0953000046
 40
1.4754098361
 50
270.0
 51
326.2510114041
  0
ARC
  8
0
 62
7
  6
CONTINUOUS
 10
365.9903561
 20
34.9149721358
 40
1.4754098361
 50
90.0
 51
146.2510114041
  0
ARC
  8
0
 62
7
  6
CONTINUOUS
 10
360.8291569568
 20
34.5871032833
 40
0.8196721311
 50
270.0
 51
360.0
  0
ARC
  8
0
 62
7
  6
CONTINUOUS
 10
365.5832553175
 20
34.4231688571
 40
0.8196721311
 50
90.0
 51
180.0
  0
ARC
  8
0
 62
7
  6
CONTINUOUS
 10
360.1734192519
 20
34.1772672177
 40
0.4098360656
 50
180.0
 51
270.0
  0
ARC
  8
0
 62
7
  6
CONTINUOUS
 10
366.2389930224
 20
34.8330049227
 40
0.4098360656
 50
0.0
 51
90.0
  0
SOLID
  8
0
 62
7
  6
CONTINUOUS
 10
365.0763907839
 20
32.1716868508
 11
365.0763907839
 21
32.3330053344
 12
365.3654528428
 22
32.1716868508
 13
365.3654528428
 23
32.3330053344
  0
SOLID
  8
0
 62
7
  6
CONTINUOUS
 10
359.3529530358
 20
31.8490498836
 11
359.7576405634
 21
31.8167854792
 12
359.0060780772
 22
31.8167854792
 13
359.0060780772
 23
31.8167854792
  0
SOLID
  8
0
 62
7
  6
CONTINUOUS
 10
358.8326405772
 20
31.7845227934
 11
359.0060780772
 21
31.8167854792
 12
359.7576405634
 22
31.8167854792
 13
359.7576405634
 23
31.8167854792
  0
SOLID
  8
0
 62
7
  6
CONTINUOUS
 10
359.7576405634
 20
31.8167854792
 11
359.9888905082
 21
31.7522584901
 12
358.8326405772
 22
31.7845227934
 13
358.8326405772
 23
31.7845227934
  0
SOLID
  8
0
 62
7
  6
CONTINUOUS
 10
358.6592030565
 20
31.7199940664
 11
358.8326405772
 21
31.7845227934
 12
359.9888905082
 22
31.7522584901
 13
359.9888905082
 23
31.7522584901
  0
SOLID
  8
0
 62
7
  6
CONTINUOUS
 10
358.6592030565
 20
31.7199940664
 11
359.9888905082
 21
31.7522584901
 12
359.2951405909
 22
31.7199940664
 13
359.2951405909
 23
31.7199940664
  0
SOLID
  8
0
 62
7
  6
CONTINUOUS
 10
359.2951405909
 20
31.7199940664
 11
359.9888905082
 21
31.7522584901
 12
359.6998280358
 22
31.6877314
 13
359.6998280358
 23
31.6877314
  0
SOLID
  8
0
 62
7
  6
CONTINUOUS
 10
359.9888905082
 20
31.7522584901
 11
360.1623280082
 21
31.6554670967
 12
359.6998280358
 22
31.6877314
 13
359.6998280358
 23
31.6877314
  0
SOLID
  8
0
 62
7
  6
CONTINUOUS
 10
359.8732656185
 20
31.6232043098
 11
359.6998280358
 21
31.6877314
 12
360.1623280082
 22
31.6554670967
 13
360.1623280082
 23
31.6554670967
  0
SOLID
  8
0
 62
7
  6
CONTINUOUS
 10
359.8732656185
 20
31.6232043098
 11
360.1623280082
 21
31.6554670967
 12
359.9310780634
 22
31.5264128539
 13
359.9310780634
 23
31.5264128539
  0
SOLID
  8
0
 62
7
  6
CONTINUOUS
 10
360.1623280082
 20
31.6554670967
 11
360.2201406185
 21
31.5264128539
 12
359.9310780634
 22
31.5264128539
 13
359.9310780634
 23
31.5264128539
  0
SOLID
  8
0
 62
7
  6
CONTINUOUS
 10
361.2607654531
 20
31.8167852459
 11
361.4920155634
 21
31.8490495492
 12
361.7232656736
 22
31.8490495492
 13
361.7232656736
 23
31.8490495492
  0
SOLID
  8
0
 62
7
  6
CONTINUOUS
 10
361.7232656736
 20
31.8490495492
 11
361.8967031736
 21
31.8167852459
 12
361.2607654531
 22
31.8167852459
 13
361.2607654531
 23
31.8167852459
  0
SOLID
  8
0
 62
7
  6
CONTINUOUS
 10
361.0873281185
 20
31.7522581557
 11
361.2607654531
 21
31.8167852459
 12
361.8967031736
 22
31.8167852459
 13
361.8967031736
 23
31.8167852459
  0
SOLID
  8
0
 62
7
  6
CONTINUOUS
 10
361.8967031736
 20
31.8167852459
 11
362.0701406736
 21
31.7522581557
 12
361.0873281185
 22
31.7522581557
 13
361.0873281185
 23
31.7522581557
  0
SOLID
  8
0
 62
7
  6
CONTINUOUS
 10
362.0701406736
 20
31.7522581557
 11
361.4920155634
 21
31.7199941869
 12
361.0873281185
 22
31.7522581557
 13
361.0873281185
 23
31.7522581557
  0
SOLID
  8
0
 62
7
  6
CONTINUOUS
 10
360.9717030634
 20
31.6877310656
 11
361.0873281185
 21
31.7522581557
 12
361.4920155634
 22
31.7199941869
 13
361.4920155634
 23
31.7199941869
  0
SOLID
  8
0
 62
7
  6
CONTINUOUS
 10
361.4920155634
 20
31.7199941869
 11
361.2607654531
 21
31.6877310656
 12
360.9717030634
 22
31.6877310656
 13
360.9717030634
 23
31.6877310656
  0
SOLID
  8
0
 62
7
  6
CONTINUOUS
 10
361.4920155634
 20
31.7199941869
 11
362.0701406736
 21
31.7522581557
 12
361.7232656736
 22
31.6877310656
 13
361.7232656736
 23
31.6877310656
  0
SOLID
  8
0
 62
7
  6
CONTINUOUS
 10
362.0701406736
 20
31.7522581557
 11
362.1857655634
 21
31.6877310656
 12
361.7232656736
 22
31.6877310656
 13
361.7232656736
 23
31.6877310656
  0
SOLID
  8
0
 62
7
  6
CONTINUOUS
 10
361.8388905634
 20
31.6554670967
 11
361.7232656736
 21
31.6877310656
 12
362.1857655634
 22
31.6877310656
 13
362.1857655634
 23
31.6877310656
  0
SOLID
  8
0
 62
7
  6
CONTINUOUS
 10
362.1857655634
 20
31.6877310656
 11
362.2435781736
 21
31.6232039754
 12
361.8388905634
 22
31.6554670967
 13
361.8388905634
 23
31.6554670967
  0
SOLID
  8
0
 62
7
  6
CONTINUOUS
 10
361.9545154531
 20
31.5909400065
 11
361.8388905634
 21
31.6554670967
 12
362.2435781736
 22
31.6232039754
 13
362.2435781736
 23
31.6232039754
  0
SOLID
  8
0
 62
7
  6
CONTINUOUS
 10
361.9545154531
 20
31.5909400065
 11
362.2435781736
 21
31.6232039754
 12
362.0123280634
 22
31.4618854918
 13
362.0123280634
 23
31.4618854918
  0
SOLID
  8
0
 62
7
  6
CONTINUOUS
 10
362.2435781736
 20
31.6232039754
 11
362.3013904531
 21
31.4618854918
 12
362.0123280634
 22
31.4618854918
 13
362.0123280634
 23
31.4618854918
  0
SOLID
  8
0
 62
7
  6
CONTINUOUS
 10
361.2607654531
 20
31.6877310656
 11
361.0873281185
 21
31.6232039754
 12
360.9717030634
 22
31.6877310656
 13
360.9717030634
 23
31.6877310656
  0
SOLID
  8
0
 62
7
  6
CONTINUOUS
 10
361.0873281185
 20
31.6232039754
 11
360.9717030634
 21
31.5586757033
 12
360.9717030634
 22
31.6877310656
 13
360.9717030634
 23
31.6877310656
  0
SOLID
  8
0
 62
7
  6
CONTINUOUS
 10
360.9717030634
 20
31.5586757033
 11
360.6826405082
 21
30.8166115574
 12
360.9717030634
 22
31.6877310656
 13
360.9717030634
 23
31.6877310656
  0
SOLID
  8
0
 62
7
  6
CONTINUOUS
 10
360.9717030634
 20
31.6877310656
 11
360.6826405082
 21
30.8166115574
 12
360.9717030634
 22
32.333005
 13
360.9717030634
 23
32.333005
  0
SOLID
  8
0
 62
7
  6
CONTINUOUS
 10
360.6826405082
 20
30.8166115574
 11
360.6826405082
 21
32.333005
 12
360.9717030634
 22
32.333005
 13
360.9717030634
 23
32.333005
  0
SOLID
  8
0
 62
7
  6
CONTINUOUS
 10
360.9717030634
 20
31.5586757033
 11
360.9717030634
 21
30.8166115574
 12
360.6826405082
 22
30.8166115574
 13
360.6826405082
 23
30.8166115574
  0
SOLID
  8
0
 62
7
  6
CONTINUOUS
 10
362.0123280634
 20
30.8166115574
 11
362.0123280634
 21
31.4618854918
 12
362.3013904531
 22
31.4618854918
 13
362.3013904531
 23
31.4618854918
  0
SOLID
  8
0
 62
7
  6
CONTINUOUS
 10
362.3013904531
 20
31.4618854918
 11
362.3013904531
 21
30.8166115574
 12
362.0123280634
 22
30.8166115574
 13
362.0123280634
 23
30.8166115574
  0
SOLID
  8
0
 62
7
  6
CONTINUOUS
 10
363.0529530634
 20
31.8167856315
 11
363.4576406736
 21
31.8490496243
 12
363.8045156736
 22
31.8490496243
 13
363.8045156736
 23
31.8490496243
  0
SOLID
  8
0
 62
7
  6
CONTINUOUS
 10
363.8045156736
 20
31.8490496243
 11
364.1513903428
 21
31.8167856315
 12
363.0529530634
 22
31.8167856315
 13
363.0529530634
 23
31.8167856315
  0
SOLID
  8
0
 62
7
  6
CONTINUOUS
 10
362.9373281736
 20
31.7845227934
 11
363.0529530634
 21
31.8167856315
 12
364.1513903428
 22
31.8167856315
 13
364.1513903428
 23
31.8167856315
  0
SOLID
  8
0
 62
7
  6
CONTINUOUS
 10
364.1513903428
 20
31.8167856315
 11
364.3248278428
 21
31.7522584901
 12
362.9373281736
 22
31.7845227934
 13
362.9373281736
 23
31.7845227934
  0
SOLID
  8
0
 62
7
  6
CONTINUOUS
 10
362.8217029531
 20
31.7199944276
 11
362.9373281736
 21
31.7845227934
 12
364.3248278428
 22
31.7522584901
 13
364.3248278428
 23
31.7522584901
  0
SOLID
  8
0
 62
7
  6
CONTINUOUS
 10
362.8217029531
 20
31.7199944276
 11
364.3248278428
 21
31.7522584901
 12
363.4576406736
 22
31.7199944276
 13
363.4576406736
 23
31.7199944276
  0
SOLID
  8
0
 62
7
  6
CONTINUOUS
 10
363.4576406736
 20
31.7199944276
 11
364.3248278428
 21
31.7522584901
 12
363.8045156736
 22
31.7199944276
 13
363.8045156736
 23
31.7199944276
  0
SOLID
  8
0
 62
7
  6
CONTINUOUS
 10
363.8045156736
 20
31.7199944276
 11
364.3248278428
 21
31.7522584901
 12
364.0357657839
 22
31.6877312092
 13
364.0357657839
 23
31.6877312092
  0
SOLID
  8
0
 62
7
  6
CONTINUOUS
 10
364.3248278428
 20
31.7522584901
 11
364.4404530634
 21
31.6877312092
 12
364.0357657839
 22
31.6877312092
 13
364.0357657839
 23
31.6877312092
  0
SOLID
  8
0
 62
7
  6
CONTINUOUS
 10
362.7638906736
 20
31.6554672165
 11
362.8217029531
 21
31.7199944276
 12
363.4576406736
 22
31.7199944276
 13
363.4576406736
 23
31.7199944276
  0
SOLID
  8
0
 62
7
  6
CONTINUOUS
 10
364.1513903428
 20
31.6554672165
 11
364.0357657839
 21
31.6877312092
 12
364.4404530634
 22
31.6877312092
 13
364.4404530634
 23
31.6877312092
  0
SOLID
  8
0
 62
7
  6
CONTINUOUS
 10
364.1513903428
 20
31.6554672165
 11
364.4404530634
 21
31.6877312092
 12
364.2092032839
 22
31.5909400053
 13
364.2092032839
 23
31.5909400053
  0
SOLID
  8
0
 62
7
  6
CONTINUOUS
 10
364.4404530634
 20
31.6877312092
 11
364.4982653428
 21
31.5909400053
 12
364.2092032839
 22
31.5909400053
 13
364.2092032839
 23
31.5909400053
  0
SOLID
  8
0
 62
7
  6
CONTINUOUS
 10
364.2092032839
 20
31.4941486131
 11
364.2092032839
 21
31.5909400053
 12
364.4982653428
 22
31.5909400053
 13
364.4982653428
 23
31.5909400053
  0
SOLID
  8
0
 62
7
  6
CONTINUOUS
 10
364.2092032839
 20
31.4941486131
 11
364.4982653428
 21
31.5909400053
 12
364.2092032839
 22
31.3650944328
 13
364.2092032839
 23
31.3650944328
  0
SOLID
  8
0
 62
7
  6
CONTINUOUS
 10
364.2092032839
 20
31.3650944328
 11
364.4982653428
 21
31.5909400053
 12
364.2092032839
 22
31.1715120759
 13
364.2092032839
 23
31.1715120759
  0
SOLID
  8
0
 62
7
  6
CONTINUOUS
 10
364.4982653428
 20
31.5909400053
 11
364.4982653428
 21
31.0747202524
 12
364.2092032839
 22
31.1715120759
 13
364.2092032839
 23
31.1715120759
  0
SOLID
  8
0
 62
7
  6
CONTINUOUS
 10
366.4060778428
 20
31.8167851023
 11
366.6373282839
 21
31.849049822
 12
366.8685780634
 22
31.849049822
 13
366.8685780634
 23
31.849049822
  0
SOLID
  8
0
 62
7
  6
CONTINUOUS
 10
366.8685780634
 20
31.849049822
 11
367.0420155634
 21
31.8167851023
 12
366.4060778428
 22
31.8167851023
 13
366.4060778428
 23
31.8167851023
  0
SOLID
  8
0
 62
7
  6
CONTINUOUS
 10
366.2326403428
 20
31.7522587602
 11
366.4060778428
 21
31.8167851023
 12
367.0420155634
 22
31.8167851023
 13
367.0420155634
 23
31.8167851023
  0
SOLID
  8
0
 62
7
  6
CONTINUOUS
 10
367.0420155634
 20
31.8167851023
 11
367.2154530634
 21
31.7522587602
 12
366.2326403428
 22
31.7522587602
 13
366.2326403428
 23
31.7522587602
  0
SOLID
  8
0
 62
7
  6
CONTINUOUS
 10
367.2154530634
 20
31.7522587602
 11
366.6373282839
 21
31.7199941869
 12
366.2326403428
 22
31.7522587602
 13
366.2326403428
 23
31.7522587602
  0
SOLID
  8
0
 62
7
  6
CONTINUOUS
 10
366.1170157839
 20
31.6877313857
 11
366.2326403428
 21
31.7522587602
 12
366.6373282839
 22
31.7199941869
 13
366.6373282839
 23
31.7199941869
  0
SOLID
  8
0
 62
7
  6
CONTINUOUS
 10
366.6373282839
 20
31.7199941869
 11
366.4060778428
 21
31.6877313857
 12
366.1170157839
 22
31.6877313857
 13
366.1170157839
 23
31.6877313857
  0
SOLID
  8
0
 62
7
  6
CONTINUOUS
 10
366.6373282839
 20
31.7199941869
 11
367.2154530634
 21
31.7522587602
 12
366.8685780634
 22
31.6877313857
 13
366.8685780634
 23
31.6877313857
  0
SOLID
  8
0
 62
7
  6
CONTINUOUS
 10
367.2154530634
 20
31.7522587602
 11
367.3310782839
 21
31.6877313857
 12
366.8685780634
 22
31.6877313857
 13
366.8685780634
 23
31.6877313857
  0
SOLID
  8
0
 62
7
  6
CONTINUOUS
 10
366.9842032839
 20
31.6554670967
 11
366.8685780634
 21
31.6877313857
 12
367.3310782839
 22
31.6877313857
 13
367.3310782839
 23
31.6877313857
  0
SOLID
  8
0
 62
7
  6
CONTINUOUS
 10
366.9842032839
 20
31.6554670967
 11
367.3310782839
 21
31.6877313857
 12
367.0998278428
 22
31.590940324
 13
367.0998278428
 23
31.590940324
  0
SOLID
  8
0
 62
7
  6
CONTINUOUS
 10
367.3310782839
 20
31.6877313857
 11
367.3888905634
 21
31.590940324
 12
367.0998278428
 22
31.590940324
 13
367.0998278428
 23
31.590940324
  0
SOLID
  8
0
 62
7
  6
CONTINUOUS
 10
367.1576407839
 20
31.4296218878
 11
367.0998278428
 21
31.590940324
 12
367.3888905634
 22
31.590940324
 13
367.3888905634
 23
31.590940324
  0
SOLID
  8
0
 62
7
  6
CONTINUOUS
 10
367.3888905634
 20
31.590940324
 11
367.4467028428
 21
31.4296218878
 12
367.1576407839
 22
31.4296218878
 13
367.1576407839
 23
31.4296218878
  0
SOLID
  8
0
 62
7
  6
CONTINUOUS
 10
366.4060778428
 20
31.6877313857
 11
366.2326403428
 21
31.6232043098
 12
366.1170157839
 22
31.6877313857
 13
366.1170157839
 23
31.6877313857
  0
SOLID
  8
0
 62
7
  6
CONTINUOUS
 10
366.2326403428
 20
31.6232043098
 11
366.1170157839
 21
31.5586757033
 12
366.1170157839
 22
31.6877313857
 13
366.1170157839
 23
31.6877313857
  0
SOLID
  8
0
 62
7
  6
CONTINUOUS
 10
366.1170157839
 20
31.5586757033
 11
365.8279530634
 21
30.8166118302
 12
366.1170157839
 22
31.6877313857
 13
366.1170157839
 23
31.6877313857
  0
SOLID
  8
0
 62
7
  6
CONTINUOUS
 10
366.1170157839
 20
31.6877313857
 11
365.8279530634
 21
30.8166118302
 12
366.1170157839
 22
31.849049822
 13
366.1170157839
 23
31.849049822
  0
SOLID
  8
0
 62
7
  6
CONTINUOUS
 10
365.8279530634
 20
30.8166118302
 11
365.8279530634
 21
31.849049822
 12
366.1170157839
 22
31.849049822
 13
366.1170157839
 23
31.849049822
  0
SOLID
  8
0
 62
7
  6
CONTINUOUS
 10
366.1170157839
 20
31.5586757033
 11
366.1170157839
 21
30.8166118302
 12
365.8279530634
 22
30.8166118302
 13
365.8279530634
 23
30.8166118302
  0
SOLID
  8
0
 62
7
  6
CONTINUOUS
 10
367.1576407839
 20
30.8166118302
 11
367.1576407839
 21
31.4296218878
 12
367.4467028428
 22
31.4296218878
 13
367.4467028428
 23
31.4296218878
  0
SOLID
  8
0
 62
7
  6
CONTINUOUS
 10
367.4467028428
 20
31.4296218878
 11
367.4467028428
 21
30.8166118302
 12
367.1576407839
 22
30.8166118302
 13
367.1576407839
 23
30.8166118302
  0
SOLID
  8
0
 62
7
  6
CONTINUOUS
 10
368.2560780634
 20
31.8167856056
 11
368.6029530634
 21
31.8490498552
 12
368.9498280634
 22
31.8490498552
 13
368.9498280634
 23
31.8490498552
  0
SOLID
  8
0
 62
7
  6
CONTINUOUS
 10
368.9498280634
 20
31.8490498552
 11
369.2967030634
 21
31.8167856056
 12
368.2560780634
 22
31.8167856056
 13
368.2560780634
 23
31.8167856056
  0
SOLID
  8
0
 62
7
  6
CONTINUOUS
 10
368.0248282839
 20
31.7522584901
 11
368.2560780634
 21
31.8167856056
 12
369.2967030634
 22
31.8167856056
 13
369.2967030634
 23
31.8167856056
  0
SOLID
  8
0
 62
7
  6
CONTINUOUS
 10
368.0248282839
 20
31.7522584901
 11
369.2967030634
 21
31.8167855803
 12
369.4701405634
 22
31.7845227934
 13
369.4701405634
 23
31.7845227934
  0
SOLID
  8
0
 62
7
  6
CONTINUOUS
 10
368.0248282839
 20
31.7522584901
 11
369.4701405634
 21
31.7845227934
 12
368.6029530634
 22
31.7199941235
 13
368.6029530634
 23
31.7199941235
  0
SOLID
  8
0
 62
7
  6
CONTINUOUS
 10
368.6029530634
 20
31.7199941235
 11
369.4701405634
 21
31.7845227934
 12
368.9498280634
 22
31.7199941235
 13
368.9498280634
 23
31.7199941235
  0
SOLID
  8
0
 62
7
  6
CONTINUOUS
 10
369.4701405634
 20
31.7845227934
 11
369.6435780634
 21
31.7199941235
 12
368.9498280634
 22
31.7199941235
 13
368.9498280634
 23
31.7199941235
  0
SOLID
  8
0
 62
7
  6
CONTINUOUS
 10
369.2967030634
 20
31.6877314
 11
368.9498280634
 21
31.7199941235
 12
369.6435780634
 22
31.7199941235
 13
369.6435780634
 23
31.7199941235
  0
SOLID
  8
0
 62
7
  6
CONTINUOUS
 10
367.9092030634
 20
31.6554671071
 11
368.0248282839
 21
31.7522584901
 12
368.6029530634
 22
31.7199941235
 13
368.6029530634
 23
31.7199941235
  0
SOLID
  8
0
 62
7
  6
CONTINUOUS
 10
369.2967030634
 20
31.6877314
 11
369.6435780634
 21
31.7199941235
 12
369.4123282839
 22
31.6554671071
 13
369.4123282839
 23
31.6554671071
  0
SOLID
  8
0
 62
7
  6
CONTINUOUS
 10
369.4123282839
 20
31.6554671071
 11
369.6435780634
 21
31.7199941235
 12
369.4701405634
 22
31.5909400907
 13
369.4701405634
 23
31.5909400907
  0
SOLID
  8
0
 62
7
  6
CONTINUOUS
 10
369.6435780634
 20
31.7199941235
 11
369.7592026223
 21
31.5909400907
 12
369.4701405634
 22
31.5909400907
 13
369.4701405634
 23
31.5909400907
  0
SOLID
  8
0
 62
7
  6
CONTINUOUS
 10
359.0638905634
 20
31.6877314
 11
358.5435780634
 21
31.6554670789
 12
359.2951405909
 22
31.7199941045
 13
359.2951405909
 23
31.7199941045
  0
SOLID
  8
0
 62
7
  6
CONTINUOUS
 10
358.5435780634
 20
31.6554670789
 11
358.6592030565
 21
31.7199941045
 12
359.2951405909
 22
31.7199941045
 13
359.2951405909
 23
31.7199941045
  0
SOLID
  8
0
 62
7
  6
CONTINUOUS
 10
359.0638905634
 20
31.6877314
 11
358.9482655496
 21
31.6554670789
 12
358.5435780634
 22
31.6554670789
 13
358.5435780634
 23
31.6554670789
  0
SOLID
  8
0
 62
7
  6
CONTINUOUS
 10
358.4279530651
 20
31.5264129164
 11
358.5435780634
 21
31.6554670789
 12
358.9482655496
 22
31.6554670789
 13
358.9482655496
 23
31.6554670789
  0
SOLID
  8
0
 62
7
  6
CONTINUOUS
 10
362.7638906736
 20
31.6554670789
 11
363.4576406736
 21
31.7199941869
 12
363.2263905634
 22
31.6877314
 13
363.2263905634
 23
31.6877314
  0
SOLID
  8
0
 62
7
  6
CONTINUOUS
 10
363.2263905634
 20
31.6877314
 11
363.1107656736
 21
31.6554670789
 12
362.7638906736
 22
31.6554670789
 13
362.7638906736
 23
31.6554670789
  0
SOLID
  8
0
 62
7
  6
CONTINUOUS
 10
362.7638906736
 20
31.5909399887
 11
362.7638906736
 21
31.6554670789
 12
363.1107656736
 22
31.6554670789
 13
363.1107656736
 23
31.6554670789
  0
SOLID
  8
0
 62
7
  6
CONTINUOUS
 10
363.1107656736
 20
31.6554670789
 11
363.0529530634
 21
31.5909399887
 12
362.7638906736
 22
31.5909399887
 13
362.7638906736
 23
31.5909399887
  0
SOLID
  8
0
 62
7
  6
CONTINUOUS
 10
367.9092030634
 20
31.6554670789
 11
368.6029530634
 21
31.7199941869
 12
368.3717032839
 22
31.6877314
 13
368.3717032839
 23
31.6877314
  0
SOLID
  8
0
 62
7
  6
CONTINUOUS
 10
368.3717032839
 20
31.6877314
 11
368.2560780634
 21
31.6554670789
 12
367.9092030634
 22
31.6554670789
 13
367.9092030634
 23
31.6554670789
  0
SOLID
  8
0
 62
7
  6
CONTINUOUS
 10
367.9092030634
 20
31.5909399887
 11
367.9092030634
 21
31.6554670789
 12
368.2560780634
 22
31.6554670789
 13
368.2560780634
 23
31.6554670789
  0
SOLID
  8
0
 62
7
  6
CONTINUOUS
 10
368.2560780634
 20
31.6554670789
 11
368.1982657839
 21
31.5909399887
 12
367.9092030634
 22
31.5909399887
 13
367.9092030634
 23
31.5909399887
  0
SOLID
  8
0
 62
7
  6
CONTINUOUS
 10
368.0248282839
 20
31.4618858262
 11
367.9092030634
 21
31.5909399887
 12
368.1982657839
 22
31.5909399887
 13
368.1982657839
 23
31.5909399887
  0
SOLID
  8
0
 62
7
  6
CONTINUOUS
 10
358.4279530651
 20
31.5264129164
 11
358.9482655496
 21
31.6554670967
 12
358.7748280496
 22
31.5586757033
 13
358.7748280496
 23
31.5586757033
  0
SOLID
  8
0
 62
7
  6
CONTINUOUS
 10
358.7748280496
 20
31.5586757033
 11
358.7170155634
 21
31.4941486131
 12
358.4279530651
 22
31.5264129164
 13
358.4279530651
 23
31.5264129164
  0
SOLID
  8
0
 62
7
  6
CONTINUOUS
 10
358.3701405634
 20
31.3328301295
 11
358.4279530651
 21
31.5264129164
 12
358.7170155634
 22
31.4941486131
 13
358.7170155634
 23
31.4941486131
  0
SOLID
  8
0
 62
7
  6
CONTINUOUS
 10
363.2263905634
 20
31.4618858262
 11
363.5732655634
 21
31.4941485791
 12
364.2092032839
 22
31.4941485791
 13
364.2092032839
 23
31.4941485791
  0
SOLID
  8
0
 62
7
  6
CONTINUOUS
 10
363.2263905634
 20
31.4618858262
 11
364.2092032839
 21
31.4941485791
 12
362.9951404531
 22
31.397357926
 13
362.9951404531
 23
31.397357926
  0
SOLID
  8
0
 62
7
  6
CONTINUOUS
 10
362.9951404531
 20
31.397357926
 11
364.2092032839
 21
31.4941485791
 12
363.5732655634
 22
31.3650943988
 13
363.5732655634
 23
31.3650943988
  0
SOLID
  8
0
 62
7
  6
CONTINUOUS
 10
364.2092032839
 20
31.4941485791
 11
364.2092032839
 21
31.3650943988
 12
363.5732655634
 22
31.3650943988
 13
363.5732655634
 23
31.3650943988
  0
SOLID
  8
0
 62
7
  6
CONTINUOUS
 10
368.0248282839
 20
31.4618859165
 11
368.1982657839
 21
31.5909400065
 12
368.2560780634
 22
31.5264129164
 13
368.2560780634
 23
31.5264129164
  0
SOLID
  8
0
 62
7
  6
CONTINUOUS
 10
368.2560780634
 20
31.5264129164
 11
368.4295155634
 21
31.4618859165
 12
368.0248282839
 22
31.4618859165
 13
368.0248282839
 23
31.4618859165
  0
SOLID
  8
0
 62
7
  6
CONTINUOUS
 10
368.2560780634
 20
31.3650944328
 11
368.0248282839
 21
31.4618859165
 12
368.4295155634
 22
31.4618859165
 13
368.4295155634
 23
31.4618859165
  0
SOLID
  8
0
 62
7
  6
CONTINUOUS
 10
368.4295155634
 20
31.4618859165
 11
369.4123282839
 21
31.3005673426
 12
368.2560780634
 22
31.3650944328
 13
368.2560780634
 23
31.3650944328
  0
SOLID
  8
0
 62
7
  6
CONTINUOUS
 10
369.2388907839
 20
31.2037760287
 11
368.2560780634
 21
31.3650944328
 12
369.4123282839
 22
31.3005673426
 13
369.4123282839
 23
31.3005673426
  0
SOLID
  8
0
 62
7
  6
CONTINUOUS
 10
369.4123282839
 20
31.3005673426
 11
369.6435780634
 21
31.2037760287
 12
369.2388907839
 22
31.2037760287
 13
369.2388907839
 23
31.2037760287
  0
SOLID
  8
0
 62
7
  6
CONTINUOUS
 10
369.4123282839
 20
31.139248859
 11
369.2388907839
 21
31.2037760287
 12
369.6435780634
 22
31.2037760287
 13
369.6435780634
 23
31.2037760287
  0
SOLID
  8
0
 62
7
  6
CONTINUOUS
 10
369.4123282839
 20
31.139248859
 11
369.6435780634
 21
31.2037760287
 12
369.4701405634
 22
31.0747203105
 13
369.4701405634
 23
31.0747203105
  0
SOLID
  8
0
 62
7
  6
CONTINUOUS
 10
369.6435780634
 20
31.2037760287
 11
369.7592026223
 21
31.0747203105
 12
369.4701405634
 22
31.0747203105
 13
369.4701405634
 23
31.0747203105
  0
SOLID
  8
0
 62
7
  6
CONTINUOUS
 10
369.4123282839
 20
31.0101932257
 11
369.4701405634
 21
31.0747203105
 12
369.7592026223
 22
31.0747203105
 13
369.7592026223
 23
31.0747203105
  0
SOLID
  8
0
 62
7
  6
CONTINUOUS
 10
369.7592026223
 20
31.0747203105
 11
369.7592026223
 21
31.0101932257
 12
369.4123282839
 22
31.0101932257
 13
369.4123282839
 23
31.0101932257
  0
SOLID
  8
0
 62
7
  6
CONTINUOUS
 10
369.2967030634
 20
30.9779303754
 11
369.4123282839
 21
31.0101932257
 12
369.7592026223
 22
31.0101932257
 13
369.7592026223
 23
31.0101932257
  0
SOLID
  8
0
 62
7
  6
CONTINUOUS
 10
369.2967030634
 20
30.9779303754
 11
369.7592026223
 21
31.0101932257
 12
369.0654532839
 22
30.9456661409
 13
369.0654532839
 23
30.9456661409
  0
SOLID
  8
0
 62
7
  6
CONTINUOUS
 10
369.7592026223
 20
31.0101932257
 11
369.6435780634
 21
30.9134032852
 12
369.0654532839
 22
30.9456661409
 13
369.0654532839
 23
30.9456661409
  0
SOLID
  8
0
 62
7
  6
CONTINUOUS
 10
369.6435780634
 20
30.9134032852
 11
368.1982657839
 21
30.8811389819
 12
369.0654532839
 22
30.9456661409
 13
369.0654532839
 23
30.9456661409
  0
SOLID
  8
0
 62
7
  6
CONTINUOUS
 10
369.0654532839
 20
30.9456661409
 11
368.1982657839
 21
30.8811389819
 12
368.7185782839
 22
30.9456661409
 13
368.7185782839
 23
30.9456661409
  0
SOLID
  8
0
 62
7
  6
CONTINUOUS
 10
368.1982657839
 20
30.8811389819
 11
368.0248282839
 21
30.9456661409
 12
368.7185782839
 22
30.9456661409
 13
368.7185782839
 23
30.9456661409
  0
SOLID
  8
0
 62
7
  6
CONTINUOUS
 10
368.1982657839
 20
30.8811389819
 11
369.6435780634
 21
30.9134032852
 12
368.3717032839
 22
30.8488743522
 13
368.3717032839
 23
30.8488743522
  0
SOLID
  8
0
 62
7
  6
CONTINUOUS
 10
369.6435780634
 20
30.9134032852
 11
369.4123282839
 21
30.8488743522
 12
368.3717032839
 22
30.8488743522
 13
368.3717032839
 23
30.8488743522
  0
SOLID
  8
0
 62
7
  6
CONTINUOUS
 10
368.7185782839
 20
30.8166119713
 11
368.3717032839
 21
30.8488743522
 12
369.4123282839
 22
30.8488743522
 13
369.4123282839
 23
30.8488743522
  0
SOLID
  8
0
 62
7
  6
CONTINUOUS
 10
369.4123282839
 20
30.8488743522
 11
369.0654532839
 21
30.8166119713
 12
368.7185782839
 22
30.8166119713
 13
368.7185782839
 23
30.8166119713
  0
SOLID
  8
0
 62
7
  6
CONTINUOUS
 10
358.3701405634
 20
31.3328301295
 11
358.7170155634
 21
31.4941486131
 12
358.6592030565
 22
31.3650944328
 13
358.6592030565
 23
31.3650944328
  0
SOLID
  8
0
 62
7
  6
CONTINUOUS
 10
358.6592030565
 20
31.3650944328
 11
358.6592030565
 21
31.2683031351
 12
358.3701405634
 22
31.3328301295
 13
358.3701405634
 23
31.3328301295
  0
SOLID
  8
0
 62
7
  6
CONTINUOUS
 10
358.4279530651
 20
31.139248859
 11
358.3701405634
 21
31.3328301295
 12
358.6592030565
 22
31.2683031351
 13
358.6592030565
 23
31.2683031351
  0
SOLID
  8
0
 62
7
  6
CONTINUOUS
 10
358.6592030565
 20
31.2683031351
 11
358.7748280496
 21
31.1069845557
 12
358.4279530651
 22
31.139248859
 13
358.4279530651
 23
31.139248859
  0
SOLID
  8
0
 62
7
  6
CONTINUOUS
 10
358.5435780634
 20
31.0101931569
 11
358.4279530651
 21
31.139248859
 12
358.7748280496
 22
31.1069845557
 13
358.7748280496
 23
31.1069845557
  0
SOLID
  8
0
 62
7
  6
CONTINUOUS
 10
358.7748280496
 20
31.1069845557
 11
358.9482655496
 21
31.0101931569
 12
358.5435780634
 22
31.0101931569
 13
358.5435780634
 23
31.0101931569
  0
SOLID
  8
0
 62
7
  6
CONTINUOUS
 10
358.6592030565
 20
30.9456659241
 11
358.5435780634
 21
31.0101931569
 12
358.9482655496
 22
31.0101931569
 13
358.9482655496
 23
31.0101931569
  0
SOLID
  8
0
 62
7
  6
CONTINUOUS
 10
358.9482655496
 20
31.0101931569
 11
359.2951405909
 21
30.9456659241
 12
358.6592030565
 22
30.9456659241
 13
358.6592030565
 23
30.9456659241
  0
SOLID
  8
0
 62
7
  6
CONTINUOUS
 10
358.8326405772
 20
30.8811389819
 11
358.6592030565
 21
30.9456659241
 12
359.2951405909
 22
30.9456659241
 13
359.2951405909
 23
30.9456659241
  0
SOLID
  8
0
 62
7
  6
CONTINUOUS
 10
362.8795155634
 20
31.3328301325
 11
362.9951404531
 21
31.397357926
 12
363.5732655634
 22
31.3650944328
 13
363.5732655634
 23
31.3650944328
  0
SOLID
  8
0
 62
7
  6
CONTINUOUS
 10
363.5732655634
 20
31.3650944328
 11
363.3420154531
 21
31.3328301325
 12
362.8795155634
 22
31.3328301325
 13
362.8795155634
 23
31.3328301325
  0
SOLID
  8
0
 62
7
  6
CONTINUOUS
 10
362.7638906736
 20
31.2037759492
 11
362.8795155634
 21
31.3328301325
 12
363.3420154531
 22
31.3328301325
 13
363.3420154531
 23
31.3328301325
  0
SOLID
  8
0
 62
7
  6
CONTINUOUS
 10
363.1107656736
 20
31.2360394487
 11
362.7638906736
 21
31.2037759492
 12
363.2263905634
 22
31.3005673426
 13
363.2263905634
 23
31.3005673426
  0
SOLID
  8
0
 62
7
  6
CONTINUOUS
 10
362.7638906736
 20
31.2037759492
 11
363.3420154531
 21
31.3328301295
 12
363.2263905634
 22
31.3005673426
 13
363.2263905634
 23
31.3005673426
  0
SOLID
  8
0
 62
7
  6
CONTINUOUS
 10
363.1107656736
 20
31.2360394487
 11
363.0529530634
 21
31.139248859
 12
362.7638906736
 22
31.2037759492
 13
362.7638906736
 23
31.2037759492
  0
SOLID
  8
0
 62
7
  6
CONTINUOUS
 10
362.7638906736
 20
31.1069845557
 11
362.7638906736
 21
31.2037759492
 12
363.0529530634
 22
31.139248859
 13
363.0529530634
 23
31.139248859
  0
SOLID
  8
0
 62
7
  6
CONTINUOUS
 10
363.0529530634
 20
31.139248859
 11
363.0529530634
 21
31.0747202524
 12
362.7638906736
 22
31.1069845557
 13
362.7638906736
 23
31.1069845557
  0
SOLID
  8
0
 62
7
  6
CONTINUOUS
 10
362.8217029531
 20
30.9779303754
 11
362.7638906736
 21
31.1069845557
 12
363.0529530634
 22
31.0747202524
 13
363.0529530634
 23
31.0747202524
  0
SOLID
  8
0
 62
7
  6
CONTINUOUS
 10
364.2092032839
 20
31.1715120759
 11
364.4982653428
 21
31.0747202524
 12
364.1513903428
 22
31.1069845557
 13
364.1513903428
 23
31.1069845557
  0
SOLID
  8
0
 62
7
  6
CONTINUOUS
 10
363.9779528428
 20
31.0101931623
 11
364.1513903428
 21
31.1069845557
 12
364.4982653428
 22
31.0747202524
 13
364.4982653428
 23
31.0747202524
  0
SOLID
  8
0
 62
7
  6
CONTINUOUS
 10
363.9779528428
 20
31.0101931623
 11
364.4982653428
 21
31.0747202524
 12
364.2092032839
 22
30.9779303754
 13
364.2092032839
 23
30.9779303754
  0
SOLID
  8
0
 62
7
  6
CONTINUOUS
 10
364.4982653428
 20
31.0747202524
 11
364.5560782839
 21
30.9134032852
 12
364.2092032839
 22
30.9779303754
 13
364.2092032839
 23
30.9779303754
  0
SOLID
  8
0
 62
7
  6
CONTINUOUS
 10
364.2670155634
 20
30.8811389819
 11
364.2092032839
 21
30.9779303754
 12
364.5560782839
 22
30.9134032852
 13
364.5560782839
 23
30.9134032852
  0
SOLID
  8
0
 62
7
  6
CONTINUOUS
 10
364.2670155634
 20
30.8811389819
 11
364.5560782839
 21
30.9134032852
 12
364.3248278428
 22
30.816611867
 13
364.3248278428
 23
30.816611867
  0
SOLID
  8
0
 62
7
  6
CONTINUOUS
 10
364.5560782839
 20
30.9134032852
 11
364.6138905634
 21
30.816611867
 12
364.3248278428
 22
30.816611867
 13
364.3248278428
 23
30.816611867
  0
SOLID
  8
0
 62
7
  6
CONTINUOUS
 10
359.8732656185
 20
31.0424573076
 11
359.9310780634
 21
31.1392488159
 12
360.2201406185
 22
31.1392488159
 13
360.2201406185
 23
31.1392488159
  0
SOLID
  8
0
 62
7
  6
CONTINUOUS
 10
360.2201406185
 20
31.1392488159
 11
360.1623280082
 21
31.0101931623
 12
359.8732656185
 22
31.0424573076
 13
359.8732656185
 23
31.0424573076
  0
SOLID
  8
0
 62
7
  6
CONTINUOUS
 10
359.6998280358
 20
30.9779303754
 11
359.8732656185
 21
31.0424573076
 12
360.1623280082
 22
31.0101931623
 13
360.1623280082
 23
31.0101931623
  0
SOLID
  8
0
 62
7
  6
CONTINUOUS
 10
359.6998280358
 20
30.9779303754
 11
360.1623280082
 21
31.0101931623
 12
359.2951405909
 22
30.9456660721
 13
359.2951405909
 23
30.9456660721
  0
SOLID
  8
0
 62
7
  6
CONTINUOUS
 10
360.1623280082
 20
31.0101931623
 11
359.9888905082
 21
30.9134032852
 12
359.2951405909
 22
30.9456660721
 13
359.2951405909
 23
30.9456660721
  0
SOLID
  8
0
 62
7
  6
CONTINUOUS
 10
358.8326405772
 20
30.8811389819
 11
359.2951405909
 21
30.9456660721
 12
359.9888905082
 22
30.9134032852
 13
359.9888905082
 23
30.9134032852
  0
SOLID
  8
0
 62
7
  6
CONTINUOUS
 10
358.8326405772
 20
30.8811389819
 11
359.9888905082
 21
30.9134032852
 12
359.0060780772
 22
30.8488745775
 13
359.0060780772
 23
30.8488745775
  0
SOLID
  8
0
 62
7
  6
CONTINUOUS
 10
359.9888905082
 20
30.9134032852
 11
359.7576405634
 21
30.8488745775
 12
359.0060780772
 22
30.8488745775
 13
359.0060780772
 23
30.8488745775
  0
SOLID
  8
0
 62
7
  6
CONTINUOUS
 10
359.3529530358
 20
30.8166118918
 11
359.0060780772
 21
30.8488745775
 12
359.7576405634
 22
30.8488745775
 13
359.7576405634
 23
30.8488745775
  0
SOLID
  8
0
 62
7
  6
CONTINUOUS
 10
362.8217029531
 20
30.9779303754
 11
363.0529530634
 21
31.0747202524
 12
363.1107656736
 22
31.0101931623
 13
363.1107656736
 23
31.0101931623
  0
SOLID
  8
0
 62
7
  6
CONTINUOUS
 10
363.1107656736
 20
31.0101931623
 11
363.3420154531
 21
30.9456660721
 12
362.8217029531
 22
30.9779303754
 13
362.8217029531
 23
30.9779303754
  0
SOLID
  8
0
 62
7
  6
CONTINUOUS
 10
362.9951404531
 20
30.8811389819
 11
362.8217029531
 21
30.9779303754
 12
363.3420154531
 22
30.9456660721
 13
363.3420154531
 23
30.9456660721
  0
SOLID
  8
0
 62
7
  6
CONTINUOUS
 10
363.6888904531
 20
30.9456661188
 11
363.9779528428
 21
31.0101931623
 12
364.2092032839
 22
30.9779303754
 13
364.2092032839
 23
30.9779303754
  0
SOLID
  8
0
 62
7
  6
CONTINUOUS
 10
364.2092032839
 20
30.9779303754
 11
364.1513903428
 21
30.9134032852
 12
363.6888904531
 22
30.9456661188
 13
363.6888904531
 23
30.9456661188
  0
SOLID
  8
0
 62
7
  6
CONTINUOUS
 10
364.1513903428
 20
30.9134032852
 11
362.9951404531
 21
30.8811389819
 12
363.6888904531
 22
30.9456661188
 13
363.6888904531
 23
30.9456661188
  0
SOLID
  8
0
 62
7
  6
CONTINUOUS
 10
362.9951404531
 20
30.8811389819
 11
363.3420154531
 21
30.9456661188
 12
363.6888904531
 22
30.9456661188
 13
363.6888904531
 23
30.9456661188
  0
SOLID
  8
0
 62
7
  6
CONTINUOUS
 10
362.9951404531
 20
30.8811389819
 11
364.1513903428
 21
30.9134032852
 12
363.1107656736
 22
30.8488747093
 13
363.1107656736
 23
30.8488747093
  0
SOLID
  8
0
 62
7
  6
CONTINUOUS
 10
364.1513903428
 20
30.9134032852
 11
363.9779528428
 21
30.8488747093
 12
363.1107656736
 22
30.8488747093
 13
363.1107656736
 23
30.8488747093
  0
SOLID
  8
0
 62
7
  6
CONTINUOUS
 10
363.3420154531
 20
30.816611874
 11
363.1107656736
 21
30.8488747093
 12
363.9779528428
 22
30.8488747093
 13
363.9779528428
 23
30.8488747093
  0
SOLID
  8
0
 62
7
  6
CONTINUOUS
 10
363.9779528428
 20
30.8488747093
 11
363.6888904531
 21
30.816611874
 12
363.3420154531
 22
30.816611874
 13
363.3420154531
 23
30.816611874
  0
SOLID
  8
0
 62
7
  6
CONTINUOUS
 10
368.3717032839
 20
30.9779303754
 11
368.0248282839
 21
30.9456661188
 12
368.2560780634
 22
31.0101931623
 13
368.2560780634
 23
31.0101931623
  0
SOLID
  8
0
 62
7
  6
CONTINUOUS
 10
368.2560780634
 20
31.0101931623
 11
368.0248282839
 21
30.9456661188
 12
368.1982657839
 22
31.0747202992
 13
368.1982657839
 23
31.0747202992
  0
SOLID
  8
0
 62
7
  6
CONTINUOUS
 10
368.0248282839
 20
30.9456661188
 11
367.9092030634
 21
31.0747202992
 12
368.1982657839
 22
31.0747202992
 13
368.1982657839
 23
31.0747202992
  0
SOLID
  8
0
 62
7
  6
CONTINUOUS
 10
368.3717032839
 20
30.9779303754
 11
368.7185782839
 21
30.9456661188
 12
368.0248282839
 22
30.9456661188
 13
368.0248282839
 23
30.9456661188
  0
SOLID
  8
0
 62
7
  6
CONTINUOUS
 10
365.0763907839
 20
30.8166118918
 11
365.0763907839
 21
31.8490498836
 12
365.3654528428
 22
30.8166118918
 13
365.3654528428
 23
31.8490498836
  0
ENDBLK
  8
0
  6
BYBLOCK
 62
0
  0
BLOCK
  8
0
 62
2
  6
CONTINUOUS
  2
SYMBOL_0_BL0
 70
64
 10
241.0459637928
 20
19.6790146053
  0
TEXT
  8
0
 62
7
  6
CONTINUOUS
 10
227.3106676351
 20
19.0524287129
  7
TEXTSTYLE_3
 40
2.7338706658
  1
Ammeraal Beltech
 41
1.0
 51
15.0
 72
0
  0
TEXT
  8
0
 62
7
  6
CONTINUOUS
 10
238.1114684608
 20
16.7788920401
  7
TEXTSTYLE_4
 40
1.0935482663
  1
Innovation & Service in Belting
 41
1.0
 72
0
  0
LINE
  8
0
 62
7
  6
CONTINUOUS
 10
221.2861269837
 20
19.8190220215
 11
222.0642789771
 21
23.4799393191
  0
LINE
  8
0
 62
7
  6
CONTINUOUS
 10
232.1594472669
 20
27.1433332308
 11
222.5520967201
 21
24.0217158095
  0
LINE
  8
0
 62
7
  6
CONTINUOUS
 10
221.511410316
 20
19.1256712184
 11
229.0184855772
 21
12.3662702925
  0
LINE
  8
0
 62
7
  6
CONTINUOUS
 10
221.7739447268
 20
20.3607985118
 11
232.5822140919
 21
23.8726181108
  0
LINE
  8
0
 62
7
  6
CONTINUOUS
 10
232.5780089548
 20
13.522829547
 11
224.132549286
 21
21.1271555887
  0
LINE
  8
0
 62
7
  6
CONTINUOUS
 10
233.0978316746
 20
26.298408115
 11
232.1212721373
 21
21.7040567125
  0
LINE
  8
0
 62
7
  6
CONTINUOUS
 10
231.4214701896
 20
18.4117473987
 11
230.7350219782
 21
15.1822624744
  0
LINE
  8
0
 62
7
  6
CONTINUOUS
 10
233.7789277731
 20
13.9130317247
 11
234.7351593087
 21
18.4117473987
  0
LINE
  8
0
 62
7
  6
CONTINUOUS
 10
235.4349612564
 20
21.7040567125
 11
235.8792030588
 21
23.7940500719
  0
LINE
  8
0
 62
7
  6
CONTINUOUS
 10
229.7315866525
 20
12.2146959798
 11
233.2911100301
 21
13.3712552343
  0
LINE
  8
0
 62
7
  6
CONTINUOUS
 10
232.8725483422
 20
26.9917589181
 11
235.6539197265
 21
24.487400875
  0
ARC
  8
0
 62
7
  6
CONTINUOUS
 10
222.7773800524
 20
23.3283650064
 40
0.7290321776
 50
108.0
 51
168.0
  0
ARC
  8
0
 62
7
  6
CONTINUOUS
 10
232.3847305992
 20
26.4499824277
 40
0.7290321776
 50
348.0
 51
108.0
  0
ARC
  8
0
 62
7
  6
CONTINUOUS
 10
235.1661019835
 20
23.9456243846
 40
0.7290321776
 50
348.0
 51
48.0
  0
ARC
  8
0
 62
7
  6
CONTINUOUS
 10
229.5063033202
 20
12.9080467828
 40
0.7290321776
 50
228.0
 51
288.0
  0
ARC
  8
0
 62
7
  6
CONTINUOUS
 10
221.9992280591
 20
19.6674477088
 40
0.7290321776
 50
108.0
 51
228.0
  0
ARC
  8
0
 62
7
  6
CONTINUOUS
 10
233.0658266978
 20
14.0646060374
 40
0.7290321776
 50
228.0
 51
348.0
  0
ENDBLK
  8
0
  6
BYBLOCK
 62
0
  0
ENDSEC
  0
SECTION
  2
ENTITIES
  0
TEXT
  8
0
 62
5
  6
CONTINUOUS
 10
304.937007874
 20
25.636
  7
TEXTSTYLE_2
 40
2.8
  1
Scale :
 41
0.6
 51
0.000019
 72
0
  0
TEXT
  8
0
 62
5
  6
CONTINUOUS
 10
324.937007874
 20
25.636
  7
TEXTSTYLE_2
 40
2.8
  1
Chain type:
 41
0.6
 51
0.000019
 72
0
  0
INSERT
  8
0
 62
2
  6
CONTINUOUS
  2
SYMBOL_0_BL0
 10
241.0459637928
 20
19.6790146053
  0
INSERT
  8
0
 62
2
  6
CONTINUOUS
  2
SYMBOL_5_BL1
 10
382.3920721743
 20
35.81661148
  0
LINE
  8
0
 62
2
  6
CONTINUOUS
 10
218.937007874
 20
30.0
 11
408.937007874
 21
30.0
  0
LINE
  8
0
 62
2
  6
CONTINUOUS
 10
218.937007874
 20
30.0
 11
218.937007874
 21
10.0
  0
LINE
  8
0
 62
2
  6
CONTINUOUS
 10
218.937007874
 20
10.0
 11
408.937007874
 21
10.0
  0
LINE
  8
0
 62
2
  6
CONTINUOUS
 10
303.937007874
 20
30.0
 11
303.937007874
 21
10.0
  0
LINE
  8
0
 62
2
  6
CONTINUOUS
 10
323.937007874
 20
30.0
 11
323.937007874
 21
10.0
  0
LINE
  8
0
 62
2
  6
CONTINUOUS
 10
408.937007874
 20
30.0
 11
408.937007874
 21
10.0
  0
TEXT
  8
0
 62
5
  6
CONTINUOUS
 10
221.937007874
 20
23.303
  7
TEXTSTYLE_5
 40
1.52
  1
                                                                     Ammeraal Beltech Modular A/S
 41
1.0
 72
0
  0
TEXT
  8
0
 62
5
  6
CONTINUOUS
 10
221.937007874
 20
20.595
  7
TEXTSTYLE_5
 40
1.5
  1
                                                                      Hjulmagervej 21, 7100 Vejle,  DK
 41
1.0
 72
0
  0
TEXT
  8
0
 62
5
  6
CONTINUOUS
 10
221.937007874
 20
17.881
  7
TEXTSTYLE_5
 40
1.495
  1
                                                                      tel: 
 41
1.0
 72
0
  0
TEXT
  8
0
 62
5
  6
CONTINUOUS
 10
266.9239544389
 20
17.881
  7
TEXTSTYLE_5
 40
1.51
  1
+45 75723100     fax: +45 75723348
 41
1.0
 72
0
  0
TEXT
  8
0
 62
5
  6
CONTINUOUS
 10
221.937007874
 20
15.177
  7
TEXTSTYLE_5
 40
1.5
  1
                                                                      admin@unichains.dk  www.unichains.com
 41
1.0
 72
0
  0
TEXT
  8
0
 62
5
  6
CONTINUOUS
 10
308.687007874
 20
13.75
  7
TEXTSTYLE_6
 40
5.0
  1
1:1
 41
0.7
 72
1
 11
313.937007874
 21
13.75
  0
TEXT
  8
0
 62
5
  6
CONTINUOUS
 10
326.937007874
 20
13.75
  7
TEXTSTYLE_7
 40
7.5
  1
Sprocket Z10
 41
0.6361111111
 72
0
  0
LINE
  8
0
 62
7
  6
CONTINUOUS
 10
0.0
 20
0.0
 11
0.0
 21
297.0
  0
LINE
  8
0
 62
7
  6
CONTINUOUS
 10
8.937007874
 20
10.0
 11
8.937007874
 21
287.0
  0
LINE
  8
0
 62
7
  6
CONTINUOUS
 10
0.0
 20
0.0
 11
420.0
 21
0.0
  0
LINE
  8
0
 62
7
  6
CONTINUOUS
 10
408.937007874
 20
10.0
 11
8.937007874
 21
10.0
  0
LINE
  8
0
 62
7
  6
CONTINUOUS
 10
218.937007874
 20
30.0
 11
408.937007874
 21
30.0
  0
LINE
  8
0
 62
7
  6
CONTINUOUS
 10
210.0
 20
297.0
 11
210.0
 21
292.0
  0
LINE
  8
0
 62
7
  6
CONTINUOUS
 10
210.0
 20
0.0
 11
210.0
 21
5.0
  0
LINE
  8
0
 62
7
  6
CONTINUOUS
 10
8.937007874
 20
287.0
 11
408.937007874
 21
287.0
  0
LINE
  8
0
 62
7
  6
CONTINUOUS
 10
0.0
 20
297.0
 11
420.0
 21
297.0
  0
LINE
  8
0
 62
7
  6
CONTINUOUS
 10
408.937007874
 20
287.0
 11
408.937007874
 21
10.0
  0
LINE
  8
0
 62
7
  6
CONTINUOUS
 10
420.0
 20
0.0
 11
420.0
 21
297.0
  0
POLYLINE
  8
0
 62
7
  6
CONTINUOUS
 66
1
 70
0
  0
VERTEX
  8
0
 62
7
  6
CONTINUOUS
 10
89.2914193279
 20
150.8877906691
  0
VERTEX
  8
0
 62
7
  6
CONTINUOUS
 10
89.2909003301
 20
150.8998429947
  0
VERTEX
  8
0
 62
7
  6
CONTINUOUS
 10
89.2894500839
 20
150.9119561526
  0
VERTEX
  8
0
 62
7
  6
CONTINUOUS
 10
89.2870625503
 20
150.924153428
  0
VERTEX
  8
0
 62
7
  6
CONTINUOUS
 10
89.2837558467
 20
150.9363582018
  0
VERTEX
  8
0
 62
7
  6
CONTINUOUS
 10
89.2795480911
 20
150.9484937188
  0
VERTEX
  8
0
 62
7
  6
CONTINUOUS
 10
89.274433244
 20
150.9605831241
  0
SEQEND
  0
POLYLINE
  8
0
 62
7
  6
CONTINUOUS
 66
1
 70
0
  0
VERTEX
  8
0
 62
7
  6
CONTINUOUS
 10
89.2914193279
 20
150.8877906691
  0
VERTEX
  8
0
 62
7
  6
CONTINUOUS
 10
89.2939942561
 20
150.7030666985
  0
VERTEX
  8
0
 62
7
  6
CONTINUOUS
 10
89.2990555687
 20
150.527470011
  0
VERTEX
  8
0
 62
7
  6
CONTINUOUS
 10
89.3067574107
 20
150.3671354858
  0
VERTEX
  8
0
 62
7
  6
CONTINUOUS
 10
89.316637347
 20
150.227649
  0
VERTEX
  8
0
 62
7
  6
CONTINUOUS
 10
89.3284506363
 20
150.1138536338
  0
VERTEX
  8
0
 62
7
  6
CONTINUOUS
 10
89.3416983416
 20
150.0296743942
  0
VERTEX
  8
0
 62
7
  6
CONTINUOUS
 10
89.3557273804
 20
149.9779992802
  0
VERTEX
  8
0
 62
7
  6
CONTINUOUS
 10
89.3707554468
 20
149.9605831241
  0
SEQEND
  0
LINE
  8
0
 62
7
  6
CONTINUOUS
 10
90.4480520594
 20
172.6987002684
 11
90.4480520594
 21
178.1353161273
  0
POLYLINE
  8
0
 62
7
  6
CONTINUOUS
 66
1
 70
0
  0
VERTEX
  8
0
 62
7
  6
CONTINUOUS
 10
89.29141934
 20
199.9462257266
  0
VERTEX
  8
0
 62
7
  6
CONTINUOUS
 10
89.2939942684
 20
200.1309496972
  0
VERTEX
  8
0
 62
7
  6
CONTINUOUS
 10
89.2990555813
 20
200.3065463848
  0
VERTEX
  8
0
 62
7
  6
CONTINUOUS
 10
89.3067574238
 20
200.4668809099
  0
VERTEX
  8
0
 62
7
  6
CONTINUOUS
 10
89.3166373607
 20
200.6063673958
  0
VERTEX
  8
0
 62
7
  6
CONTINUOUS
 10
89.3284506508
 20
200.720162762
  0
VERTEX
  8
0
 62
7
  6
CONTINUOUS
 10
89.3416983569
 20
200.8043420016
  0
VERTEX
  8
0
 62
7
  6
CONTINUOUS
 10
89.3557273966
 20
200.8560171156
  0
VERTEX
  8
0
 62
7
  6
CONTINUOUS
 10
89.3707554639
 20
200.8734332717
  0
SEQEND
  0
POLYLINE
  8
0
 62
7
  6
CONTINUOUS
 66
1
 70
0
  0
VERTEX
  8
0
 62
7
  6
CONTINUOUS
 10
89.29141934
 20
199.9462257266
  0
VERTEX
  8
0
 62
7
  6
CONTINUOUS
 10
89.2909003347
 20
199.9341734015
  0
VERTEX
  8
0
 62
7
  6
CONTINUOUS
 10
89.289450084
 20
199.9220602438
  0
VERTEX
  8
0
 62
7
  6
CONTINUOUS
 10
89.2870625496
 20
199.9098629683
  0
VERTEX
  8
0
 62
7
  6
CONTINUOUS
 10
89.2837558468
 20
199.8976581943
  0
VERTEX
  8
0
 62
7
  6
CONTINUOUS
 10
89.2795480911
 20
199.8855226771
  0
VERTEX
  8
0
 62
7
  6
CONTINUOUS
 10
89.274433244
 20
199.8734332717
  0
SEQEND
  0
POLYLINE
  8
0
 62
7
  6
CONTINUOUS
 66
1
 70
0
  0
VERTEX
  8
0
 62
7
  6
CONTINUOUS
 10
85.0195916611
 20
186.7988920081
  0
VERTEX
  8
0
 62
7
  6
CONTINUOUS
 10
85.0262559564
 20
186.8089476074
  0
VERTEX
  8
0
 62
7
  6
CONTINUOUS
 10
85.0322026146
 20
186.8195997936
  0
VERTEX
  8
0
 62
7
  6
CONTINUOUS
 10
85.0374404375
 20
186.8308709543
  0
VERTEX
  8
0
 62
7
  6
CONTINUOUS
 10
85.0419390448
 20
186.842688455
  0
VERTEX
  8
0
 62
7
  6
CONTINUOUS
 10
85.045667977
 20
186.8549795514
  0
VERTEX
  8
0
 62
7
  6
CONTINUOUS
 10
85.0486359529
 20
186.8677665176
  0
SEQEND
  0
POLYLINE
  8
0
 62
7
  6
CONTINUOUS
 66
1
 70
0
  0
VERTEX
  8
0
 62
7
  6
CONTINUOUS
 10
85.0195916611
 20
186.7988920081
  0
VERTEX
  8
0
 62
7
  6
CONTINUOUS
 10
84.9130967961
 20
186.6479336719
  0
VERTEX
  8
0
 62
7
  6
CONTINUOUS
 10
84.8139783407
 20
186.5028980027
  0
VERTEX
  8
0
 62
7
  6
CONTINUOUS
 10
84.7259669923
 20
186.368657618
  0
VERTEX
  8
0
 62
7
  6
CONTINUOUS
 10
84.6519719293
 20
186.2500033997
  0
VERTEX
  8
0
 62
7
  6
CONTINUOUS
 10
84.5946418429
 20
186.1509973374
  0
VERTEX
  8
0
 62
7
  6
CONTINUOUS
 10
84.5558801458
 20
186.0751080964
  0
VERTEX
  8
0
 62
7
  6
CONTINUOUS
 10
84.5368560065
 20
186.025055989
  0
VERTEX
  8
0
 62
7
  6
CONTINUOUS
 10
84.5387770077
 20
186.0021327471
  0
SEQEND
  0
LINE
  8
0
 62
7
  6
CONTINUOUS
 10
98.7754581896
 20
203.7644368816
 11
101.9710208138
 21
208.1627515033
  0
POLYLINE
  8
0
 62
7
  6
CONTINUOUS
 66
1
 70
0
  0
VERTEX
  8
0
 62
7
  6
CONTINUOUS
 10
113.8554162892
 20
226.4879996867
  0
VERTEX
  8
0
 62
7
  6
CONTINUOUS
 10
113.9660774756
 20
226.6359310132
  0
VERTEX
  8
0
 62
7
  6
CONTINUOUS
 10
114.0733853071
 20
226.7750167526
  0
VERTEX
  8
0
 62
7
  6
CONTINUOUS
 10
114.1738584979
 20
226.9002030787
  0
VERTEX
  8
0
 62
7
  6
CONTINUOUS
 10
114.263839634
 20
227.0072427351
  0
VERTEX
  8
0
 62
7
  6
CONTINUOUS
 10
114.3402840245
 20
227.0923614425
  0
VERTEX
  8
0
 62
7
  6
CONTINUOUS
 10
114.4004809594
 20
227.1526770717
  0
VERTEX
  8
0
 62
7
  6
CONTINUOUS
 10
114.4422045609
 20
227.1862370545
  0
VERTEX
  8
0
 62
7
  6
CONTINUOUS
 10
114.4645994824
 20
227.1914937443
  0
SEQEND
  0
POLYLINE
  8
0
 62
7
  6
CONTINUOUS
 66
1
 70
0
  0
VERTEX
  8
0
 62
7
  6
CONTINUOUS
 10
113.8554162892
 20
226.4879996867
  0
VERTEX
  8
0
 62
7
  6
CONTINUOUS
 10
113.8479122261
 20
226.4785542145
  0
VERTEX
  8
0
 62
7
  6
CONTINUOUS
 10
113.8396190132
 20
226.4696069
  0
VERTEX
  8
0
 62
7
  6
CONTINUOUS
 10
113.8305180786
 20
226.4611424544
  0
VERTEX
  8
0
 62
7
  6
CONTINUOUS
 10
113.8206691137
 20
226.4532122159
  0
VERTEX
  8
0
 62
7
  6
CONTINUOUS
 10
113.8101318898
 20
226.445867633
  0
VERTEX
  8
0
 62
7
  6
CONTINUOUS
 10
113.7988879173
 20
226.4390935303
  0
SEQEND
  0
POLYLINE
  8
0
 62
7
  6
CONTINUOUS
 66
1
 70
0
  0
VERTEX
  8
0
 62
7
  6
CONTINUOUS
 10
102.6716262332
 20
218.3625005877
  0
VERTEX
  8
0
 62
7
  6
CONTINUOUS
 10
102.6829282942
 20
218.3667185639
  0
VERTEX
  8
0
 62
7
  6
CONTINUOUS
 10
102.6940004398
 20
218.3718410055
  0
VERTEX
  8
0
 62
7
  6
CONTINUOUS
 10
102.7048629495
 20
218.3778808511
  0
VERTEX
  8
0
 62
7
  6
CONTINUOUS
 10
102.7154485519
 20
218.3847971949
  0
VERTEX
  8
0
 62
7
  6
CONTINUOUS
 10
102.7256898466
 20
218.3925490895
  0
VERTEX
  8
0
 62
7
  6
CONTINUOUS
 10
102.7356069798
 20
218.4011494299
  0
SEQEND
  0
POLYLINE
  8
0
 62
7
  6
CONTINUOUS
 66
1
 70
0
  0
VERTEX
  8
0
 62
7
  6
CONTINUOUS
 10
102.6716262332
 20
218.3625005877
  0
VERTEX
  8
0
 62
7
  6
CONTINUOUS
 10
102.4967389938
 20
218.3029688393
  0
VERTEX
  8
0
 62
7
  6
CONTINUOUS
 10
102.3313006515
 20
218.2438928845
  0
VERTEX
  8
0
 62
7
  6
CONTINUOUS
 10
102.1811934566
 20
218.1870219045
  0
VERTEX
  8
0
 62
7
  6
CONTINUOUS
 10
102.0515869935
 20
218.1345218323
  0
VERTEX
  8
0
 62
7
  6
CONTINUOUS
 10
101.947011676
 20
218.0881220246
  0
VERTEX
  8
0
 62
7
  6
CONTINUOUS
 10
101.8710462276
 20
218.0495098928
  0
VERTEX
  8
0
 62
7
  6
CONTINUOUS
 10
101.826235485
 20
218.0201989959
  0
VERTEX
  8
0
 62
7
  6
CONTINUOUS
 10
101.8143156641
 20
218.0005245675
  0
SEQEND
  0
POLYLINE
  8
0
 62
7
  6
CONTINUOUS
 66
1
 70
0
  0
VERTEX
  8
0
 62
7
  6
CONTINUOUS
 10
149.3289705742
 20
233.5223907371
  0
VERTEX
  8
0
 62
7
  6
CONTINUOUS
 10
149.5054492067
 20
233.5770246809
  0
VERTEX
  8
0
 62
7
  6
CONTINUOUS
 10
149.6740156124
 20
233.6264734469
  0
VERTEX
  8
0
 62
7
  6
CONTINUOUS
 10
149.8288828076
 20
233.6686946525
  0
VERTEX
  8
0
 62
7
  6
CONTINUOUS
 10
149.9645954073
 20
233.7024019687
  0
VERTEX
  8
0
 62
7
  6
CONTINUOUS
 10
150.0764717392
 20
233.7263315642
  0
VERTEX
  8
0
 62
7
  6
CONTINUOUS
 10
150.1606247199
 20
233.7397450626
  0
VERTEX
  8
0
 62
7
  6
CONTINUOUS
 10
150.2141058855
 20
233.7423711415
  0
VERTEX
  8
0
 62
7
  6
CONTINUOUS
 10
150.2353135624
 20
233.7334604883
  0
SEQEND
  0
POLYLINE
  8
0
 62
7
  6
CONTINUOUS
 66
1
 70
0
  0
VERTEX
  8
0
 62
7
  6
CONTINUOUS
 10
135.5050458236
 20
117.3116256454
  0
VERTEX
  8
0
 62
7
  6
CONTINUOUS
 10
135.5166686453
 20
117.3148564236
  0
VERTEX
  8
0
 62
7
  6
CONTINUOUS
 10
135.5286370935
 20
117.3172203298
  0
VERTEX
  8
0
 62
7
  6
CONTINUOUS
 10
135.5409751802
 20
117.3187188159
  0
VERTEX
  8
0
 62
7
  6
CONTINUOUS
 10
135.5536044374
 20
117.3193454363
  0
VERTEX
  8
0
 62
7
  6
CONTINUOUS
 10
135.5664462679
 20
117.3190937039
  0
VERTEX
  8
0
 62
7
  6
CONTINUOUS
 10
135.5795245503
 20
117.3179650269
  0
SEQEND
  0
POLYLINE
  8
0
 62
7
  6
CONTINUOUS
 66
1
 70
0
  0
VERTEX
  8
0
 62
7
  6
CONTINUOUS
 10
149.3289705694
 20
117.3116256438
  0
VERTEX
  8
0
 62
7
  6
CONTINUOUS
 10
149.317347748
 20
117.314856423
  0
VERTEX
  8
0
 62
7
  6
CONTINUOUS
 10
149.3053792999
 20
117.3172203299
  0
VERTEX
  8
0
 62
7
  6
CONTINUOUS
 10
149.2930412132
 20
117.318718816
  0
VERTEX
  8
0
 62
7
  6
CONTINUOUS
 10
149.280411956
 20
117.3193454363
  0
VERTEX
  8
0
 62
7
  6
CONTINUOUS
 10
149.2675701255
 20
117.3190937039
  0
VERTEX
  8
0
 62
7
  6
CONTINUOUS
 10
149.2544918432
 20
117.3179650269
  0
SEQEND
  0
POLYLINE
  8
0
 62
7
  6
CONTINUOUS
 66
1
 70
0
  0
VERTEX
  8
0
 62
7
  6
CONTINUOUS
 10
149.3289705694
 20
117.3116256438
  0
VERTEX
  8
0
 62
7
  6
CONTINUOUS
 10
149.5054492019
 20
117.2569916999
  0
VERTEX
  8
0
 62
7
  6
CONTINUOUS
 10
149.6740156075
 20
117.2075429336
  0
VERTEX
  8
0
 62
7
  6
CONTINUOUS
 10
149.8288828025
 20
117.1653217276
  0
VERTEX
  8
0
 62
7
  6
CONTINUOUS
 10
149.964595402
 20
117.1316144108
  0
VERTEX
  8
0
 62
7
  6
CONTINUOUS
 10
150.0764717337
 20
117.1076848147
  0
VERTEX
  8
0
 62
7
  6
CONTINUOUS
 10
150.1606247142
 20
117.0942713155
  0
VERTEX
  8
0
 62
7
  6
CONTINUOUS
 10
150.2141058795
 20
117.0916452359
  0
VERTEX
  8
0
 62
7
  6
CONTINUOUS
 10
150.2353135561
 20
117.1005558882
  0
SEQEND
  0
LINE
  8
0
 62
7
  6
CONTINUOUS
 10
128.94298204
 20
125.1515904723
 11
123.7724531008
 21
126.8315971646
  0
POLYLINE
  8
0
 62
7
  6
CONTINUOUS
 66
1
 70
0
  0
VERTEX
  8
0
 62
7
  6
CONTINUOUS
 10
102.6716263013
 20
132.4715160213
  0
VERTEX
  8
0
 62
7
  6
CONTINUOUS
 10
102.4967390617
 20
132.5310477674
  0
VERTEX
  8
0
 62
7
  6
CONTINUOUS
 10
102.3313007183
 20
132.5901237178
  0
VERTEX
  8
0
 62
7
  6
CONTINUOUS
 10
102.1811935215
 20
132.6469946912
  0
VERTEX
  8
0
 62
7
  6
CONTINUOUS
 10
102.0515870558
 20
132.6994947549
  0
VERTEX
  8
0
 62
7
  6
CONTINUOUS
 10
101.9470117351
 20
132.7458945525
  0
VERTEX
  8
0
 62
7
  6
CONTINUOUS
 10
101.871046283
 20
132.784506673
  0
VERTEX
  8
0
 62
7
  6
CONTINUOUS
 10
101.8262355364
 20
132.8138175579
  0
VERTEX
  8
0
 62
7
  6
CONTINUOUS
 10
101.8143157113
 20
132.8334919734
  0
SEQEND
  0
POLYLINE
  8
0
 62
7
  6
CONTINUOUS
 66
1
 70
0
  0
VERTEX
  8
0
 62
7
  6
CONTINUOUS
 10
102.6716263013
 20
132.4715160213
  0
VERTEX
  8
0
 62
7
  6
CONTINUOUS
 10
102.6829283116
 20
132.4672979158
  0
VERTEX
  8
0
 62
7
  6
CONTINUOUS
 10
102.6940004279
 20
132.4621753963
  0
VERTEX
  8
0
 62
7
  6
CONTINUOUS
 10
102.7048629354
 20
132.456135537
  0
VERTEX
  8
0
 62
7
  6
CONTINUOUS
 10
102.7154485463
 20
132.4492192048
  0
VERTEX
  8
0
 62
7
  6
CONTINUOUS
 10
102.7256898439
 20
132.4414673085
  0
VERTEX
  8
0
 62
7
  6
CONTINUOUS
 10
102.7356069798
 20
132.4328669658
  0
SEQEND
  0
POLYLINE
  8
0
 62
7
  6
CONTINUOUS
 66
1
 70
0
  0
VERTEX
  8
0
 62
7
  6
CONTINUOUS
 10
113.855416276
 20
124.3460166995
  0
VERTEX
  8
0
 62
7
  6
CONTINUOUS
 10
113.8479122207
 20
124.3554621781
  0
VERTEX
  8
0
 62
7
  6
CONTINUOUS
 10
113.8396190126
 20
124.3644094963
  0
VERTEX
  8
0
 62
7
  6
CONTINUOUS
 10
113.8305180789
 20
124.3728739425
  0
VERTEX
  8
0
 62
7
  6
CONTINUOUS
 10
113.8206691133
 20
124.3808041801
  0
VERTEX
  8
0
 62
7
  6
CONTINUOUS
 10
113.8101318896
 20
124.3881487628
  0
VERTEX
  8
0
 62
7
  6
CONTINUOUS
 10
113.7988879173
 20
124.3949228654
  0
SEQEND
  0
POLYLINE
  8
0
 62
7
  6
CONTINUOUS
 66
1
 70
0
  0
VERTEX
  8
0
 62
7
  6
CONTINUOUS
 10
113.855416276
 20
124.3460166995
  0
VERTEX
  8
0
 62
7
  6
CONTINUOUS
 10
113.9660774623
 20
124.1980853728
  0
VERTEX
  8
0
 62
7
  6
CONTINUOUS
 10
114.0733852935
 20
124.0589996333
  0
VERTEX
  8
0
 62
7
  6
CONTINUOUS
 10
114.1738584839
 20
123.9338133069
  0
VERTEX
  8
0
 62
7
  6
CONTINUOUS
 10
114.2638396195
 20
123.8267736502
  0
VERTEX
  8
0
 62
7
  6
CONTINUOUS
 10
114.3402840094
 20
123.7416549423
  0
VERTEX
  8
0
 62
7
  6
CONTINUOUS
 10
114.4004809437
 20
123.6813393127
  0
VERTEX
  8
0
 62
7
  6
CONTINUOUS
 10
114.4422045444
 20
123.6477793294
  0
VERTEX
  8
0
 62
7
  6
CONTINUOUS
 10
114.4645994653
 20
123.642522639
  0
SEQEND
  0
LINE
  8
0
 62
7
  6
CONTINUOUS
 10
101.9710208138
 20
142.6712648925
 11
98.7754581896
 21
147.0695795142
  0
POLYLINE
  8
0
 62
7
  6
CONTINUOUS
 66
1
 70
0
  0
VERTEX
  8
0
 62
7
  6
CONTINUOUS
 10
85.0195916618
 20
164.035124388
  0
VERTEX
  8
0
 62
7
  6
CONTINUOUS
 10
84.9130967969
 20
164.1860827244
  0
VERTEX
  8
0
 62
7
  6
CONTINUOUS
 10
84.8139783418
 20
164.3311183939
  0
VERTEX
  8
0
 62
7
  6
CONTINUOUS
 10
84.725966994
 20
164.465358779
  0
VERTEX
  8
0
 62
7
  6
CONTINUOUS
 10
84.6519719315
 20
164.5840129977
  0
VERTEX
  8
0
 62
7
  6
CONTINUOUS
 10
84.594641846
 20
164.6830190606
  0
VERTEX
  8
0
 62
7
  6
CONTINUOUS
 10
84.5558801497
 20
164.7589083023
  0
VERTEX
  8
0
 62
7
  6
CONTINUOUS
 10
84.5368560113
 20
164.8089604103
  0
VERTEX
  8
0
 62
7
  6
CONTINUOUS
 10
84.5387770135
 20
164.8318836529
  0
SEQEND
  0
POLYLINE
  8
0
 62
7
  6
CONTINUOUS
 66
1
 70
0
  0
VERTEX
  8
0
 62
7
  6
CONTINUOUS
 10
85.0195916618
 20
164.035124388
  0
VERTEX
  8
0
 62
7
  6
CONTINUOUS
 10
85.0262559566
 20
164.0250687885
  0
VERTEX
  8
0
 62
7
  6
CONTINUOUS
 10
85.0322026146
 20
164.0144166022
  0
VERTEX
  8
0
 62
7
  6
CONTINUOUS
 10
85.0374404374
 20
164.0031454414
  0
VERTEX
  8
0
 62
7
  6
CONTINUOUS
 10
85.0419390448
 20
163.9913279408
  0
VERTEX
  8
0
 62
7
  6
CONTINUOUS
 10
85.045667977
 20
163.9790368443
  0
VERTEX
  8
0
 62
7
  6
CONTINUOUS
 10
85.0486359529
 20
163.9662498781
  0
SEQEND
  0
LINE
  8
0
 62
9
  6
CONTINUOUS
 10
93.4502498394
 20
150.9605831241
 11
93.4502498394
 21
149.9605831241
  0
LINE
  8
0
 62
9
  6
CONTINUOUS
 10
93.4502498394
 20
199.8734332717
 11
93.4502498394
 21
200.8734332717
  0
POLYLINE
  8
0
 62
9
  6
CONTINUOUS
 66
1
 70
0
  0
VERTEX
  8
0
 62
9
  6
CONTINUOUS
 10
100.7692597134
 20
221.2168760625
  0
VERTEX
  8
0
 62
9
  6
CONTINUOUS
 10
100.7762169824
 20
221.2520217023
  0
VERTEX
  8
0
 62
9
  6
CONTINUOUS
 10
100.8168141841
 20
221.2935948367
  0
VERTEX
  8
0
 62
9
  6
CONTINUOUS
 10
100.8886324977
 20
221.3451846706
  0
VERTEX
  8
0
 62
9
  6
CONTINUOUS
 10
100.9904738889
 20
221.4031544494
  0
VERTEX
  8
0
 62
9
  6
CONTINUOUS
 10
101.1175650038
 20
221.4653529088
  0
VERTEX
  8
0
 62
9
  6
CONTINUOUS
 10
101.2661139952
 20
221.5298638238
  0
VERTEX
  8
0
 62
9
  6
CONTINUOUS
 10
101.4318823581
 20
221.5924522952
  0
VERTEX
  8
0
 62
9
  6
CONTINUOUS
 10
101.6054071826
 20
221.6560836883
  0
SEQEND
  0
POLYLINE
  8
0
 62
9
  6
CONTINUOUS
 66
1
 70
0
  0
VERTEX
  8
0
 62
9
  6
CONTINUOUS
 10
81.8027850085
 20
162.844069105
  0
VERTEX
  8
0
 62
9
  6
CONTINUOUS
 10
81.7889986672
 20
162.8123399341
  0
VERTEX
  8
0
 62
9
  6
CONTINUOUS
 10
81.7963467741
 20
162.7533030419
  0
VERTEX
  8
0
 62
9
  6
CONTINUOUS
 10
81.8245711717
 20
162.6690325174
  0
VERTEX
  8
0
 62
9
  6
CONTINUOUS
 10
81.872680277
 20
162.5624889593
  0
VERTEX
  8
0
 62
9
  6
CONTINUOUS
 10
81.9389839178
 20
162.4374154634
  0
VERTEX
  8
0
 62
9
  6
CONTINUOUS
 10
82.0211527094
 20
162.2982061182
  0
VERTEX
  8
0
 62
9
  6
CONTINUOUS
 10
82.1162998937
 20
162.1497516333
  0
VERTEX
  8
0
 62
9
  6
CONTINUOUS
 10
82.2210827557
 20
161.9972675205
  0
SEQEND
  0
LINE
  8
0
 62
9
  6
CONTINUOUS
 10
88.426942544
 20
184.4132831065
 11
87.8391572917
 21
183.6042661122
  0
LINE
  8
0
 62
9
  6
CONTINUOUS
 10
117.1771945084
 20
223.9846101192
 11
117.7649797606
 21
224.7936271136
  0
POLYLINE
  8
0
 62
9
  6
CONTINUOUS
 66
1
 70
0
  0
VERTEX
  8
0
 62
9
  6
CONTINUOUS
 10
135.643758784
 20
236.9498119902
  0
VERTEX
  8
0
 62
9
  6
CONTINUOUS
 10
135.6700454216
 20
236.9741560299
  0
VERTEX
  8
0
 62
9
  6
CONTINUOUS
 10
135.727325323
 20
236.9839269658
  0
VERTEX
  8
0
 62
9
  6
CONTINUOUS
 10
135.8157513027
 20
236.9834502725
  0
VERTEX
  8
0
 62
9
  6
CONTINUOUS
 10
135.9322165
 20
236.9704879409
  0
VERTEX
  8
0
 62
9
  6
CONTINUOUS
 10
136.071594709
 20
236.9461052686
  0
VERTEX
  8
0
 62
9
  6
CONTINUOUS
 10
136.229691932
 20
236.9109807887
  0
VERTEX
  8
0
 62
9
  6
CONTINUOUS
 10
136.4005899351
 20
236.8641797267
  0
VERTEX
  8
0
 62
9
  6
CONTINUOUS
 10
136.5783760615
 20
236.8136632723
  0
SEQEND
  0
POLYLINE
  8
0
 62
9
  6
CONTINUOUS
 66
1
 70
0
  0
VERTEX
  8
0
 62
9
  6
CONTINUOUS
 10
85.9888833598
 20
200.8734332717
  0
VERTEX
  8
0
 62
9
  6
CONTINUOUS
 10
85.9590800367
 20
200.8558672413
  0
VERTEX
  8
0
 62
9
  6
CONTINUOUS
 10
85.9303237655
 20
200.8037862834
  0
VERTEX
  8
0
 62
9
  6
CONTINUOUS
 10
85.9036248113
 20
200.7190201123
  0
VERTEX
  8
0
 62
9
  6
CONTINUOUS
 10
85.8799211629
 20
200.6045467405
  0
VERTEX
  8
0
 62
9
  6
CONTINUOUS
 10
85.8600455787
 20
200.4643878545
  0
VERTEX
  8
0
 62
9
  6
CONTINUOUS
 10
85.8446963275
 20
200.3034675246
  0
VERTEX
  8
0
 62
9
  6
CONTINUOUS
 10
85.8344126597
 20
200.1274392117
  0
VERTEX
  8
0
 62
9
  6
CONTINUOUS
 10
85.8295558631
 20
199.9424871521
  0
SEQEND
  0
LINE
  8
0
 62
9
  6
CONTINUOUS
 10
104.0260052731
 20
214.429711846
 11
103.0749487568
 21
214.1206948516
  0
LINE
  8
0
 62
9
  6
CONTINUOUS
 10
150.5448901366
 20
229.5446137849
 11
151.4959466529
 21
229.8536307793
  0
POLYLINE
  8
0
 62
9
  6
CONTINUOUS
 66
1
 70
0
  0
VERTEX
  8
0
 62
9
  6
CONTINUOUS
 10
111.7286074774
 20
121.6547081035
  0
VERTEX
  8
0
 62
9
  6
CONTINUOUS
 10
111.6930320735
 20
121.6504642596
  0
VERTEX
  8
0
 62
9
  6
CONTINUOUS
 10
111.6409484479
 20
121.6762276879
  0
VERTEX
  8
0
 62
9
  6
CONTINUOUS
 10
111.5696905209
 20
121.7285888277
  0
VERTEX
  8
0
 62
9
  6
CONTINUOUS
 10
111.4830872644
 20
121.8075320996
  0
VERTEX
  8
0
 62
9
  6
CONTINUOUS
 10
111.3846596999
 20
121.9091825516
  0
VERTEX
  8
0
 62
9
  6
CONTINUOUS
 10
111.2774020109
 20
122.0305260688
  0
VERTEX
  8
0
 62
9
  6
CONTINUOUS
 10
111.1666515961
 20
122.1688402491
  0
VERTEX
  8
0
 62
9
  6
CONTINUOUS
 10
111.0525124251
 20
122.3142089822
  0
SEQEND
  0
POLYLINE
  8
0
 62
9
  6
CONTINUOUS
 66
1
 70
0
  0
VERTEX
  8
0
 62
9
  6
CONTINUOUS
 10
173.105408916
 20
121.6547081035
  0
VERTEX
  8
0
 62
9
  6
CONTINUOUS
 10
173.1398453644
 20
121.6514013668
  0
VERTEX
  8
0
 62
9
  6
CONTINUOUS
 10
173.1937220955
 20
121.6766332348
  0
VERTEX
  8
0
 62
9
  6
CONTINUOUS
 10
173.2651463084
 20
121.7295172563
  0
VERTEX
  8
0
 62
9
  6
CONTINUOUS
 10
173.3516087226
 20
121.8081955046
  0
VERTEX
  8
0
 62
9
  6
CONTINUOUS
 10
173.4500717341
 20
121.9099038499
  0
VERTEX
  8
0
 62
9
  6
CONTINUOUS
 10
173.5570761359
 20
122.0310690681
  0
VERTEX
  8
0
 62
9
  6
CONTINUOUS
 10
173.6688626443
 20
122.1674343764
  0
VERTEX
  8
0
 62
9
  6
CONTINUOUS
 10
173.7815039683
 20
122.3142089822
  0
SEQEND
  0
LINE
  8
0
 62
9
  6
CONTINUOUS
 10
104.0260052731
 20
136.4043045497
 11
103.0749487568
 21
136.7133215441
  0
LINE
  8
0
 62
9
  6
CONTINUOUS
 10
150.5448901366
 20
121.2894026108
 11
151.4959466529
 21
120.9803856165
  0
POLYLINE
  8
0
 62
9
  6
CONTINUOUS
 66
1
 70
0
  0
VERTEX
  8
0
 62
9
  6
CONTINUOUS
 10
85.9888833598
 20
149.9605831241
  0
VERTEX
  8
0
 62
9
  6
CONTINUOUS
 10
85.9576077845
 20
149.9780604801
  0
VERTEX
  8
0
 62
9
  6
CONTINUOUS
 10
85.9306146093
 20
150.0295175184
  0
VERTEX
  8
0
 62
9
  6
CONTINUOUS
 10
85.9037428411
 20
150.1137629289
  0
VERTEX
  8
0
 62
9
  6
CONTINUOUS
 10
85.8800810258
 20
150.2285334944
  0
VERTEX
  8
0
 62
9
  6
CONTINUOUS
 10
85.86020009
 20
150.3686247084
  0
VERTEX
  8
0
 62
9
  6
CONTINUOUS
 10
85.8447507267
 20
150.5298381638
  0
VERTEX
  8
0
 62
9
  6
CONTINUOUS
 10
85.8364507945
 20
150.7068341468
  0
VERTEX
  8
0
 62
9
  6
CONTINUOUS
 10
85.8295558631
 20
150.8915292437
  0
SEQEND
  0
POLYLINE
  8
0
 62
9
  6
CONTINUOUS
 66
1
 70
0
  0
VERTEX
  8
0
 62
9
  6
CONTINUOUS
 10
135.643758784
 20
113.8842044056
  0
VERTEX
  8
0
 62
9
  6
CONTINUOUS
 10
135.6696748049
 20
113.861287963
  0
VERTEX
  8
0
 62
9
  6
CONTINUOUS
 10
135.7280929159
 20
113.8500330251
  0
VERTEX
  8
0
 62
9
  6
CONTINUOUS
 10
135.8169607658
 20
113.8508349982
  0
VERTEX
  8
0
 62
9
  6
CONTINUOUS
 10
135.9331562422
 20
113.8636657062
  0
VERTEX
  8
0
 62
9
  6
CONTINUOUS
 10
136.0725971573
 20
113.88807438
  0
VERTEX
  8
0
 62
9
  6
CONTINUOUS
 10
136.2303846651
 20
113.9232034913
  0
VERTEX
  8
0
 62
9
  6
CONTINUOUS
 10
136.4009753674
 20
113.967818882
  0
VERTEX
  8
0
 62
9
  6
CONTINUOUS
 10
136.5783760615
 20
114.0203531234
  0
SEQEND
  0
LINE
  8
0
 62
9
  6
CONTINUOUS
 10
117.1771945084
 20
126.8494062765
 11
117.7649797607
 21
126.0403892821
  0
LINE
  8
0
 62
9
  6
CONTINUOUS
 10
88.426942544
 20
166.4207332892
 11
87.8391572917
 21
167.2297502836
  0
POLYLINE
  8
0
 62
9
  6
CONTINUOUS
 66
1
 70
0
  0
VERTEX
  8
0
 62
9
  6
CONTINUOUS
 10
81.8027850085
 20
187.9899472908
  0
VERTEX
  8
0
 62
9
  6
CONTINUOUS
 10
81.7877554686
 20
188.0224700908
  0
VERTEX
  8
0
 62
9
  6
CONTINUOUS
 10
81.7961632194
 20
188.0799658995
  0
VERTEX
  8
0
 62
9
  6
CONTINUOUS
 10
81.8239417121
 20
188.1639166974
  0
VERTEX
  8
0
 62
9
  6
CONTINUOUS
 10
81.8722593472
 20
188.2706761014
  0
VERTEX
  8
0
 62
9
  6
CONTINUOUS
 10
81.9385188818
 20
188.3956979952
  0
VERTEX
  8
0
 62
9
  6
CONTINUOUS
 10
82.0207789759
 20
188.5352033282
  0
VERTEX
  8
0
 62
9
  6
CONTINUOUS
 10
82.1180998182
 20
188.6832746641
  0
VERTEX
  8
0
 62
9
  6
CONTINUOUS
 10
82.2210827557
 20
188.8367488752
  0
SEQEND
  0
POLYLINE
  8
0
 62
9
  6
CONTINUOUS
 66
1
 70
0
  0
VERTEX
  8
0
 62
9
  6
CONTINUOUS
 10
100.7692597134
 20
129.6171403332
  0
VERTEX
  8
0
 62
9
  6
CONTINUOUS
 10
100.7767562753
 20
129.5833675131
  0
VERTEX
  8
0
 62
9
  6
CONTINUOUS
 10
100.8174020385
 20
129.5399247957
  0
VERTEX
  8
0
 62
9
  6
CONTINUOUS
 10
100.8897690294
 20
129.4883384076
  0
VERTEX
  8
0
 62
9
  6
CONTINUOUS
 10
100.991314845
 20
129.4304206849
  0
VERTEX
  8
0
 62
9
  6
CONTINUOUS
 10
101.118471972
 20
129.3682063995
  0
VERTEX
  8
0
 62
9
  6
CONTINUOUS
 10
101.2667731177
 20
129.3038812639
  0
VERTEX
  8
0
 62
9
  6
CONTINUOUS
 10
101.4310081588
 20
129.2397051517
  0
VERTEX
  8
0
 62
9
  6
CONTINUOUS
 10
101.6054071826
 20
129.1779327075
  0
SEQEND
  0
LINE
  8
0
 62
9
  6
CONTINUOUS
 10
101.6060126206
 20
129.1773983419
 11
102.6719944588
 21
132.4713622726
  0
LINE
  8
0
 62
7
  6
CONTINUOUS
 10
135.643758784
 20
236.9498119902
 11
133.3380697406
 21
229.8536307793
  0
LINE
  8
0
 62
7
  6
CONTINUOUS
 10
103.0749487568
 20
136.7133215441
 11
100.7692597134
 21
129.6171403332
  0
LINE
  8
0
 62
9
  6
CONTINUOUS
 10
135.5795245503
 20
233.5160513689
 11
134.2891262569
 21
229.5446137849
  0
LINE
  8
0
 62
9
  6
CONTINUOUS
 10
104.0260052731
 20
136.4043045497
 11
102.7356069798
 21
132.4328669658
  0
LINE
  8
0
 62
9
  6
CONTINUOUS
 10
135.5050737075
 20
233.5223840861
 11
136.578380985
 21
236.8136637405
  0
LINE
  8
0
 62
9
  6
CONTINUOUS
 10
82.2210838281
 20
161.9972627102
 11
85.0196063731
 21
164.0351003029
  0
LINE
  8
0
 62
7
  6
CONTINUOUS
 10
173.105408916
 20
229.1793082923
 11
167.0690366328
 21
224.7936271136
  0
LINE
  8
0
 62
7
  6
CONTINUOUS
 10
87.8391572917
 20
167.2297502836
 11
81.8027850085
 21
162.844069105
  0
LINE
  8
0
 62
9
  6
CONTINUOUS
 10
171.0351284762
 20
226.4390935303
 11
167.6568218851
 21
223.9846101192
  0
LINE
  8
0
 62
9
  6
CONTINUOUS
 10
88.426942544
 20
166.4207332892
 11
85.0486359529
 21
163.9662498781
  0
LINE
  8
0
 62
9
  6
CONTINUOUS
 10
170.9786187569
 20
226.4879779136
 11
173.7815082267
 21
228.5198048984
  0
LINE
  8
0
 62
9
  6
CONTINUOUS
 10
199.0044664186
 20
150.8915428297
 11
195.5425964585
 21
150.8877837425
  0
LINE
  8
0
 62
7
  6
CONTINUOUS
 10
85.9888833598
 20
149.9605831241
 11
93.4502498394
 21
149.9605831241
  0
LINE
  8
0
 62
7
  6
CONTINUOUS
 10
191.3837665541
 20
149.9605831241
 11
198.8451330336
 21
149.9605831241
  0
LINE
  8
0
 62
9
  6
CONTINUOUS
 10
89.274433244
 20
150.9605831241
 11
93.4502498394
 21
150.9605831241
  0
LINE
  8
0
 62
9
  6
CONTINUOUS
 10
191.3837665541
 20
150.9605831241
 11
195.5595831495
 21
150.9605831241
  0
LINE
  8
0
 62
9
  6
CONTINUOUS
 10
89.2914191564
 20
150.8877933047
 11
85.8295520651
 21
150.8915380067
  0
LINE
  8
0
 62
9
  6
CONTINUOUS
 10
173.7815143044
 20
122.3142150871
 11
170.978596688
 21
124.3460127786
  0
LINE
  8
0
 62
7
  6
CONTINUOUS
 10
81.8027850085
 20
187.9899472908
 11
87.8391572917
 21
183.6042661122
  0
LINE
  8
0
 62
7
  6
CONTINUOUS
 10
167.0690366328
 20
126.0403892821
 11
173.105408916
 21
121.6547081035
  0
LINE
  8
0
 62
9
  6
CONTINUOUS
 10
85.0486359529
 20
186.8677665176
 11
88.426942544
 21
184.4132831065
  0
LINE
  8
0
 62
9
  6
CONTINUOUS
 10
167.6568218851
 20
126.8494062765
 11
171.0351284762
 21
124.3949228654
  0
LINE
  8
0
 62
9
  6
CONTINUOUS
 10
85.0196066052
 20
186.7989164757
 11
82.2210838319
 21
188.8367537024
  0
LINE
  8
0
 62
9
  6
CONTINUOUS
 10
136.578390256
 20
114.0203517736
 11
135.5050413762
 21
117.3116246367
  0
LINE
  8
0
 62
7
  6
CONTINUOUS
 10
100.7692597134
 20
221.2168760625
 11
103.0749487568
 21
214.1206948516
  0
LINE
  8
0
 62
7
  6
CONTINUOUS
 10
133.3380697406
 20
120.9803856165
 11
135.643758784
 21
113.8842044056
  0
LINE
  8
0
 62
9
  6
CONTINUOUS
 10
102.7356069798
 20
218.4011494299
 11
104.0260052731
 21
214.429711846
  0
LINE
  8
0
 62
9
  6
CONTINUOUS
 10
134.2891262569
 20
121.2894026108
 11
135.5795245503
 21
117.3179650269
  0
LINE
  8
0
 62
9
  6
CONTINUOUS
 10
102.6716527049
 20
218.3625115984
 11
101.6054108905
 21
221.656086961
  0
LINE
  8
0
 62
9
  6
CONTINUOUS
 10
136.5001454971
 20
237.6363037242
 11
136.5783760615
 21
236.8136632723
  0
LINE
  8
0
 62
9
  6
CONTINUOUS
 10
148.3338708963
 20
113.1977126715
 11
148.2556403319
 21
114.0203531234
  0
LINE
  8
1_AXIS
 62
2
  6
CONTINUOUS
 10
142.4170081967
 20
176.4670081979
 11
142.4170081967
 21
174.3670081979
  0
LINE
  8
1_AXIS
 62
2
  6
CENTER
 10
142.4170081967
 20
170.1670081979
 11
142.4170081967
 21
110.9170081979
  0
LINE
  8
1_AXIS
 62
2
  6
CENTER
 10
142.4170081967
 20
180.6670081979
 11
142.4170081967
 21
239.9170081979
  0
LINE
  8
0
 62
9
  6
CONTINUOUS
 10
136.5783760615
 20
114.0203531234
 11
136.5001454971
 21
113.1977126715
  0
LINE
  8
0
 62
9
  6
CONTINUOUS
 10
148.2556403319
 20
236.8136632723
 11
148.3338708963
 21
237.6363037242
  0
LINE
  8
0
 62
9
  6
CONTINUOUS
 10
129.2018987609
 20
126.1174901211
 11
128.94298204
 21
125.1515904723
  0
LINE
  8
0
 62
9
  6
CONTINUOUS
 10
155.6321176326
 20
224.7165262746
 11
155.8910343535
 21
225.6824259235
  0
LINE
  8
0
 62
9
  6
CONTINUOUS
 10
124.1307266422
 20
127.7652138255
 11
123.7724531008
 21
126.8315971646
  0
LINE
  8
0
 62
9
  6
CONTINUOUS
 10
160.7032897512
 20
223.0688025703
 11
161.0615632927
 21
224.0024192312
  0
LINE
  8
0
 62
9
  6
CONTINUOUS
 10
174.2017500378
 20
229.2313202914
 11
173.7815039683
 21
228.5198074135
  0
LINE
  8
0
 62
9
  6
CONTINUOUS
 10
110.6322663557
 20
121.6026961044
 11
111.0525124251
 21
122.3142089822
  0
LINE
  8
0
 62
9
  6
CONTINUOUS
 10
101.6054071826
 20
129.1779327075
 11
101.058581401
 21
128.5583853737
  0
LINE
  8
0
 62
9
  6
CONTINUOUS
 10
183.2286092109
 20
221.6560836883
 11
183.7754349925
 21
222.2756310221
  0
LINE
  8
0
 62
9
  6
CONTINUOUS
 10
102.74823041
 20
143.3005066931
 11
101.9710208138
 21
142.6712648925
  0
LINE
  8
0
 62
9
  6
CONTINUOUS
 10
182.0857859835
 20
207.5335097026
 11
182.8629955796
 21
208.1627515033
  0
LINE
  8
0
 62
9
  6
CONTINUOUS
 10
99.6140736778
 20
147.6143033552
 11
98.7754581896
 21
147.0695795142
  0
LINE
  8
0
 62
9
  6
CONTINUOUS
 10
185.2199427156
 20
203.2197130406
 11
186.0585582038
 21
203.7644368816
  0
LINE
  8
0
 62
9
  6
CONTINUOUS
 10
199.7626635188
 20
200.27109872
 11
199.0044605303
 21
199.9424871521
  0
LINE
  8
0
 62
9
  6
CONTINUOUS
 10
85.0713528747
 20
150.5629176757
 11
85.8295558631
 21
150.8915292437
  0
LINE
  8
0
 62
9
  6
CONTINUOUS
 10
82.2210827557
 20
161.9972675205
 11
81.4145306195
 21
161.8174593287
  0
LINE
  8
0
 62
9
  6
CONTINUOUS
 10
202.6129336377
 20
188.8367488752
 11
203.4194857739
 21
189.0165570671
  0
LINE
  8
0
 62
9
  6
CONTINUOUS
 10
91.4466868814
 20
172.7509352402
 11
90.4480520594
 21
172.6987002684
  0
LINE
  8
0
 62
9
  6
CONTINUOUS
 10
193.387329512
 20
178.0830811556
 11
194.385964334
 21
178.1353161273
  0
LINE
  8
1_AXIS
 62
2
  6
CONTINUOUS
 10
143.4670081967
 20
175.4170081979
 11
141.3670081967
 21
175.4170081979
  0
LINE
  8
1_AXIS
 62
2
  6
CENTER
 10
137.1670081967
 20
175.4170081979
 11
77.9170081967
 21
175.4170081979
  0
LINE
  8
1_AXIS
 62
2
  6
CENTER
 10
147.6670081967
 20
175.4170081979
 11
206.9170081967
 21
175.4170081979
  0
LINE
  8
0
 62
9
  6
CONTINUOUS
 10
91.4466868814
 20
178.0830811556
 11
90.4480520594
 21
178.1353161273
  0
LINE
  8
0
 62
9
  6
CONTINUOUS
 10
193.387329512
 20
172.7509352402
 11
194.385964334
 21
172.6987002684
  0
LINE
  8
0
 62
9
  6
CONTINUOUS
 10
203.4194857739
 20
161.8174593287
 11
202.6129336377
 21
161.9972675205
  0
LINE
  8
0
 62
9
  6
CONTINUOUS
 10
81.4145306195
 20
189.0165570671
 11
82.2210827557
 21
188.8367488752
  0
LINE
  8
0
 62
9
  6
CONTINUOUS
 10
85.8295558631
 20
199.9424871521
 11
85.0713528747
 21
200.27109872
  0
LINE
  8
0
 62
9
  6
CONTINUOUS
 10
199.0044605303
 20
150.8915292437
 11
199.7626635188
 21
150.5629176757
  0
LINE
  8
0
 62
9
  6
CONTINUOUS
 10
99.6140736778
 20
203.2197130406
 11
98.7754581896
 21
203.7644368816
  0
LINE
  8
0
 62
9
  6
CONTINUOUS
 10
185.2199427156
 20
147.6143033552
 11
186.0585582038
 21
147.0695795142
  0
LINE
  8
0
 62
9
  6
CONTINUOUS
 10
182.0857859835
 20
143.3005066931
 11
182.8629955796
 21
142.6712648925
  0
LINE
  8
0
 62
9
  6
CONTINUOUS
 10
102.74823041
 20
207.5335097026
 11
101.9710208138
 21
208.1627515033
  0
LINE
  8
0
 62
9
  6
CONTINUOUS
 10
101.058581401
 20
222.2756310221
 11
101.6054071826
 21
221.6560836883
  0
LINE
  8
0
 62
9
  6
CONTINUOUS
 10
183.7754349925
 20
128.5583853737
 11
183.2286092109
 21
129.1779327075
  0
LINE
  8
0
 62
9
  6
CONTINUOUS
 10
173.7815039683
 20
122.3142089822
 11
174.2017500378
 21
121.6026961044
  0
LINE
  8
0
 62
9
  6
CONTINUOUS
 10
111.0525124251
 20
228.5198074135
 11
110.6322663557
 21
229.2313202914
  0
LINE
  8
0
 62
9
  6
CONTINUOUS
 10
160.7032897512
 20
127.7652138255
 11
161.0615632927
 21
126.8315971646
  0
LINE
  8
0
 62
9
  6
CONTINUOUS
 10
124.1307266422
 20
223.0688025703
 11
123.7724531008
 21
224.0024192312
  0
LINE
  8
0
 62
9
  6
CONTINUOUS
 10
155.6321176326
 20
126.1174901211
 11
155.8910343535
 21
125.1515904723
  0
LINE
  8
0
 62
9
  6
CONTINUOUS
 10
129.2018987609
 20
224.7165262746
 11
128.94298204
 21
225.6824259235
  0
LINE
  8
0
 62
9
  6
CONTINUOUS
 10
183.2286055159
 20
221.6560869495
 11
182.1623641014
 21
218.3625114251
  0
LINE
  8
0
 62
9
  6
CONTINUOUS
 10
149.2544918432
 20
117.3179650269
 11
150.5448901366
 21
121.2894026108
  0
LINE
  8
0
 62
9
  6
CONTINUOUS
 10
180.8080111203
 20
214.429711846
 11
182.0984094137
 21
218.4011494299
  0
LINE
  8
0
 62
7
  6
CONTINUOUS
 10
149.1902576094
 20
113.8842044056
 11
151.4959466529
 21
120.9803856165
  0
LINE
  8
0
 62
7
  6
CONTINUOUS
 10
181.7590676366
 20
214.1206948516
 11
184.06475668
 21
221.2168760625
  0
LINE
  8
0
 62
9
  6
CONTINUOUS
 10
149.328975692
 20
117.3116244752
 11
148.2556281035
 21
114.0203519605
  0
LINE
  8
0
 62
9
  6
CONTINUOUS
 10
202.6129315867
 20
188.8367580752
 11
199.8144232493
 21
186.7988943799
  0
LINE
  8
0
 62
9
  6
CONTINUOUS
 10
113.7988879173
 20
124.3949228654
 11
117.1771945084
 21
126.8494062765
  0
LINE
  8
0
 62
9
  6
CONTINUOUS
 10
196.4070738494
 20
184.4132831065
 11
199.7853804405
 21
186.8677665176
  0
LINE
  8
0
 62
7
  6
CONTINUOUS
 10
111.7286074774
 20
121.6547081035
 11
117.7649797606
 21
126.0403892821
  0
LINE
  8
0
 62
7
  6
CONTINUOUS
 10
196.9948591017
 20
183.6042661122
 11
203.031231385
 21
187.9899472908
  0
LINE
  8
0
 62
9
  6
CONTINUOUS
 10
113.8554211182
 20
124.3460111313
 11
111.0524991272
 21
122.3142168365
  0
LINE
  8
0
 62
9
  6
CONTINUOUS
 10
85.8295539033
 20
199.9424826302
 11
89.2914170848
 21
199.9461975943
  0
LINE
  8
0
 62
9
  6
CONTINUOUS
 10
195.5595831495
 20
199.8734332717
 11
191.3837665541
 21
199.8734332717
  0
LINE
  8
0
 62
9
  6
CONTINUOUS
 10
93.4502498394
 20
199.8734332717
 11
89.274433244
 21
199.8734332717
  0
LINE
  8
0
 62
7
  6
CONTINUOUS
 10
198.8451330336
 20
200.8734332717
 11
191.3837665541
 21
200.8734332717
  0
LINE
  8
0
 62
7
  6
CONTINUOUS
 10
93.4502498394
 20
200.8734332717
 11
85.9888833598
 21
200.8734332717
  0
LINE
  8
0
 62
9
  6
CONTINUOUS
 10
195.5425993458
 20
199.9461971481
 11
199.0044624971
 21
199.9424826143
  0
LINE
  8
0
 62
9
  6
CONTINUOUS
 10
111.0525081817
 20
228.5198049072
 11
113.8553979289
 21
226.4879782527
  0
LINE
  8
0
 62
9
  6
CONTINUOUS
 10
199.7853804405
 20
163.9662498781
 11
196.4070738494
 21
166.4207332892
  0
LINE
  8
0
 62
9
  6
CONTINUOUS
 10
117.1771945084
 20
223.9846101192
 11
113.7988879173
 21
226.4390935303
  0
LINE
  8
0
 62
7
  6
CONTINUOUS
 10
203.031231385
 20
162.844069105
 11
196.9948591017
 21
167.2297502836
  0
LINE
  8
0
 62
7
  6
CONTINUOUS
 10
117.7649797606
 20
224.7936271136
 11
111.7286074774
 21
229.1793082923
  0
LINE
  8
0
 62
9
  6
CONTINUOUS
 10
199.8142056555
 20
164.0347650178
 11
202.6127542354
 21
161.9964628145
  0
LINE
  8
0
 62
9
  6
CONTINUOUS
 10
148.2556354257
 20
236.8136637389
 11
149.3289431218
 21
233.5223841886
  0
LINE
  8
0
 62
9
  6
CONTINUOUS
 10
182.0984094137
 20
132.4328669658
 11
180.8080111203
 21
136.4043045497
  0
LINE
  8
0
 62
9
  6
CONTINUOUS
 10
150.5448901366
 20
229.5446137849
 11
149.2544918432
 21
233.5160513689
  0
LINE
  8
0
 62
7
  6
CONTINUOUS
 10
184.06475668
 20
129.6171403332
 11
181.7590676366
 21
136.7133215441
  0
LINE
  8
0
 62
7
  6
CONTINUOUS
 10
151.4959466529
 20
229.8536307793
 11
149.1902576094
 21
236.9498119902
  0
LINE
  8
0
 62
9
  6
CONTINUOUS
 10
182.1623931063
 20
132.4715170712
 11
183.2285993748
 21
129.177924026
  0
LINE
  8
0
 62
9
  6
CONTINUOUS
 10
191.3837665541
 20
150.9605831241
 11
191.3837665541
 21
149.9605831241
  0
LINE
  8
0
 62
9
  6
CONTINUOUS
 10
191.3837665541
 20
199.8734332717
 11
191.3837665541
 21
200.8734332717
  0
POLYLINE
  8
0
 62
9
  6
CONTINUOUS
 66
1
 70
0
  0
VERTEX
  8
0
 62
9
  6
CONTINUOUS
 10
184.06475668
 20
129.6171403332
  0
VERTEX
  8
0
 62
9
  6
CONTINUOUS
 10
184.057799411
 20
129.5819946936
  0
VERTEX
  8
0
 62
9
  6
CONTINUOUS
 10
184.0172022093
 20
129.5404215592
  0
VERTEX
  8
0
 62
9
  6
CONTINUOUS
 10
183.9453838957
 20
129.4888317254
  0
VERTEX
  8
0
 62
9
  6
CONTINUOUS
 10
183.8435425045
 20
129.4308619466
  0
VERTEX
  8
0
 62
9
  6
CONTINUOUS
 10
183.7164513895
 20
129.3686634871
  0
VERTEX
  8
0
 62
9
  6
CONTINUOUS
 10
183.5679023981
 20
129.3041525721
  0
VERTEX
  8
0
 62
9
  6
CONTINUOUS
 10
183.4021340353
 20
129.2415641007
  0
VERTEX
  8
0
 62
9
  6
CONTINUOUS
 10
183.2286092109
 20
129.1779327075
  0
SEQEND
  0
POLYLINE
  8
0
 62
9
  6
CONTINUOUS
 66
1
 70
0
  0
VERTEX
  8
0
 62
9
  6
CONTINUOUS
 10
203.031231385
 20
187.9899472908
  0
VERTEX
  8
0
 62
9
  6
CONTINUOUS
 10
203.0450177262
 20
188.0216764616
  0
VERTEX
  8
0
 62
9
  6
CONTINUOUS
 10
203.0376696193
 20
188.0807133539
  0
VERTEX
  8
0
 62
9
  6
CONTINUOUS
 10
203.0094452217
 20
188.1649838783
  0
VERTEX
  8
0
 62
9
  6
CONTINUOUS
 10
202.9613361163
 20
188.2715274365
  0
VERTEX
  8
0
 62
9
  6
CONTINUOUS
 10
202.8950324756
 20
188.3966009324
  0
VERTEX
  8
0
 62
9
  6
CONTINUOUS
 10
202.8128636839
 20
188.5358102775
  0
VERTEX
  8
0
 62
9
  6
CONTINUOUS
 10
202.7177164997
 20
188.6842647625
  0
VERTEX
  8
0
 62
9
  6
CONTINUOUS
 10
202.6129336377
 20
188.8367488752
  0
SEQEND
  0
LINE
  8
0
 62
9
  6
CONTINUOUS
 10
167.6568218851
 20
126.8494062765
 11
167.0690366328
 21
126.0403892821
  0
LINE
  8
0
 62
9
  6
CONTINUOUS
 10
196.4070738494
 20
166.4207332892
 11
196.9948591017
 21
167.2297502836
  0
LINE
  8
0
 62
7
  6
CONTINUOUS
 10
186.0585582038
 20
147.0695795142
 11
182.8629955796
 21
142.6712648925
  0
POLYLINE
  8
0
 62
9
  6
CONTINUOUS
 66
1
 70
0
  0
VERTEX
  8
0
 62
9
  6
CONTINUOUS
 10
149.1902576094
 20
113.8842044056
  0
VERTEX
  8
0
 62
9
  6
CONTINUOUS
 10
149.1639709718
 20
113.8598603659
  0
VERTEX
  8
0
 62
9
  6
CONTINUOUS
 10
149.1066910704
 20
113.8500894301
  0
VERTEX
  8
0
 62
9
  6
CONTINUOUS
 10
149.0182650907
 20
113.8505661234
  0
VERTEX
  8
0
 62
9
  6
CONTINUOUS
 10
148.9017998935
 20
113.863528455
  0
VERTEX
  8
0
 62
9
  6
CONTINUOUS
 10
148.7624216845
 20
113.8879111273
  0
VERTEX
  8
0
 62
9
  6
CONTINUOUS
 10
148.6043244614
 20
113.9230356072
  0
VERTEX
  8
0
 62
9
  6
CONTINUOUS
 10
148.4334264583
 20
113.9698366692
  0
VERTEX
  8
0
 62
9
  6
CONTINUOUS
 10
148.2556403319
 20
114.0203531234
  0
SEQEND
  0
POLYLINE
  8
0
 62
9
  6
CONTINUOUS
 66
1
 70
0
  0
VERTEX
  8
0
 62
9
  6
CONTINUOUS
 10
198.8451330336
 20
149.9605831241
  0
VERTEX
  8
0
 62
9
  6
CONTINUOUS
 10
198.8749363566
 20
149.9781491544
  0
VERTEX
  8
0
 62
9
  6
CONTINUOUS
 10
198.9036926277
 20
150.0302301124
  0
VERTEX
  8
0
 62
9
  6
CONTINUOUS
 10
198.9303915818
 20
150.1149962835
  0
VERTEX
  8
0
 62
9
  6
CONTINUOUS
 10
198.9540952302
 20
150.2294696554
  0
VERTEX
  8
0
 62
9
  6
CONTINUOUS
 10
198.9739708144
 20
150.3696285413
  0
VERTEX
  8
0
 62
9
  6
CONTINUOUS
 10
198.9893200656
 20
150.5305488712
  0
VERTEX
  8
0
 62
9
  6
CONTINUOUS
 10
198.9996037336
 20
150.7065771841
  0
VERTEX
  8
0
 62
9
  6
CONTINUOUS
 10
199.0044605303
 20
150.8915292437
  0
SEQEND
  0
LINE
  8
0
 62
9
  6
CONTINUOUS
 10
134.2891262569
 20
121.2894026108
 11
133.3380697406
 21
120.9803856165
  0
LINE
  8
0
 62
9
  6
CONTINUOUS
 10
180.8080111203
 20
136.4043045497
 11
181.7590676366
 21
136.7133215441
  0
POLYLINE
  8
0
 62
9
  6
CONTINUOUS
 66
1
 70
0
  0
VERTEX
  8
0
 62
9
  6
CONTINUOUS
 10
173.105408916
 20
229.1793082923
  0
VERTEX
  8
0
 62
9
  6
CONTINUOUS
 10
173.1409843201
 20
229.1835521362
  0
VERTEX
  8
0
 62
9
  6
CONTINUOUS
 10
173.1930679458
 20
229.157788708
  0
VERTEX
  8
0
 62
9
  6
CONTINUOUS
 10
173.2643258728
 20
229.1054275683
  0
VERTEX
  8
0
 62
9
  6
CONTINUOUS
 10
173.3509291293
 20
229.0264842964
  0
VERTEX
  8
0
 62
9
  6
CONTINUOUS
 10
173.4493566939
 20
228.9248338444
  0
VERTEX
  8
0
 62
9
  6
CONTINUOUS
 10
173.5566143828
 20
228.8034903272
  0
VERTEX
  8
0
 62
9
  6
CONTINUOUS
 10
173.6673647975
 20
228.6651761467
  0
VERTEX
  8
0
 62
9
  6
CONTINUOUS
 10
173.7815039683
 20
228.5198074135
  0
SEQEND
  0
POLYLINE
  8
0
 62
9
  6
CONTINUOUS
 66
1
 70
0
  0
VERTEX
  8
0
 62
9
  6
CONTINUOUS
 10
111.7286074774
 20
229.1793082923
  0
VERTEX
  8
0
 62
9
  6
CONTINUOUS
 10
111.694171029
 20
229.182615029
  0
VERTEX
  8
0
 62
9
  6
CONTINUOUS
 10
111.6402942979
 20
229.157383161
  0
VERTEX
  8
0
 62
9
  6
CONTINUOUS
 10
111.5688700849
 20
229.1044991396
  0
VERTEX
  8
0
 62
9
  6
CONTINUOUS
 10
111.4824076708
 20
229.0258208914
  0
VERTEX
  8
0
 62
9
  6
CONTINUOUS
 10
111.3839446593
 20
228.924112546
  0
VERTEX
  8
0
 62
9
  6
CONTINUOUS
 10
111.2769402575
 20
228.8029473278
  0
VERTEX
  8
0
 62
9
  6
CONTINUOUS
 10
111.1651537491
 20
228.6665820195
  0
VERTEX
  8
0
 62
9
  6
CONTINUOUS
 10
111.0525124251
 20
228.5198074135
  0
SEQEND
  0
LINE
  8
0
 62
9
  6
CONTINUOUS
 10
134.2891262569
 20
229.5446137849
 11
133.3380697406
 21
229.8536307793
  0
LINE
  8
0
 62
9
  6
CONTINUOUS
 10
180.8080111203
 20
214.429711846
 11
181.7590676366
 21
214.1206948516
  0
POLYLINE
  8
0
 62
9
  6
CONTINUOUS
 66
1
 70
0
  0
VERTEX
  8
0
 62
9
  6
CONTINUOUS
 10
198.8451330336
 20
200.8734332717
  0
VERTEX
  8
0
 62
9
  6
CONTINUOUS
 10
198.876408609
 20
200.8559559157
  0
VERTEX
  8
0
 62
9
  6
CONTINUOUS
 10
198.9034017842
 20
200.8044988774
  0
VERTEX
  8
0
 62
9
  6
CONTINUOUS
 10
198.9302735524
 20
200.7202534669
  0
VERTEX
  8
0
 62
9
  6
CONTINUOUS
 10
198.9539353677
 20
200.6054829014
  0
VERTEX
  8
0
 62
9
  6
CONTINUOUS
 10
198.9738163035
 20
200.4653916874
  0
VERTEX
  8
0
 62
9
  6
CONTINUOUS
 10
198.9892656668
 20
200.304178232
  0
VERTEX
  8
0
 62
9
  6
CONTINUOUS
 10
198.997565599
 20
200.127182249
  0
VERTEX
  8
0
 62
9
  6
CONTINUOUS
 10
199.0044605303
 20
199.9424871521
  0
SEQEND
  0
POLYLINE
  8
0
 62
9
  6
CONTINUOUS
 66
1
 70
0
  0
VERTEX
  8
0
 62
9
  6
CONTINUOUS
 10
149.1902576094
 20
236.9498119902
  0
VERTEX
  8
0
 62
9
  6
CONTINUOUS
 10
149.1643415885
 20
236.9727284329
  0
VERTEX
  8
0
 62
9
  6
CONTINUOUS
 10
149.1059234775
 20
236.9839833709
  0
VERTEX
  8
0
 62
9
  6
CONTINUOUS
 10
149.0170556276
 20
236.9831813979
  0
VERTEX
  8
0
 62
9
  6
CONTINUOUS
 10
148.9008601512
 20
236.9703506899
  0
VERTEX
  8
0
 62
9
  6
CONTINUOUS
 10
148.7614192361
 20
236.945942016
  0
VERTEX
  8
0
 62
9
  6
CONTINUOUS
 10
148.6036317283
 20
236.9108129047
  0
VERTEX
  8
0
 62
9
  6
CONTINUOUS
 10
148.4330410261
 20
236.8661975139
  0
VERTEX
  8
0
 62
9
  6
CONTINUOUS
 10
148.2556403319
 20
236.8136632723
  0
SEQEND
  0
LINE
  8
0
 62
9
  6
CONTINUOUS
 10
196.4070738494
 20
184.4132831065
 11
196.9948591017
 21
183.6042661122
  0
LINE
  8
0
 62
9
  6
CONTINUOUS
 10
167.6568218851
 20
223.9846101192
 11
167.0690366328
 21
224.7936271136
  0
POLYLINE
  8
0
 62
9
  6
CONTINUOUS
 66
1
 70
0
  0
VERTEX
  8
0
 62
9
  6
CONTINUOUS
 10
203.031231385
 20
162.844069105
  0
VERTEX
  8
0
 62
9
  6
CONTINUOUS
 10
203.0462609013
 20
162.8115463224
  0
VERTEX
  8
0
 62
9
  6
CONTINUOUS
 10
203.0378531343
 20
162.7540505273
  0
VERTEX
  8
0
 62
9
  6
CONTINUOUS
 10
203.0100746322
 20
162.6700997386
  0
VERTEX
  8
0
 62
9
  6
CONTINUOUS
 10
202.9617569939
 20
162.5633403383
  0
VERTEX
  8
0
 62
9
  6
CONTINUOUS
 10
202.8954974632
 20
162.438318442
  0
VERTEX
  8
0
 62
9
  6
CONTINUOUS
 10
202.813237379
 20
162.2988131002
  0
VERTEX
  8
0
 62
9
  6
CONTINUOUS
 10
202.7159165527
 20
162.1507417503
  0
VERTEX
  8
0
 62
9
  6
CONTINUOUS
 10
202.6129336377
 20
161.9972675205
  0
SEQEND
  0
POLYLINE
  8
0
 62
9
  6
CONTINUOUS
 66
1
 70
0
  0
VERTEX
  8
0
 62
9
  6
CONTINUOUS
 10
184.06475668
 20
221.2168760625
  0
VERTEX
  8
0
 62
9
  6
CONTINUOUS
 10
184.0572601258
 20
221.250648909
  0
VERTEX
  8
0
 62
9
  6
CONTINUOUS
 10
184.0166143678
 20
221.2940916492
  0
VERTEX
  8
0
 62
9
  6
CONTINUOUS
 10
183.944247379
 20
221.345678051
  0
VERTEX
  8
0
 62
9
  6
CONTINUOUS
 10
183.842701563
 20
221.4035957776
  0
VERTEX
  8
0
 62
9
  6
CONTINUOUS
 10
183.7155444345
 20
221.4658100591
  0
VERTEX
  8
0
 62
9
  6
CONTINUOUS
 10
183.5672432856
 20
221.5301351812
  0
VERTEX
  8
0
 62
9
  6
CONTINUOUS
 10
183.4030082396
 20
221.5943112707
  0
VERTEX
  8
0
 62
9
  6
CONTINUOUS
 10
183.2286092109
 20
221.6560836883
  0
SEQEND
  0
POLYLINE
  8
0
 62
7
  6
CONTINUOUS
 66
1
 70
0
  0
VERTEX
  8
0
 62
7
  6
CONTINUOUS
 10
195.5425970542
 20
199.9462257267
  0
VERTEX
  8
0
 62
7
  6
CONTINUOUS
 10
195.543116059
 20
199.9341734015
  0
VERTEX
  8
0
 62
7
  6
CONTINUOUS
 10
195.5445663094
 20
199.9220602438
  0
VERTEX
  8
0
 62
7
  6
CONTINUOUS
 10
195.5469538438
 20
199.9098629683
  0
VERTEX
  8
0
 62
7
  6
CONTINUOUS
 10
195.5502605466
 20
199.8976581943
  0
VERTEX
  8
0
 62
7
  6
CONTINUOUS
 10
195.5544683023
 20
199.8855226771
  0
VERTEX
  8
0
 62
7
  6
CONTINUOUS
 10
195.5595831495
 20
199.8734332717
  0
SEQEND
  0
POLYLINE
  8
0
 62
7
  6
CONTINUOUS
 66
1
 70
0
  0
VERTEX
  8
0
 62
7
  6
CONTINUOUS
 10
195.5425970542
 20
199.9462257267
  0
VERTEX
  8
0
 62
7
  6
CONTINUOUS
 10
195.540022126
 20
200.1309496973
  0
VERTEX
  8
0
 62
7
  6
CONTINUOUS
 10
195.5349608136
 20
200.3065463848
  0
VERTEX
  8
0
 62
7
  6
CONTINUOUS
 10
195.5272589717
 20
200.4668809099
  0
VERTEX
  8
0
 62
7
  6
CONTINUOUS
 10
195.5173790356
 20
200.6063673958
  0
VERTEX
  8
0
 62
7
  6
CONTINUOUS
 10
195.5055657464
 20
200.720162762
  0
VERTEX
  8
0
 62
7
  6
CONTINUOUS
 10
195.4923180414
 20
200.8043420016
  0
VERTEX
  8
0
 62
7
  6
CONTINUOUS
 10
195.4782890029
 20
200.8560171156
  0
VERTEX
  8
0
 62
7
  6
CONTINUOUS
 10
195.4632609367
 20
200.8734332717
  0
SEQEND
  0
POLYLINE
  8
0
 62
7
  6
CONTINUOUS
 66
1
 70
0
  0
VERTEX
  8
0
 62
7
  6
CONTINUOUS
 10
195.5425970683
 20
150.8877906692
  0
VERTEX
  8
0
 62
7
  6
CONTINUOUS
 10
195.5400221399
 20
150.7030666985
  0
VERTEX
  8
0
 62
7
  6
CONTINUOUS
 10
195.5349608269
 20
150.527470011
  0
VERTEX
  8
0
 62
7
  6
CONTINUOUS
 10
195.5272589843
 20
150.3671354858
  0
VERTEX
  8
0
 62
7
  6
CONTINUOUS
 10
195.5173790472
 20
150.227649
  0
VERTEX
  8
0
 62
7
  6
CONTINUOUS
 10
195.5055657568
 20
150.1138536338
  0
VERTEX
  8
0
 62
7
  6
CONTINUOUS
 10
195.4923180505
 20
150.0296743942
  0
VERTEX
  8
0
 62
7
  6
CONTINUOUS
 10
195.4782890106
 20
149.9779992802
  0
VERTEX
  8
0
 62
7
  6
CONTINUOUS
 10
195.4632609429
 20
149.9605831241
  0
SEQEND
  0
POLYLINE
  8
0
 62
7
  6
CONTINUOUS
 66
1
 70
0
  0
VERTEX
  8
0
 62
7
  6
CONTINUOUS
 10
195.5425970683
 20
150.8877906692
  0
VERTEX
  8
0
 62
7
  6
CONTINUOUS
 10
195.5431160644
 20
150.8998429949
  0
VERTEX
  8
0
 62
7
  6
CONTINUOUS
 10
195.5445663095
 20
150.9119561528
  0
VERTEX
  8
0
 62
7
  6
CONTINUOUS
 10
195.546953843
 20
150.9241534282
  0
VERTEX
  8
0
 62
7
  6
CONTINUOUS
 10
195.5502605467
 20
150.9363582019
  0
VERTEX
  8
0
 62
7
  6
CONTINUOUS
 10
195.5544683024
 20
150.9484937188
  0
VERTEX
  8
0
 62
7
  6
CONTINUOUS
 10
195.5595831495
 20
150.9605831241
  0
SEQEND
  0
POLYLINE
  8
0
 62
7
  6
CONTINUOUS
 66
1
 70
0
  0
VERTEX
  8
0
 62
7
  6
CONTINUOUS
 10
199.814424532
 20
164.0351245346
  0
VERTEX
  8
0
 62
7
  6
CONTINUOUS
 10
199.8077603667
 20
164.0250688525
  0
VERTEX
  8
0
 62
7
  6
CONTINUOUS
 10
199.8018137855
 20
164.0144166153
  0
VERTEX
  8
0
 62
7
  6
CONTINUOUS
 10
199.7965759737
 20
164.0031454438
  0
VERTEX
  8
0
 62
7
  6
CONTINUOUS
 10
199.7920773511
 20
163.991327948
  0
VERTEX
  8
0
 62
7
  6
CONTINUOUS
 10
199.7883484175
 20
163.9790368481
  0
VERTEX
  8
0
 62
7
  6
CONTINUOUS
 10
199.7853804405
 20
163.9662498781
  0
SEQEND
  0
POLYLINE
  8
0
 62
7
  6
CONTINUOUS
 66
1
 70
0
  0
VERTEX
  8
0
 62
7
  6
CONTINUOUS
 10
199.814424532
 20
164.0351245346
  0
VERTEX
  8
0
 62
7
  6
CONTINUOUS
 10
199.9209193987
 20
164.186082869
  0
VERTEX
  8
0
 62
7
  6
CONTINUOUS
 10
200.0200378579
 20
164.331118535
  0
VERTEX
  8
0
 62
7
  6
CONTINUOUS
 10
200.1080492121
 20
164.4653589151
  0
VERTEX
  8
0
 62
7
  6
CONTINUOUS
 10
200.1820442828
 20
164.5840131277
  0
VERTEX
  8
0
 62
7
  6
CONTINUOUS
 10
200.2393743784
 20
164.6830191832
  0
VERTEX
  8
0
 62
7
  6
CONTINUOUS
 10
200.2781360861
 20
164.7589084167
  0
VERTEX
  8
0
 62
7
  6
CONTINUOUS
 10
200.2971602366
 20
164.808960516
  0
VERTEX
  8
0
 62
7
  6
CONTINUOUS
 10
200.2952392473
 20
164.8318837492
  0
SEQEND
  0
POLYLINE
  8
0
 62
7
  6
CONTINUOUS
 66
1
 70
0
  0
VERTEX
  8
0
 62
7
  6
CONTINUOUS
 10
170.9786001158
 20
124.3460167008
  0
VERTEX
  8
0
 62
7
  6
CONTINUOUS
 10
170.8679389293
 20
124.1980853742
  0
VERTEX
  8
0
 62
7
  6
CONTINUOUS
 10
170.7606310978
 20
124.0589996349
  0
VERTEX
  8
0
 62
7
  6
CONTINUOUS
 10
170.6601579068
 20
123.9338133088
  0
VERTEX
  8
0
 62
7
  6
CONTINUOUS
 10
170.5701767705
 20
123.8267736526
  0
VERTEX
  8
0
 62
7
  6
CONTINUOUS
 10
170.4937323798
 20
123.7416549454
  0
VERTEX
  8
0
 62
7
  6
CONTINUOUS
 10
170.4335354446
 20
123.6813393164
  0
VERTEX
  8
0
 62
7
  6
CONTINUOUS
 10
170.391811843
 20
123.6477793338
  0
VERTEX
  8
0
 62
7
  6
CONTINUOUS
 10
170.3694169211
 20
123.6425226441
  0
SEQEND
  0
POLYLINE
  8
0
 62
7
  6
CONTINUOUS
 66
1
 70
0
  0
VERTEX
  8
0
 62
7
  6
CONTINUOUS
 10
170.9786001158
 20
124.3460167008
  0
VERTEX
  8
0
 62
7
  6
CONTINUOUS
 10
170.9861041721
 20
124.3554621785
  0
VERTEX
  8
0
 62
7
  6
CONTINUOUS
 10
170.9943973808
 20
124.3644094963
  0
VERTEX
  8
0
 62
7
  6
CONTINUOUS
 10
171.0034983146
 20
124.3728739424
  0
VERTEX
  8
0
 62
7
  6
CONTINUOUS
 10
171.0133472801
 20
124.3808041801
  0
VERTEX
  8
0
 62
7
  6
CONTINUOUS
 10
171.0238845039
 20
124.3881487628
  0
VERTEX
  8
0
 62
7
  6
CONTINUOUS
 10
171.0351284762
 20
124.3949228654
  0
SEQEND
  0
POLYLINE
  8
0
 62
7
  6
CONTINUOUS
 66
1
 70
0
  0
VERTEX
  8
0
 62
7
  6
CONTINUOUS
 10
182.1623901645
 20
132.471515795
  0
VERTEX
  8
0
 62
7
  6
CONTINUOUS
 10
182.1510881003
 20
132.4672978267
  0
VERTEX
  8
0
 62
7
  6
CONTINUOUS
 10
182.1400159529
 20
132.4621753898
  0
VERTEX
  8
0
 62
7
  6
CONTINUOUS
 10
182.1291534431
 20
132.4561355451
  0
VERTEX
  8
0
 62
7
  6
CONTINUOUS
 10
182.1185678412
 20
132.4492192006
  0
VERTEX
  8
0
 62
7
  6
CONTINUOUS
 10
182.1083265467
 20
132.4414673061
  0
VERTEX
  8
0
 62
7
  6
CONTINUOUS
 10
182.0984094137
 20
132.4328669658
  0
SEQEND
  0
POLYLINE
  8
0
 62
7
  6
CONTINUOUS
 66
1
 70
0
  0
VERTEX
  8
0
 62
7
  6
CONTINUOUS
 10
182.1623901645
 20
132.471515795
  0
VERTEX
  8
0
 62
7
  6
CONTINUOUS
 10
182.3372774039
 20
132.5310475434
  0
VERTEX
  8
0
 62
7
  6
CONTINUOUS
 10
182.5027157462
 20
132.5901234983
  0
VERTEX
  8
0
 62
7
  6
CONTINUOUS
 10
182.652822941
 20
132.6469944784
  0
VERTEX
  8
0
 62
7
  6
CONTINUOUS
 10
182.7824294041
 20
132.6994945508
  0
VERTEX
  8
0
 62
7
  6
CONTINUOUS
 10
182.8870047215
 20
132.7458943587
  0
VERTEX
  8
0
 62
7
  6
CONTINUOUS
 10
182.9629701698
 20
132.7845064907
  0
VERTEX
  8
0
 62
7
  6
CONTINUOUS
 10
183.0077809123
 20
132.8138173879
  0
VERTEX
  8
0
 62
7
  6
CONTINUOUS
 10
183.0197007331
 20
132.8334918166
  0
SEQEND
  0
POLYLINE
  8
0
 62
7
  6
CONTINUOUS
 66
1
 70
0
  0
VERTEX
  8
0
 62
7
  6
CONTINUOUS
 10
135.5050458236
 20
117.3116256454
  0
VERTEX
  8
0
 62
7
  6
CONTINUOUS
 10
135.328567191
 20
117.2569917016
  0
VERTEX
  8
0
 62
7
  6
CONTINUOUS
 10
135.1600007853
 20
117.2075429357
  0
VERTEX
  8
0
 62
7
  6
CONTINUOUS
 10
135.0051335901
 20
117.1653217303
  0
VERTEX
  8
0
 62
7
  6
CONTINUOUS
 10
134.8694209904
 20
117.1316144142
  0
VERTEX
  8
0
 62
7
  6
CONTINUOUS
 10
134.7575446583
 20
117.1076848189
  0
VERTEX
  8
0
 62
7
  6
CONTINUOUS
 10
134.6733916776
 20
117.0942713208
  0
VERTEX
  8
0
 62
7
  6
CONTINUOUS
 10
134.6199105119
 20
117.0916452422
  0
VERTEX
  8
0
 62
7
  6
CONTINUOUS
 10
134.5987028349
 20
117.1005558956
  0
SEQEND
  0
POLYLINE
  8
0
 62
7
  6
CONTINUOUS
 66
1
 70
0
  0
VERTEX
  8
0
 62
7
  6
CONTINUOUS
 10
149.3289705742
 20
233.5223907371
  0
VERTEX
  8
0
 62
7
  6
CONTINUOUS
 10
149.3173477504
 20
233.5191599673
  0
VERTEX
  8
0
 62
7
  6
CONTINUOUS
 10
149.3053793007
 20
233.516796066
  0
VERTEX
  8
0
 62
7
  6
CONTINUOUS
 10
149.2930412136
 20
233.5152975808
  0
VERTEX
  8
0
 62
7
  6
CONTINUOUS
 10
149.2804119565
 20
233.5146709594
  0
VERTEX
  8
0
 62
7
  6
CONTINUOUS
 10
149.2675701257
 20
233.5149226919
  0
VERTEX
  8
0
 62
7
  6
CONTINUOUS
 10
149.2544918432
 20
233.5160513689
  0
SEQEND
  0
POLYLINE
  8
0
 62
7
  6
CONTINUOUS
 66
1
 70
0
  0
VERTEX
  8
0
 62
7
  6
CONTINUOUS
 10
135.5050458194
 20
233.5223907379
  0
VERTEX
  8
0
 62
7
  6
CONTINUOUS
 10
135.5166686432
 20
233.5191599676
  0
VERTEX
  8
0
 62
7
  6
CONTINUOUS
 10
135.5286370927
 20
233.516796066
  0
VERTEX
  8
0
 62
7
  6
CONTINUOUS
 10
135.5409751798
 20
233.5152975807
  0
VERTEX
  8
0
 62
7
  6
CONTINUOUS
 10
135.553604437
 20
233.5146709594
  0
VERTEX
  8
0
 62
7
  6
CONTINUOUS
 10
135.5664462677
 20
233.5149226919
  0
VERTEX
  8
0
 62
7
  6
CONTINUOUS
 10
135.5795245503
 20
233.5160513689
  0
SEQEND
  0
POLYLINE
  8
0
 62
7
  6
CONTINUOUS
 66
1
 70
0
  0
VERTEX
  8
0
 62
7
  6
CONTINUOUS
 10
135.5050458194
 20
233.5223907379
  0
VERTEX
  8
0
 62
7
  6
CONTINUOUS
 10
135.328567187
 20
233.5770246819
  0
VERTEX
  8
0
 62
7
  6
CONTINUOUS
 10
135.1600007815
 20
233.6264734483
  0
VERTEX
  8
0
 62
7
  6
CONTINUOUS
 10
135.0051335865
 20
233.6686946544
  0
VERTEX
  8
0
 62
7
  6
CONTINUOUS
 10
134.8694209871
 20
233.7024019714
  0
VERTEX
  8
0
 62
7
  6
CONTINUOUS
 10
134.7575446554
 20
233.7263315678
  0
VERTEX
  8
0
 62
7
  6
CONTINUOUS
 10
134.6733916751
 20
233.7397450673
  0
VERTEX
  8
0
 62
7
  6
CONTINUOUS
 10
134.6199105098
 20
233.7423711472
  0
VERTEX
  8
0
 62
7
  6
CONTINUOUS
 10
134.5987028333
 20
233.7334604951
  0
SEQEND
  0
POLYLINE
  8
0
 62
7
  6
CONTINUOUS
 66
1
 70
0
  0
VERTEX
  8
0
 62
7
  6
CONTINUOUS
 10
182.16239016
 20
218.3625005869
  0
VERTEX
  8
0
 62
7
  6
CONTINUOUS
 10
182.3372773993
 20
218.3029688384
  0
VERTEX
  8
0
 62
7
  6
CONTINUOUS
 10
182.5027157415
 20
218.2438928831
  0
VERTEX
  8
0
 62
7
  6
CONTINUOUS
 10
182.6528229362
 20
218.1870219026
  0
VERTEX
  8
0
 62
7
  6
CONTINUOUS
 10
182.7824293991
 20
218.1345218296
  0
VERTEX
  8
0
 62
7
  6
CONTINUOUS
 10
182.8870047163
 20
218.088122021
  0
VERTEX
  8
0
 62
7
  6
CONTINUOUS
 10
182.9629701643
 20
218.0495098882
  0
VERTEX
  8
0
 62
7
  6
CONTINUOUS
 10
183.0077809066
 20
218.0201989902
  0
VERTEX
  8
0
 62
7
  6
CONTINUOUS
 10
183.0197007271
 20
218.0005245606
  0
SEQEND
  0
POLYLINE
  8
0
 62
7
  6
CONTINUOUS
 66
1
 70
0
  0
VERTEX
  8
0
 62
7
  6
CONTINUOUS
 10
182.16239016
 20
218.3625005869
  0
VERTEX
  8
0
 62
7
  6
CONTINUOUS
 10
182.1510880991
 20
218.3667185636
  0
VERTEX
  8
0
 62
7
  6
CONTINUOUS
 10
182.1400159536
 20
218.3718410055
  0
VERTEX
  8
0
 62
7
  6
CONTINUOUS
 10
182.129153444
 20
218.3778808511
  0
VERTEX
  8
0
 62
7
  6
CONTINUOUS
 10
182.1185678415
 20
218.3847971949
  0
VERTEX
  8
0
 62
7
  6
CONTINUOUS
 10
182.1083265468
 20
218.3925490895
  0
VERTEX
  8
0
 62
7
  6
CONTINUOUS
 10
182.0984094137
 20
218.4011494299
  0
SEQEND
  0
POLYLINE
  8
0
 62
7
  6
CONTINUOUS
 66
1
 70
0
  0
VERTEX
  8
0
 62
7
  6
CONTINUOUS
 10
170.9786001049
 20
226.4879996872
  0
VERTEX
  8
0
 62
7
  6
CONTINUOUS
 10
170.9861041676
 20
226.4785542147
  0
VERTEX
  8
0
 62
7
  6
CONTINUOUS
 10
170.9943973802
 20
226.4696069
  0
VERTEX
  8
0
 62
7
  6
CONTINUOUS
 10
171.0034983148
 20
226.4611424543
  0
VERTEX
  8
0
 62
7
  6
CONTINUOUS
 10
171.0133472797
 20
226.4532122159
  0
VERTEX
  8
0
 62
7
  6
CONTINUOUS
 10
171.0238845037
 20
226.445867633
  0
VERTEX
  8
0
 62
7
  6
CONTINUOUS
 10
171.0351284762
 20
226.4390935303
  0
SEQEND
  0
POLYLINE
  8
0
 62
7
  6
CONTINUOUS
 66
1
 70
0
  0
VERTEX
  8
0
 62
7
  6
CONTINUOUS
 10
170.9786001049
 20
226.4879996872
  0
VERTEX
  8
0
 62
7
  6
CONTINUOUS
 10
170.8679389186
 20
226.6359310138
  0
VERTEX
  8
0
 62
7
  6
CONTINUOUS
 10
170.7606310875
 20
226.7750167534
  0
VERTEX
  8
0
 62
7
  6
CONTINUOUS
 10
170.6601578972
 20
226.9002030799
  0
VERTEX
  8
0
 62
7
  6
CONTINUOUS
 10
170.5701767617
 20
227.0072427367
  0
VERTEX
  8
0
 62
7
  6
CONTINUOUS
 10
170.493732372
 20
227.0923614447
  0
VERTEX
  8
0
 62
7
  6
CONTINUOUS
 10
170.4335354379
 20
227.1526770745
  0
VERTEX
  8
0
 62
7
  6
CONTINUOUS
 10
170.3918118374
 20
227.186237058
  0
VERTEX
  8
0
 62
7
  6
CONTINUOUS
 10
170.3694169168
 20
227.1914937486
  0
SEQEND
  0
POLYLINE
  8
0
 62
7
  6
CONTINUOUS
 66
1
 70
0
  0
VERTEX
  8
0
 62
7
  6
CONTINUOUS
 10
199.8144247404
 20
186.7988920141
  0
VERTEX
  8
0
 62
7
  6
CONTINUOUS
 10
199.9209196052
 20
186.6479336777
  0
VERTEX
  8
0
 62
7
  6
CONTINUOUS
 10
200.0200380603
 20
186.5028980081
  0
VERTEX
  8
0
 62
7
  6
CONTINUOUS
 10
200.108049408
 20
186.368657623
  0
VERTEX
  8
0
 62
7
  6
CONTINUOUS
 10
200.1820444703
 20
186.2500034041
  0
VERTEX
  8
0
 62
7
  6
CONTINUOUS
 10
200.2393745557
 20
186.1509973412
  0
VERTEX
  8
0
 62
7
  6
CONTINUOUS
 10
200.2781362518
 20
186.0751080993
  0
VERTEX
  8
0
 62
7
  6
CONTINUOUS
 10
200.29716039
 20
186.0250559912
  0
VERTEX
  8
0
 62
7
  6
CONTINUOUS
 10
200.2952393876
 20
186.0021327484
  0
SEQEND
  0
POLYLINE
  8
0
 62
7
  6
CONTINUOUS
 66
1
 70
0
  0
VERTEX
  8
0
 62
7
  6
CONTINUOUS
 10
199.8144247404
 20
186.7988920141
  0
VERTEX
  8
0
 62
7
  6
CONTINUOUS
 10
199.8077604399
 20
186.80894761
  0
VERTEX
  8
0
 62
7
  6
CONTINUOUS
 10
199.8018137785
 20
186.8195997942
  0
VERTEX
  8
0
 62
7
  6
CONTINUOUS
 10
199.7965759553
 20
186.8308709544
  0
VERTEX
  8
0
 62
7
  6
CONTINUOUS
 10
199.7920773485
 20
186.8426884553
  0
VERTEX
  8
0
 62
7
  6
CONTINUOUS
 10
199.7883484164
 20
186.8549795516
  0
VERTEX
  8
0
 62
7
  6
CONTINUOUS
 10
199.7853804405
 20
186.8677665176
  0
SEQEND
  0
LINE
  8
1_AXIS
 62
7
  6
CONTINUOUS
 10
294.850760013
 20
112.9170081979
 11
313.761944905
 21
112.9170081979
  0
LINE
  8
0
 62
9
  6
CONTINUOUS
 10
294.850760013
 20
113.1977126715
 11
313.761944905
 21
113.1977126715
  0
LINE
  8
0
 62
9
  6
CONTINUOUS
 10
294.8507585932
 20
113.8842044056
 11
313.7619463249
 21
113.8842044056
  0
POLYLINE
  8
0
 62
9
  6
CONTINUOUS
 66
1
 70
0
  0
VERTEX
  8
0
 62
9
  6
CONTINUOUS
 10
294.850760013
 20
113.1977126715
  0
VERTEX
  8
0
 62
9
  6
CONTINUOUS
 10
294.6771118354
 20
113.212836686
  0
VERTEX
  8
0
 62
9
  6
CONTINUOUS
 10
294.5087398697
 20
113.2577491939
  0
VERTEX
  8
0
 62
9
  6
CONTINUOUS
 10
294.350760013
 20
113.3310855515
  0
VERTEX
  8
0
 62
9
  6
CONTINUOUS
 10
294.2079724033
 20
113.4306174705
  0
VERTEX
  8
0
 62
9
  6
CONTINUOUS
 10
294.0847155699
 20
113.553320724
  0
VERTEX
  8
0
 62
9
  6
CONTINUOUS
 10
293.9847346092
 20
113.6954670357
  0
VERTEX
  8
0
 62
9
  6
CONTINUOUS
 10
293.9110673922
 20
113.852737362
  0
VERTEX
  8
0
 62
9
  6
CONTINUOUS
 10
293.86595226
 20
114.0203531234
  0
SEQEND
  0
POLYLINE
  8
0
 62
7
  6
CONTINUOUS
 66
1
 70
0
  0
VERTEX
  8
0
 62
7
  6
CONTINUOUS
 10
293.405012883
 20
233.6264734483
  0
VERTEX
  8
0
 62
7
  6
CONTINUOUS
 10
293.50147986
 20
233.6686946544
  0
VERTEX
  8
0
 62
7
  6
CONTINUOUS
 10
293.6260528414
 20
233.7024019714
  0
VERTEX
  8
0
 62
7
  6
CONTINUOUS
 10
293.7743288033
 20
233.7263315678
  0
VERTEX
  8
0
 62
7
  6
CONTINUOUS
 10
293.941100578
 20
233.7397450673
  0
VERTEX
  8
0
 62
7
  6
CONTINUOUS
 10
294.1205326816
 20
233.7423711472
  0
VERTEX
  8
0
 62
7
  6
CONTINUOUS
 10
294.306352459
 20
233.7334604951
  0
SEQEND
  0
POLYLINE
  8
0
 62
9
  6
CONTINUOUS
 66
1
 70
0
  0
VERTEX
  8
0
 62
9
  6
CONTINUOUS
 10
294.850760013
 20
113.8842044056
  0
VERTEX
  8
0
 62
9
  6
CONTINUOUS
 10
294.6672631675
 20
113.8598603661
  0
VERTEX
  8
0
 62
9
  6
CONTINUOUS
 10
294.490591177
 20
113.8500894305
  0
VERTEX
  8
0
 62
9
  6
CONTINUOUS
 10
294.3257393956
 20
113.8505661238
  0
VERTEX
  8
0
 62
9
  6
CONTINUOUS
 10
294.1782532165
 20
113.8635284554
  0
VERTEX
  8
0
 62
9
  6
CONTINUOUS
 10
294.0551307967
 20
113.8879111277
  0
VERTEX
  8
0
 62
9
  6
CONTINUOUS
 10
293.9598702538
 20
113.9230356074
  0
VERTEX
  8
0
 62
9
  6
CONTINUOUS
 10
293.8955763817
 20
113.9698366693
  0
VERTEX
  8
0
 62
9
  6
CONTINUOUS
 10
293.86595226
 20
114.0203531234
  0
SEQEND
  0
POLYLINE
  8
0
 62
9
  6
CONTINUOUS
 66
1
 70
0
  0
VERTEX
  8
0
 62
9
  6
CONTINUOUS
 10
313.761944905
 20
113.8842044056
  0
VERTEX
  8
0
 62
9
  6
CONTINUOUS
 10
313.9461601519
 20
113.861287963
  0
VERTEX
  8
0
 62
9
  6
CONTINUOUS
 10
314.123903532
 20
113.8500330251
  0
VERTEX
  8
0
 62
9
  6
CONTINUOUS
 10
314.2889305547
 20
113.8508349982
  0
VERTEX
  8
0
 62
9
  6
CONTINUOUS
 10
314.4354434837
 20
113.8636657062
  0
VERTEX
  8
0
 62
9
  6
CONTINUOUS
 10
314.558295021
 20
113.88807438
  0
VERTEX
  8
0
 62
9
  6
CONTINUOUS
 10
314.6531691423
 20
113.9232034913
  0
VERTEX
  8
0
 62
9
  6
CONTINUOUS
 10
314.7167327271
 20
113.967818882
  0
VERTEX
  8
0
 62
9
  6
CONTINUOUS
 10
314.746752658
 20
114.0203531234
  0
SEQEND
  0
POLYLINE
  8
0
 62
7
  6
CONTINUOUS
 66
1
 70
0
  0
VERTEX
  8
0
 62
7
  6
CONTINUOUS
 10
293.405012883
 20
117.2075429357
  0
VERTEX
  8
0
 62
7
  6
CONTINUOUS
 10
293.50147986
 20
117.1653217303
  0
VERTEX
  8
0
 62
7
  6
CONTINUOUS
 10
293.6260528414
 20
117.1316144142
  0
VERTEX
  8
0
 62
7
  6
CONTINUOUS
 10
293.7743288033
 20
117.107684819
  0
VERTEX
  8
0
 62
7
  6
CONTINUOUS
 10
293.9411005781
 20
117.0942713208
  0
VERTEX
  8
0
 62
7
  6
CONTINUOUS
 10
294.1205326817
 20
117.0916452422
  0
VERTEX
  8
0
 62
7
  6
CONTINUOUS
 10
294.306352459
 20
117.1005558956
  0
SEQEND
  0
POLYLINE
  8
0
 62
7
  6
CONTINUOUS
 66
1
 70
0
  0
VERTEX
  8
0
 62
7
  6
CONTINUOUS
 10
294.5021364948
 20
229.3075541439
  0
VERTEX
  8
0
 62
7
  6
CONTINUOUS
 10
294.3416640944
 20
229.2310010895
  0
VERTEX
  8
0
 62
7
  6
CONTINUOUS
 10
294.1972862739
 20
229.1272404852
  0
VERTEX
  8
0
 62
7
  6
CONTINUOUS
 10
294.0735710443
 20
228.9995585756
  0
VERTEX
  8
0
 62
7
  6
CONTINUOUS
 10
293.9744181463
 20
228.8519809622
  0
SEQEND
  0
POLYLINE
  8
0
 62
9
  6
CONTINUOUS
 66
1
 70
0
  0
VERTEX
  8
0
 62
9
  6
CONTINUOUS
 10
294.5087398697
 20
229.1793938894
  0
VERTEX
  8
0
 62
9
  6
CONTINUOUS
 10
294.350760013
 20
229.1159642796
  0
VERTEX
  8
0
 62
9
  6
CONTINUOUS
 10
294.2079724033
 20
229.0298777737
  0
SEQEND
  0
LINE
  8
0
 62
7
  6
CONTINUOUS
 10
313.9390717467
 20
121.4795370669
 11
314.1105684232
 21
121.5264622518
  0
LINE
  8
0
 62
9
  6
CONTINUOUS
 10
313.9355930827
 20
121.6157770695
 11
314.1039650483
 21
121.6546225064
  0
LINE
  8
0
 62
7
  6
CONTINUOUS
 10
313.761944905
 20
121.4637250979
 11
313.9390717467
 21
121.4795370669
  0
LINE
  8
0
 62
9
  6
CONTINUOUS
 10
313.761944905
 20
121.6026961044
 11
313.9355930827
 21
121.6157770695
  0
LINE
  8
0
 62
9
  6
CONTINUOUS
 10
294.306352459
 20
120.9803856165
 11
314.306352459
 21
120.9803856165
  0
LINE
  8
0
 62
7
  6
CONTINUOUS
 10
313.761944905
 20
121.4637250979
 11
294.850760013
 21
121.4637250979
  0
LINE
  8
0
 62
9
  6
CONTINUOUS
 10
313.761944905
 20
121.6026961044
 11
294.850760013
 21
121.6026961044
  0
POLYLINE
  8
0
 62
9
  6
CONTINUOUS
 66
1
 70
0
  0
VERTEX
  8
0
 62
9
  6
CONTINUOUS
 10
294.5087398697
 20
121.6546225064
  0
VERTEX
  8
0
 62
9
  6
CONTINUOUS
 10
294.6771118354
 20
121.6157770695
  0
VERTEX
  8
0
 62
9
  6
CONTINUOUS
 10
294.850760013
 20
121.6026961044
  0
SEQEND
  0
POLYLINE
  8
0
 62
7
  6
CONTINUOUS
 66
1
 70
0
  0
VERTEX
  8
0
 62
7
  6
CONTINUOUS
 10
294.5011092944
 20
121.5268449695
  0
VERTEX
  8
0
 62
7
  6
CONTINUOUS
 10
294.6602580165
 20
121.482038484
  0
VERTEX
  8
0
 62
7
  6
CONTINUOUS
 10
294.8265947809
 20
121.4640171197
  0
VERTEX
  8
0
 62
7
  6
CONTINUOUS
 10
294.850760013
 20
121.4637253134
  0
SEQEND
  0
POLYLINE
  8
0
 62
9
  6
CONTINUOUS
 66
1
 70
0
  0
VERTEX
  8
0
 62
9
  6
CONTINUOUS
 10
294.2079724033
 20
121.804138622
  0
VERTEX
  8
0
 62
9
  6
CONTINUOUS
 10
294.350760013
 20
121.7180521161
  0
VERTEX
  8
0
 62
9
  6
CONTINUOUS
 10
294.5087398697
 20
121.6546225064
  0
SEQEND
  0
POLYLINE
  8
0
 62
9
  6
CONTINUOUS
 66
1
 70
0
  0
VERTEX
  8
0
 62
9
  6
CONTINUOUS
 10
294.2079724033
 20
229.0298777737
  0
VERTEX
  8
0
 62
9
  6
CONTINUOUS
 10
294.0847155699
 20
228.9237500665
  0
VERTEX
  8
0
 62
9
  6
CONTINUOUS
 10
293.9847346092
 20
228.8008057946
  0
VERTEX
  8
0
 62
9
  6
CONTINUOUS
 10
293.9110673922
 20
228.6647805576
  0
SEQEND
  0
LINE
  8
0
 62
9
  6
CONTINUOUS
 10
294.850760013
 20
128.5583853737
 11
313.761944905
 21
128.5583853737
  0
LINE
  8
0
 62
9
  6
CONTINUOUS
 10
294.8507324711
 20
129.6171403332
 11
313.7619723301
 21
129.6171403332
  0
POLYLINE
  8
0
 62
9
  6
CONTINUOUS
 66
1
 70
0
  0
VERTEX
  8
0
 62
9
  6
CONTINUOUS
 10
294.850760013
 20
128.5583853737
  0
VERTEX
  8
0
 62
9
  6
CONTINUOUS
 10
294.6771118354
 20
128.569775578
  0
VERTEX
  8
0
 62
9
  6
CONTINUOUS
 10
294.5087398697
 20
128.6036001055
  0
VERTEX
  8
0
 62
9
  6
CONTINUOUS
 10
294.350760013
 20
128.6588312148
  0
VERTEX
  8
0
 62
9
  6
CONTINUOUS
 10
294.2079724033
 20
128.7337907368
  0
VERTEX
  8
0
 62
9
  6
CONTINUOUS
 10
294.0847155699
 20
128.8262010643
  0
VERTEX
  8
0
 62
9
  6
CONTINUOUS
 10
293.9847346092
 20
128.9332543563
  0
VERTEX
  8
0
 62
9
  6
CONTINUOUS
 10
293.9110673922
 20
129.0516978526
  0
VERTEX
  8
0
 62
9
  6
CONTINUOUS
 10
293.86595226
 20
129.1779327075
  0
SEQEND
  0
POLYLINE
  8
0
 62
9
  6
CONTINUOUS
 66
1
 70
0
  0
VERTEX
  8
0
 62
9
  6
CONTINUOUS
 10
294.850760013
 20
129.6171403332
  0
VERTEX
  8
0
 62
9
  6
CONTINUOUS
 10
294.6672631637
 20
129.5819947213
  0
VERTEX
  8
0
 62
9
  6
CONTINUOUS
 10
294.4905911733
 20
129.5404216075
  0
VERTEX
  8
0
 62
9
  6
CONTINUOUS
 10
294.3257393911
 20
129.4888317867
  0
VERTEX
  8
0
 62
9
  6
CONTINUOUS
 10
294.1782532106
 20
129.4308620127
  0
VERTEX
  8
0
 62
9
  6
CONTINUOUS
 10
294.0551307902
 20
129.3686635489
  0
VERTEX
  8
0
 62
9
  6
CONTINUOUS
 10
293.9598702475
 20
129.3041526209
  0
VERTEX
  8
0
 62
9
  6
CONTINUOUS
 10
293.8955763776
 20
129.2415641289
  0
VERTEX
  8
0
 62
9
  6
CONTINUOUS
 10
293.86595226
 20
129.1779327075
  0
SEQEND
  0
POLYLINE
  8
0
 62
9
  6
CONTINUOUS
 66
1
 70
0
  0
VERTEX
  8
0
 62
9
  6
CONTINUOUS
 10
313.761944905
 20
129.6171403332
  0
VERTEX
  8
0
 62
9
  6
CONTINUOUS
 10
313.9461601514
 20
129.5833675131
  0
VERTEX
  8
0
 62
9
  6
CONTINUOUS
 10
314.1239035324
 20
129.5399247957
  0
VERTEX
  8
0
 62
9
  6
CONTINUOUS
 10
314.2889305567
 20
129.4883384076
  0
VERTEX
  8
0
 62
9
  6
CONTINUOUS
 10
314.4354434873
 20
129.4304206849
  0
VERTEX
  8
0
 62
9
  6
CONTINUOUS
 10
314.5582950261
 20
129.3682063995
  0
VERTEX
  8
0
 62
9
  6
CONTINUOUS
 10
314.6531691475
 20
129.3038812639
  0
VERTEX
  8
0
 62
9
  6
CONTINUOUS
 10
314.7167327305
 20
129.2397051517
  0
VERTEX
  8
0
 62
9
  6
CONTINUOUS
 10
314.746752658
 20
129.1779327075
  0
SEQEND
  0
POLYLINE
  8
0
 62
9
  6
CONTINUOUS
 66
1
 70
0
  0
VERTEX
  8
0
 62
9
  6
CONTINUOUS
 10
293.9847346092
 20
122.0332106011
  0
VERTEX
  8
0
 62
9
  6
CONTINUOUS
 10
294.0847155699
 20
121.9102663293
  0
VERTEX
  8
0
 62
9
  6
CONTINUOUS
 10
294.2079724033
 20
121.804138622
  0
SEQEND
  0
POLYLINE
  8
0
 62
7
  6
CONTINUOUS
 66
1
 70
0
  0
VERTEX
  8
0
 62
7
  6
CONTINUOUS
 10
294.0125077277
 20
121.918442505
  0
VERTEX
  8
0
 62
7
  6
CONTINUOUS
 10
294.1072546605
 20
121.7949951383
  0
VERTEX
  8
0
 62
7
  6
CONTINUOUS
 10
294.2214467993
 20
121.6865733244
  0
VERTEX
  8
0
 62
7
  6
CONTINUOUS
 10
294.3537020325
 20
121.596007791
  0
VERTEX
  8
0
 62
7
  6
CONTINUOUS
 10
294.5011092944
 20
121.5268449695
  0
SEQEND
  0
POLYLINE
  8
0
 62
7
  6
CONTINUOUS
 66
1
 70
0
  0
VERTEX
  8
0
 62
7
  6
CONTINUOUS
 10
293.3090053487
 20
233.5223907379
  0
VERTEX
  8
0
 62
7
  6
CONTINUOUS
 10
293.3400785379
 20
233.5770246819
  0
VERTEX
  8
0
 62
7
  6
CONTINUOUS
 10
293.405012883
 20
233.6264734483
  0
SEQEND
  0
LINE
  8
0
 62
9
  6
CONTINUOUS
 10
294.306352459
 20
136.7133215441
 11
314.306352459
 21
136.7133215441
  0
POLYLINE
  8
0
 62
7
  6
CONTINUOUS
 66
1
 70
0
  0
VERTEX
  8
0
 62
7
  6
CONTINUOUS
 10
293.3090053487
 20
117.3116256454
  0
VERTEX
  8
0
 62
7
  6
CONTINUOUS
 10
293.3400785379
 20
117.2569917016
  0
VERTEX
  8
0
 62
7
  6
CONTINUOUS
 10
293.405012883
 20
117.2075429357
  0
SEQEND
  0
POLYLINE
  8
0
 62
7
  6
CONTINUOUS
 66
1
 70
0
  0
VERTEX
  8
0
 62
7
  6
CONTINUOUS
 10
293.9744181463
 20
228.8519809622
  0
VERTEX
  8
0
 62
7
  6
CONTINUOUS
 10
293.9029646949
 20
228.6891706178
  0
VERTEX
  8
0
 62
7
  6
CONTINUOUS
 10
293.8856476706
 20
228.6321274153
  0
SEQEND
  0
POLYLINE
  8
0
 62
7
  6
CONTINUOUS
 66
1
 70
0
  0
VERTEX
  8
0
 62
7
  6
CONTINUOUS
 10
315.207692035
 20
218.2438928845
  0
VERTEX
  8
0
 62
7
  6
CONTINUOUS
 10
315.111225058
 20
218.1870219045
  0
VERTEX
  8
0
 62
7
  6
CONTINUOUS
 10
314.9866520766
 20
218.1345218323
  0
VERTEX
  8
0
 62
7
  6
CONTINUOUS
 10
314.8383761147
 20
218.0881220246
  0
VERTEX
  8
0
 62
7
  6
CONTINUOUS
 10
314.67160434
 20
218.0495098928
  0
VERTEX
  8
0
 62
7
  6
CONTINUOUS
 10
314.4921722364
 20
218.0201989959
  0
VERTEX
  8
0
 62
7
  6
CONTINUOUS
 10
314.306352459
 20
218.0005245675
  0
SEQEND
  0
LINE
  8
0
 62
9
  6
CONTINUOUS
 10
294.306352459
 20
142.6712648925
 11
314.306352459
 21
142.6712648925
  0
LINE
  8
1_AXIS
 62
7
  6
CONTINUOUS
 10
286.156352459
 20
142.9170081979
 11
293.306352459
 21
142.9170081979
  0
LINE
  8
1_AXIS
 62
7
  6
CONTINUOUS
 10
315.306352459
 20
142.9170081979
 11
322.456352459
 21
142.9170081979
  0
POLYLINE
  8
0
 62
7
  6
CONTINUOUS
 66
1
 70
0
  0
VERTEX
  8
0
 62
7
  6
CONTINUOUS
 10
315.2076920349
 20
132.5901237178
  0
VERTEX
  8
0
 62
7
  6
CONTINUOUS
 10
315.111225058
 20
132.6469946912
  0
VERTEX
  8
0
 62
7
  6
CONTINUOUS
 10
314.9866520768
 20
132.6994947549
  0
VERTEX
  8
0
 62
7
  6
CONTINUOUS
 10
314.838376115
 20
132.7458945525
  0
VERTEX
  8
0
 62
7
  6
CONTINUOUS
 10
314.6716043402
 20
132.784506673
  0
VERTEX
  8
0
 62
7
  6
CONTINUOUS
 10
314.4921722365
 20
132.8138175579
  0
VERTEX
  8
0
 62
7
  6
CONTINUOUS
 10
314.306352459
 20
132.8334919734
  0
SEQEND
  0
POLYLINE
  8
0
 62
9
  6
CONTINUOUS
 66
1
 70
0
  0
VERTEX
  8
0
 62
9
  6
CONTINUOUS
 10
293.86595226
 20
236.8136632723
  0
VERTEX
  8
0
 62
9
  6
CONTINUOUS
 10
293.9110673922
 20
236.9812790338
  0
VERTEX
  8
0
 62
9
  6
CONTINUOUS
 10
293.9847346092
 20
237.13854936
  0
VERTEX
  8
0
 62
9
  6
CONTINUOUS
 10
294.0847155699
 20
237.2806956718
  0
VERTEX
  8
0
 62
9
  6
CONTINUOUS
 10
294.2079724033
 20
237.4033989253
  0
VERTEX
  8
0
 62
9
  6
CONTINUOUS
 10
294.350760013
 20
237.5029308443
  0
VERTEX
  8
0
 62
9
  6
CONTINUOUS
 10
294.5087398697
 20
237.5762672018
  0
VERTEX
  8
0
 62
9
  6
CONTINUOUS
 10
294.6771118354
 20
237.6211797097
  0
VERTEX
  8
0
 62
9
  6
CONTINUOUS
 10
294.850760013
 20
237.6363037242
  0
SEQEND
  0
POLYLINE
  8
0
 62
9
  6
CONTINUOUS
 66
1
 70
0
  0
VERTEX
  8
0
 62
9
  6
CONTINUOUS
 10
293.306352459
 20
229.5446137849
  0
VERTEX
  8
0
 62
9
  6
CONTINUOUS
 10
293.3255671786
 20
229.6049000099
  0
VERTEX
  8
0
 62
9
  6
CONTINUOUS
 10
293.3824729265
 20
229.662869469
  0
VERTEX
  8
0
 62
9
  6
CONTINUOUS
 10
293.4748828467
 20
229.7162944285
  0
VERTEX
  8
0
 62
9
  6
CONTINUOUS
 10
293.5992456778
 20
229.7631217972
  0
VERTEX
  8
0
 62
9
  6
CONTINUOUS
 10
293.750782226
 20
229.8015520254
  0
VERTEX
  8
0
 62
9
  6
CONTINUOUS
 10
293.9236690267
 20
229.8301082612
  0
VERTEX
  8
0
 62
9
  6
CONTINUOUS
 10
294.111262137
 20
229.8476931044
  0
VERTEX
  8
0
 62
9
  6
CONTINUOUS
 10
294.306352459
 20
229.8536307793
  0
SEQEND
  0
POLYLINE
  8
0
 62
9
  6
CONTINUOUS
 66
1
 70
0
  0
VERTEX
  8
0
 62
9
  6
CONTINUOUS
 10
313.761944905
 20
149.9605831241
  0
VERTEX
  8
0
 62
9
  6
CONTINUOUS
 10
313.9454417506
 20
149.9780604801
  0
VERTEX
  8
0
 62
9
  6
CONTINUOUS
 10
314.1221137412
 20
150.0295175184
  0
VERTEX
  8
0
 62
9
  6
CONTINUOUS
 10
314.2869655227
 20
150.1137629289
  0
VERTEX
  8
0
 62
9
  6
CONTINUOUS
 10
314.4344517019
 20
150.2285334944
  0
VERTEX
  8
0
 62
9
  6
CONTINUOUS
 10
314.5575741215
 20
150.3686247084
  0
VERTEX
  8
0
 62
9
  6
CONTINUOUS
 10
314.6528346643
 20
150.5298381638
  0
VERTEX
  8
0
 62
9
  6
CONTINUOUS
 10
314.7171285363
 20
150.7068341468
  0
VERTEX
  8
0
 62
9
  6
CONTINUOUS
 10
314.746752658
 20
150.8915292437
  0
SEQEND
  0
LINE
  8
0
 62
9
  6
CONTINUOUS
 10
294.306352459
 20
147.0695795142
 11
314.306352459
 21
147.0695795142
  0
POLYLINE
  8
0
 62
9
  6
CONTINUOUS
 66
1
 70
0
  0
VERTEX
  8
0
 62
9
  6
CONTINUOUS
 10
294.850760013
 20
149.9605831241
  0
VERTEX
  8
0
 62
9
  6
CONTINUOUS
 10
294.6665447657
 20
149.9781491545
  0
VERTEX
  8
0
 62
9
  6
CONTINUOUS
 10
294.4888013853
 20
150.0302301127
  0
VERTEX
  8
0
 62
9
  6
CONTINUOUS
 10
294.3237743626
 20
150.1149962841
  0
VERTEX
  8
0
 62
9
  6
CONTINUOUS
 10
294.1772614337
 20
150.229469656
  0
VERTEX
  8
0
 62
9
  6
CONTINUOUS
 10
294.0544098966
 20
150.369628542
  0
VERTEX
  8
0
 62
9
  6
CONTINUOUS
 10
293.9595357755
 20
150.5305488718
  0
VERTEX
  8
0
 62
9
  6
CONTINUOUS
 10
293.8959721908
 20
150.7065771845
  0
VERTEX
  8
0
 62
9
  6
CONTINUOUS
 10
293.86595226
 20
150.8915292437
  0
SEQEND
  0
POLYLINE
  8
0
 62
7
  6
CONTINUOUS
 66
1
 70
0
  0
VERTEX
  8
0
 62
7
  6
CONTINUOUS
 10
293.8866152137
 20
122.1983483732
  0
VERTEX
  8
0
 62
7
  6
CONTINUOUS
 10
293.9382849162
 20
122.054597346
  0
VERTEX
  8
0
 62
7
  6
CONTINUOUS
 10
294.0125077277
 20
121.918442505
  0
SEQEND
  0
POLYLINE
  8
0
 62
9
  6
CONTINUOUS
 66
1
 70
0
  0
VERTEX
  8
0
 62
9
  6
CONTINUOUS
 10
293.306352459
 20
121.2894026108
  0
VERTEX
  8
0
 62
9
  6
CONTINUOUS
 10
293.3255671788
 20
121.2291163855
  0
VERTEX
  8
0
 62
9
  6
CONTINUOUS
 10
293.3824729273
 20
121.1711469262
  0
VERTEX
  8
0
 62
9
  6
CONTINUOUS
 10
293.474882848
 20
121.1177219666
  0
VERTEX
  8
0
 62
9
  6
CONTINUOUS
 10
293.5992456795
 20
121.0708945981
  0
VERTEX
  8
0
 62
9
  6
CONTINUOUS
 10
293.7507822277
 20
121.03246437
  0
VERTEX
  8
0
 62
9
  6
CONTINUOUS
 10
293.9236690281
 20
121.0039081343
  0
VERTEX
  8
0
 62
9
  6
CONTINUOUS
 10
294.1112621379
 20
120.9863232913
  0
VERTEX
  8
0
 62
9
  6
CONTINUOUS
 10
294.306352459
 20
120.9803856165
  0
SEQEND
  0
POLYLINE
  8
0
 62
7
  6
CONTINUOUS
 66
1
 70
0
  0
VERTEX
  8
0
 62
7
  6
CONTINUOUS
 10
293.3090053487
 20
233.5223907379
  0
VERTEX
  8
0
 62
7
  6
CONTINUOUS
 10
293.3081988453
 20
233.5191599676
  0
VERTEX
  8
0
 62
7
  6
CONTINUOUS
 10
293.30753545
 20
233.516796066
  0
VERTEX
  8
0
 62
7
  6
CONTINUOUS
 10
293.3070162407
 20
233.5152975807
  0
VERTEX
  8
0
 62
7
  6
CONTINUOUS
 10
293.3066459255
 20
233.5146709594
  0
VERTEX
  8
0
 62
7
  6
CONTINUOUS
 10
293.3064255385
 20
233.5149226919
  0
VERTEX
  8
0
 62
7
  6
CONTINUOUS
 10
293.306352459
 20
233.5160513689
  0
SEQEND
  0
LINE
  8
0
 62
7
  6
CONTINUOUS
 10
293.8861305926
 20
228.6338979536
 11
293.3292126065
 21
226.6001596611
  0
LINE
  8
0
 62
9
  6
CONTINUOUS
 10
293.3090039004
 20
226.4879782527
 11
293.86595226
 21
228.5198049072
  0
LINE
  8
0
 62
9
  6
CONTINUOUS
 10
293.9110673922
 20
228.6647805576
 11
293.86595226
 21
228.5198074135
  0
POLYLINE
  8
0
 62
9
  6
CONTINUOUS
 66
1
 70
0
  0
VERTEX
  8
0
 62
9
  6
CONTINUOUS
 10
293.86595226
 20
221.6560836883
  0
VERTEX
  8
0
 62
9
  6
CONTINUOUS
 10
293.9110673922
 20
221.7823185432
  0
VERTEX
  8
0
 62
9
  6
CONTINUOUS
 10
293.9847346092
 20
221.9007620395
  0
VERTEX
  8
0
 62
9
  6
CONTINUOUS
 10
294.0847155699
 20
222.0078153314
  0
VERTEX
  8
0
 62
9
  6
CONTINUOUS
 10
294.2079724033
 20
222.1002256589
  0
VERTEX
  8
0
 62
9
  6
CONTINUOUS
 10
294.350760013
 20
222.1751851809
  0
VERTEX
  8
0
 62
9
  6
CONTINUOUS
 10
294.5087398697
 20
222.2304162903
  0
VERTEX
  8
0
 62
9
  6
CONTINUOUS
 10
294.6771118354
 20
222.2642408177
  0
VERTEX
  8
0
 62
9
  6
CONTINUOUS
 10
294.850760013
 20
222.2756310221
  0
SEQEND
  0
POLYLINE
  8
0
 62
9
  6
CONTINUOUS
 66
1
 70
0
  0
VERTEX
  8
0
 62
9
  6
CONTINUOUS
 10
313.761944905
 20
150.5629176757
  0
VERTEX
  8
0
 62
9
  6
CONTINUOUS
 10
313.9355930827
 20
150.5689591074
  0
VERTEX
  8
0
 62
9
  6
CONTINUOUS
 10
314.1039650483
 20
150.5868998367
  0
VERTEX
  8
0
 62
9
  6
CONTINUOUS
 10
314.261944905
 20
150.6161947436
  0
VERTEX
  8
0
 62
9
  6
CONTINUOUS
 10
314.4047325147
 20
150.6559537172
  0
VERTEX
  8
0
 62
9
  6
CONTINUOUS
 10
314.5279893481
 20
150.7049687011
  0
VERTEX
  8
0
 62
9
  6
CONTINUOUS
 10
314.6279703088
 20
150.7617503999
  0
VERTEX
  8
0
 62
9
  6
CONTINUOUS
 10
314.7016375258
 20
150.8245735304
  0
VERTEX
  8
0
 62
9
  6
CONTINUOUS
 10
314.746752658
 20
150.8915292437
  0
SEQEND
  0
LINE
  8
0
 62
9
  6
CONTINUOUS
 10
293.86595226
 20
150.8915380067
 11
293.3090054533
 21
150.8877933047
  0
LINE
  8
0
 62
7
  6
CONTINUOUS
 10
314.306352459
 20
149.9605831241
 11
294.306352459
 21
149.9605831241
  0
LINE
  8
0
 62
9
  6
CONTINUOUS
 10
313.761944905
 20
150.5629176757
 11
294.850760013
 21
150.5629176757
  0
LINE
  8
0
 62
9
  6
CONTINUOUS
 10
315.3036994647
 20
150.8877933047
 11
314.746752658
 21
150.8915380067
  0
POLYLINE
  8
0
 62
9
  6
CONTINUOUS
 66
1
 70
0
  0
VERTEX
  8
0
 62
9
  6
CONTINUOUS
 10
293.86595226
 20
150.8915292437
  0
VERTEX
  8
0
 62
9
  6
CONTINUOUS
 10
293.9110673922
 20
150.8245735304
  0
VERTEX
  8
0
 62
9
  6
CONTINUOUS
 10
293.9847346092
 20
150.7617503999
  0
VERTEX
  8
0
 62
9
  6
CONTINUOUS
 10
294.0847155699
 20
150.7049687011
  0
VERTEX
  8
0
 62
9
  6
CONTINUOUS
 10
294.2079724033
 20
150.6559537172
  0
VERTEX
  8
0
 62
9
  6
CONTINUOUS
 10
294.350760013
 20
150.6161947436
  0
VERTEX
  8
0
 62
9
  6
CONTINUOUS
 10
294.5087398697
 20
150.5868998367
  0
VERTEX
  8
0
 62
9
  6
CONTINUOUS
 10
294.6771118354
 20
150.5689591074
  0
VERTEX
  8
0
 62
9
  6
CONTINUOUS
 10
294.850760013
 20
150.5629176757
  0
SEQEND
  0
POLYLINE
  8
0
 62
9
  6
CONTINUOUS
 66
1
 70
0
  0
VERTEX
  8
0
 62
9
  6
CONTINUOUS
 10
293.86595226
 20
122.3142089822
  0
VERTEX
  8
0
 62
9
  6
CONTINUOUS
 10
293.9110673922
 20
122.1692358381
  0
VERTEX
  8
0
 62
9
  6
CONTINUOUS
 10
293.9847346092
 20
122.0332106011
  0
SEQEND
  0
LINE
  8
0
 62
9
  6
CONTINUOUS
 10
293.86595226
 20
122.3142168365
 11
293.3090060615
 21
124.3460111313
  0
LINE
  8
0
 62
7
  6
CONTINUOUS
 10
293.3292126034
 20
124.2338567364
 11
293.8866150447
 21
122.1983482866
  0
POLYLINE
  8
0
 62
7
  6
CONTINUOUS
 66
1
 70
0
  0
VERTEX
  8
0
 62
7
  6
CONTINUOUS
 10
293.3090053487
 20
117.3116256454
  0
VERTEX
  8
0
 62
7
  6
CONTINUOUS
 10
293.3081988452
 20
117.3148564236
  0
VERTEX
  8
0
 62
7
  6
CONTINUOUS
 10
293.3075354499
 20
117.3172203298
  0
VERTEX
  8
0
 62
7
  6
CONTINUOUS
 10
293.3070162407
 20
117.3187188159
  0
VERTEX
  8
0
 62
7
  6
CONTINUOUS
 10
293.3066459255
 20
117.3193454363
  0
VERTEX
  8
0
 62
7
  6
CONTINUOUS
 10
293.3064255385
 20
117.3190937039
  0
VERTEX
  8
0
 62
7
  6
CONTINUOUS
 10
293.306352459
 20
117.3179650269
  0
SEQEND
  0
LINE
  8
1_AXIS
 62
7
  6
CONTINUOUS
 10
283.156352459
 20
204.9170081979
 11
283.156352459
 21
145.9170081979
  0
LINE
  8
1_AXIS
 62
9
  6
CONTINUOUS
 10
286.156352459
 20
142.9170081979
 11
286.156352459
 21
207.9170081979
  0
LINE
  8
0
 62
9
  6
CONTINUOUS
 10
293.86595226
 20
236.8136637405
 11
293.3090038733
 21
233.5223840861
  0
LINE
  8
0
 62
9
  6
CONTINUOUS
 10
294.8507588922
 20
236.9498119902
 11
294.306352459
 21
233.7334653069
  0
LINE
  8
0
 62
9
  6
CONTINUOUS
 10
293.86595226
 20
221.656086961
 11
293.3090038733
 21
218.3625115984
  0
LINE
  8
0
 62
9
  6
CONTINUOUS
 10
293.8856476706
 20
228.6321274153
 11
293.86595226
 21
228.5198074135
  0
LINE
  8
1_AXIS
 62
7
  6
CONTINUOUS
 10
293.306352459
 20
233.9170081979
 11
293.86595226
 21
237.0906563755
  0
LINE
  8
0
 62
7
  6
CONTINUOUS
 10
293.3090053487
 20
226.4879996867
 11
293.3292122349
 21
226.6000981596
  0
LINE
  8
0
 62
7
  6
CONTINUOUS
 10
293.3090053487
 20
124.3460166994
 11
293.3292122318
 21
124.2339182378
  0
LINE
  8
0
 62
9
  6
CONTINUOUS
 10
293.8866152137
 20
122.1983483732
 11
293.86595226
 21
122.3142089822
  0
LINE
  8
1_AXIS
 62
7
  6
CONTINUOUS
 10
293.306352459
 20
116.9170081979
 11
293.86595226
 21
113.7433600202
  0
LINE
  8
0
 62
9
  6
CONTINUOUS
 10
294.306352459
 20
117.1005589156
 11
294.8507585932
 21
113.8842044056
  0
LINE
  8
0
 62
9
  6
CONTINUOUS
 10
293.3090058902
 20
117.3116246367
 11
293.86595226
 21
114.0203517736
  0
LINE
  8
0
 62
9
  6
CONTINUOUS
 10
293.3089814291
 20
132.4713625404
 11
293.86595226
 21
129.1773959982
  0
POLYLINE
  8
0
 62
7
  6
CONTINUOUS
 66
1
 70
0
  0
VERTEX
  8
0
 62
7
  6
CONTINUOUS
 10
293.3090053487
 20
124.3460166994
  0
VERTEX
  8
0
 62
7
  6
CONTINUOUS
 10
293.3081988452
 20
124.3554621781
  0
VERTEX
  8
0
 62
7
  6
CONTINUOUS
 10
293.3075354499
 20
124.3644094963
  0
VERTEX
  8
0
 62
7
  6
CONTINUOUS
 10
293.3070162407
 20
124.3728739425
  0
VERTEX
  8
0
 62
7
  6
CONTINUOUS
 10
293.3066459255
 20
124.3808041801
  0
VERTEX
  8
0
 62
7
  6
CONTINUOUS
 10
293.3064255385
 20
124.3881487628
  0
VERTEX
  8
0
 62
7
  6
CONTINUOUS
 10
293.306352459
 20
124.3949228654
  0
SEQEND
  0
POLYLINE
  8
0
 62
7
  6
CONTINUOUS
 66
1
 70
0
  0
VERTEX
  8
0
 62
7
  6
CONTINUOUS
 10
293.3090053487
 20
226.4879996867
  0
VERTEX
  8
0
 62
7
  6
CONTINUOUS
 10
293.3081988453
 20
226.4785542145
  0
VERTEX
  8
0
 62
7
  6
CONTINUOUS
 10
293.30753545
 20
226.4696069
  0
VERTEX
  8
0
 62
7
  6
CONTINUOUS
 10
293.3070162407
 20
226.4611424544
  0
VERTEX
  8
0
 62
7
  6
CONTINUOUS
 10
293.3066459255
 20
226.4532122159
  0
VERTEX
  8
0
 62
7
  6
CONTINUOUS
 10
293.3064255385
 20
226.445867633
  0
VERTEX
  8
0
 62
7
  6
CONTINUOUS
 10
293.306352459
 20
226.4390935303
  0
SEQEND
  0
POLYLINE
  8
0
 62
9
  6
CONTINUOUS
 66
1
 70
0
  0
VERTEX
  8
0
 62
9
  6
CONTINUOUS
 10
293.306352459
 20
207.5335097026
  0
VERTEX
  8
0
 62
9
  6
CONTINUOUS
 10
293.3255671788
 20
207.6562686889
  0
VERTEX
  8
0
 62
9
  6
CONTINUOUS
 10
293.3824729273
 20
207.7743101158
  0
VERTEX
  8
0
 62
9
  6
CONTINUOUS
 10
293.474882848
 20
207.8830977177
  0
VERTEX
  8
0
 62
9
  6
CONTINUOUS
 10
293.5992456795
 20
207.9784508479
  0
VERTEX
  8
0
 62
9
  6
CONTINUOUS
 10
293.7507822277
 20
208.0567051394
  0
VERTEX
  8
0
 62
9
  6
CONTINUOUS
 10
293.9236690281
 20
208.1148533236
  0
VERTEX
  8
0
 62
9
  6
CONTINUOUS
 10
294.1112621379
 20
208.1506607986
  0
VERTEX
  8
0
 62
9
  6
CONTINUOUS
 10
294.306352459
 20
208.1627515033
  0
SEQEND
  0
LINE
  8
0
 62
9
  6
CONTINUOUS
 10
294.8507588922
 20
221.2168760625
 11
294.306352459
 21
218.0005293792
  0
POLYLINE
  8
0
 62
9
  6
CONTINUOUS
 66
1
 70
0
  0
VERTEX
  8
0
 62
9
  6
CONTINUOUS
 10
293.306352459
 20
203.2197130406
  0
VERTEX
  8
0
 62
9
  6
CONTINUOUS
 10
293.3255671752
 20
203.3259833808
  0
VERTEX
  8
0
 62
9
  6
CONTINUOUS
 10
293.3824729154
 20
203.4281698152
  0
VERTEX
  8
0
 62
9
  6
CONTINUOUS
 10
293.4748828276
 20
203.5223453763
  0
VERTEX
  8
0
 62
9
  6
CONTINUOUS
 10
293.5992456533
 20
203.6048909491
  0
VERTEX
  8
0
 62
9
  6
CONTINUOUS
 10
293.7507822009
 20
203.6726343523
  0
VERTEX
  8
0
 62
9
  6
CONTINUOUS
 10
293.9236690061
 20
203.7229722435
  0
VERTEX
  8
0
 62
9
  6
CONTINUOUS
 10
294.1112621249
 20
203.7539701644
  0
VERTEX
  8
0
 62
9
  6
CONTINUOUS
 10
294.306352459
 20
203.7644368816
  0
SEQEND
  0
LINE
  8
0
 62
9
  6
CONTINUOUS
 10
293.86595226
 20
188.8367537024
 11
293.3090038733
 21
186.7989164757
  0
POLYLINE
  8
0
 62
9
  6
CONTINUOUS
 66
1
 70
0
  0
VERTEX
  8
0
 62
9
  6
CONTINUOUS
 10
293.86595226
 20
188.8367488752
  0
VERTEX
  8
0
 62
9
  6
CONTINUOUS
 10
293.9110673922
 20
188.8733853996
  0
VERTEX
  8
0
 62
9
  6
CONTINUOUS
 10
293.9847346092
 20
188.9077606761
  0
VERTEX
  8
0
 62
9
  6
CONTINUOUS
 10
294.0847155699
 20
188.9388302293
  0
VERTEX
  8
0
 62
9
  6
CONTINUOUS
 10
294.2079724033
 20
188.9656500266
  0
VERTEX
  8
0
 62
9
  6
CONTINUOUS
 10
294.350760013
 20
188.987405162
  0
VERTEX
  8
0
 62
9
  6
CONTINUOUS
 10
294.5087398697
 20
189.0034346167
  0
VERTEX
  8
0
 62
9
  6
CONTINUOUS
 10
294.6771118354
 20
189.0132513438
  0
VERTEX
  8
0
 62
9
  6
CONTINUOUS
 10
294.850760013
 20
189.0165570671
  0
SEQEND
  0
LINE
  8
0
 62
9
  6
CONTINUOUS
 10
294.850760013
 20
161.8174593287
 11
313.761944905
 21
161.8174593287
  0
POLYLINE
  8
0
 62
9
  6
CONTINUOUS
 66
1
 70
0
  0
VERTEX
  8
0
 62
9
  6
CONTINUOUS
 10
294.850760013
 20
161.8174593287
  0
VERTEX
  8
0
 62
9
  6
CONTINUOUS
 10
294.6771118354
 20
161.820765052
  0
VERTEX
  8
0
 62
9
  6
CONTINUOUS
 10
294.5087398697
 20
161.8305817791
  0
VERTEX
  8
0
 62
9
  6
CONTINUOUS
 10
294.350760013
 20
161.8466112338
  0
VERTEX
  8
0
 62
9
  6
CONTINUOUS
 10
294.2079724033
 20
161.8683663691
  0
VERTEX
  8
0
 62
9
  6
CONTINUOUS
 10
294.0847155699
 20
161.8951861664
  0
VERTEX
  8
0
 62
9
  6
CONTINUOUS
 10
293.9847346092
 20
161.9262557196
  0
VERTEX
  8
0
 62
9
  6
CONTINUOUS
 10
293.9110673922
 20
161.9606309961
  0
VERTEX
  8
0
 62
9
  6
CONTINUOUS
 10
293.86595226
 20
161.9972675205
  0
SEQEND
  0
LINE
  8
0
 62
9
  6
CONTINUOUS
 10
293.3090039004
 20
164.035100303
 11
293.86595226
 21
161.9972627102
  0
POLYLINE
  8
0
 62
9
  6
CONTINUOUS
 66
1
 70
0
  0
VERTEX
  8
0
 62
9
  6
CONTINUOUS
 10
293.306352459
 20
147.6143033552
  0
VERTEX
  8
0
 62
9
  6
CONTINUOUS
 10
293.3255671788
 20
147.508033005
  0
VERTEX
  8
0
 62
9
  6
CONTINUOUS
 10
293.3824729273
 20
147.405846565
  0
VERTEX
  8
0
 62
9
  6
CONTINUOUS
 10
293.474882848
 20
147.3116710028
  0
VERTEX
  8
0
 62
9
  6
CONTINUOUS
 10
293.5992456795
 20
147.2291254324
  0
VERTEX
  8
0
 62
9
  6
CONTINUOUS
 10
293.7507822277
 20
147.1613820337
  0
VERTEX
  8
0
 62
9
  6
CONTINUOUS
 10
293.9236690281
 20
147.1110441473
  0
VERTEX
  8
0
 62
9
  6
CONTINUOUS
 10
294.1112621379
 20
147.08004623
  0
VERTEX
  8
0
 62
9
  6
CONTINUOUS
 10
294.306352459
 20
147.0695795142
  0
SEQEND
  0
LINE
  8
0
 62
9
  6
CONTINUOUS
 10
294.306352459
 20
132.8334087855
 11
294.8507324711
 21
129.6171403332
  0
POLYLINE
  8
0
 62
9
  6
CONTINUOUS
 66
1
 70
0
  0
VERTEX
  8
0
 62
9
  6
CONTINUOUS
 10
293.306352459
 20
143.3005066931
  0
VERTEX
  8
0
 62
9
  6
CONTINUOUS
 10
293.3255671752
 20
143.1777477184
  0
VERTEX
  8
0
 62
9
  6
CONTINUOUS
 10
293.3824729154
 20
143.0597062979
  0
VERTEX
  8
0
 62
9
  6
CONTINUOUS
 10
293.4748828276
 20
142.9509186973
  0
VERTEX
  8
0
 62
9
  6
CONTINUOUS
 10
293.5992456533
 20
142.8555655643
  0
VERTEX
  8
0
 62
9
  6
CONTINUOUS
 10
293.7507822009
 20
142.7773112677
  0
VERTEX
  8
0
 62
9
  6
CONTINUOUS
 10
293.9236690061
 20
142.7191630779
  0
VERTEX
  8
0
 62
9
  6
CONTINUOUS
 10
294.1112621249
 20
142.6833555988
  0
VERTEX
  8
0
 62
9
  6
CONTINUOUS
 10
294.306352459
 20
142.6712648925
  0
SEQEND
  0
POLYLINE
  8
0
 62
7
  6
CONTINUOUS
 66
1
 70
0
  0
VERTEX
  8
0
 62
7
  6
CONTINUOUS
 10
293.3090053487
 20
186.7988920081
  0
VERTEX
  8
0
 62
7
  6
CONTINUOUS
 10
293.3081988453
 20
186.8089476074
  0
VERTEX
  8
0
 62
7
  6
CONTINUOUS
 10
293.30753545
 20
186.8195997936
  0
VERTEX
  8
0
 62
7
  6
CONTINUOUS
 10
293.3070162407
 20
186.8308709543
  0
VERTEX
  8
0
 62
7
  6
CONTINUOUS
 10
293.3066459255
 20
186.842688455
  0
VERTEX
  8
0
 62
7
  6
CONTINUOUS
 10
293.3064255385
 20
186.8549795514
  0
VERTEX
  8
0
 62
7
  6
CONTINUOUS
 10
293.306352459
 20
186.8677665176
  0
SEQEND
  0
LINE
  8
0
 62
7
  6
CONTINUOUS
 10
293.306352459
 20
116.9170082135
 11
293.306352459
 21
124.3623750229
  0
LINE
  8
0
 62
7
  6
CONTINUOUS
 10
293.306352459
 20
124.3949228654
 11
293.306352459
 21
163.9662498781
  0
LINE
  8
0
 62
7
  6
CONTINUOUS
 10
293.306352459
 20
164.035100303
 11
293.306352459
 21
226.4390935303
  0
LINE
  8
0
 62
7
  6
CONTINUOUS
 10
293.306352459
 20
226.4979607077
 11
293.306352459
 21
233.9169565172
  0
LINE
  8
0
 62
9
  6
CONTINUOUS
 10
293.86595226
 20
113.7433600202
 11
293.86595226
 21
114.0203517736
  0
LINE
  8
0
 62
9
  6
CONTINUOUS
 10
293.86595226
 20
122.3142168365
 11
293.86595226
 21
129.1773959982
  0
LINE
  8
0
 62
9
  6
CONTINUOUS
 10
293.86595226
 20
150.8915380067
 11
293.86595226
 21
161.9972627102
  0
LINE
  8
0
 62
9
  6
CONTINUOUS
 10
293.86595226
 20
188.8367537024
 11
293.86595226
 21
199.9424826302
  0
LINE
  8
0
 62
9
  6
CONTINUOUS
 10
293.86595226
 20
221.656086961
 11
293.86595226
 21
228.5198049072
  0
LINE
  8
0
 62
9
  6
CONTINUOUS
 10
293.86595226
 20
236.8136637405
 11
293.86595226
 21
237.0906563755
  0
LINE
  8
0
 62
9
  6
CONTINUOUS
 10
294.306352459
 20
117.1005589156
 11
294.306352459
 21
121.6284317585
  0
LINE
  8
0
 62
9
  6
CONTINUOUS
 10
294.306352459
 20
132.8334087855
 11
294.306352459
 21
149.9605831241
  0
LINE
  8
0
 62
9
  6
CONTINUOUS
 10
294.306352459
 20
164.8318808539
 11
294.306352459
 21
186.0021357209
  0
LINE
  8
0
 62
9
  6
CONTINUOUS
 10
294.306352459
 20
200.8734332717
 11
294.306352459
 21
218.0005293792
  0
LINE
  8
0
 62
9
  6
CONTINUOUS
 10
294.306352459
 20
229.2056235307
 11
294.306352459
 21
233.7334653069
  0
LINE
  8
0
 62
9
  6
CONTINUOUS
 10
294.850760013
 20
113.8842044056
 11
294.850760013
 21
112.9170081979
  0
LINE
  8
0
 62
9
  6
CONTINUOUS
 10
294.850760013
 20
121.4637253134
 11
294.850760013
 21
129.6171403332
  0
LINE
  8
0
 62
9
  6
CONTINUOUS
 10
294.850760013
 20
149.9605831241
 11
294.850760013
 21
162.844069105
  0
LINE
  8
0
 62
9
  6
CONTINUOUS
 10
294.850760013
 20
187.9899472908
 11
294.850760013
 21
200.8734332717
  0
LINE
  8
0
 62
9
  6
CONTINUOUS
 10
294.850760013
 20
221.2168760625
 11
294.850760013
 21
229.3702912979
  0
LINE
  8
0
 62
9
  6
CONTINUOUS
 10
294.850760013
 20
236.9498119902
 11
294.850760013
 21
237.9170081979
  0
POLYLINE
  8
0
 62
7
  6
CONTINUOUS
 66
1
 70
0
  0
VERTEX
  8
0
 62
7
  6
CONTINUOUS
 10
293.3090053487
 20
164.0351243881
  0
VERTEX
  8
0
 62
7
  6
CONTINUOUS
 10
293.3081988453
 20
164.0250687885
  0
VERTEX
  8
0
 62
7
  6
CONTINUOUS
 10
293.30753545
 20
164.0144166022
  0
VERTEX
  8
0
 62
7
  6
CONTINUOUS
 10
293.3070162407
 20
164.0031454414
  0
VERTEX
  8
0
 62
7
  6
CONTINUOUS
 10
293.3066459255
 20
163.9913279408
  0
VERTEX
  8
0
 62
7
  6
CONTINUOUS
 10
293.3064255385
 20
163.9790368443
  0
VERTEX
  8
0
 62
7
  6
CONTINUOUS
 10
293.306352459
 20
163.9662498781
  0
SEQEND
  0
POLYLINE
  8
0
 62
9
  6
CONTINUOUS
 66
1
 70
0
  0
VERTEX
  8
0
 62
9
  6
CONTINUOUS
 10
293.306352459
 20
166.4207332892
  0
VERTEX
  8
0
 62
9
  6
CONTINUOUS
 10
293.3255671788
 20
166.5785646761
  0
VERTEX
  8
0
 62
9
  6
CONTINUOUS
 10
293.3824729273
 20
166.7303306909
  0
VERTEX
  8
0
 62
9
  6
CONTINUOUS
 10
293.474882848
 20
166.8701990509
  0
VERTEX
  8
0
 62
9
  6
CONTINUOUS
 10
293.5992456795
 20
166.9927946934
  0
VERTEX
  8
0
 62
9
  6
CONTINUOUS
 10
293.7507822277
 20
167.0934063368
  0
VERTEX
  8
0
 62
9
  6
CONTINUOUS
 10
293.9236690281
 20
167.1681675323
  0
VERTEX
  8
0
 62
9
  6
CONTINUOUS
 10
294.1112621379
 20
167.214205249
  0
VERTEX
  8
0
 62
9
  6
CONTINUOUS
 10
294.306352459
 20
167.2297502836
  0
SEQEND
  0
POLYLINE
  8
0
 62
7
  6
CONTINUOUS
 66
1
 70
0
  0
VERTEX
  8
0
 62
7
  6
CONTINUOUS
 10
293.3090053487
 20
164.0351243881
  0
VERTEX
  8
0
 62
7
  6
CONTINUOUS
 10
293.3400785379
 20
164.1860827245
  0
VERTEX
  8
0
 62
7
  6
CONTINUOUS
 10
293.405012883
 20
164.3311183939
  0
SEQEND
  0
LINE
  8
0
 62
9
  6
CONTINUOUS
 10
294.8507588922
 20
187.9899472908
 11
294.306352459
 21
186.0021357209
  0
POLYLINE
  8
0
 62
7
  6
CONTINUOUS
 66
1
 70
0
  0
VERTEX
  8
0
 62
7
  6
CONTINUOUS
 10
315.3036995693
 20
218.3625005877
  0
VERTEX
  8
0
 62
7
  6
CONTINUOUS
 10
315.2726263801
 20
218.3029688393
  0
VERTEX
  8
0
 62
7
  6
CONTINUOUS
 10
315.207692035
 20
218.2438928845
  0
SEQEND
  0
POLYLINE
  8
0
 62
9
  6
CONTINUOUS
 66
1
 70
0
  0
VERTEX
  8
0
 62
9
  6
CONTINUOUS
 10
294.850760013
 20
162.844069105
  0
VERTEX
  8
0
 62
9
  6
CONTINUOUS
 10
294.6672631675
 20
162.8115463051
  0
VERTEX
  8
0
 62
9
  6
CONTINUOUS
 10
294.4905911771
 20
162.7540504965
  0
VERTEX
  8
0
 62
9
  6
CONTINUOUS
 10
294.3257393957
 20
162.6700996988
  0
VERTEX
  8
0
 62
9
  6
CONTINUOUS
 10
294.1782532165
 20
162.5633402948
  0
VERTEX
  8
0
 62
9
  6
CONTINUOUS
 10
294.0551307967
 20
162.438318401
  0
VERTEX
  8
0
 62
9
  6
CONTINUOUS
 10
293.9598702538
 20
162.2988130679
  0
VERTEX
  8
0
 62
9
  6
CONTINUOUS
 10
293.8955763817
 20
162.1507417319
  0
VERTEX
  8
0
 62
9
  6
CONTINUOUS
 10
293.86595226
 20
161.9972675205
  0
SEQEND
  0
LINE
  8
0
 62
9
  6
CONTINUOUS
 10
294.8507589015
 20
162.844069105
 11
313.7619460165
 21
162.844069105
  0
POLYLINE
  8
0
 62
9
  6
CONTINUOUS
 66
1
 70
0
  0
VERTEX
  8
0
 62
9
  6
CONTINUOUS
 10
313.761944905
 20
162.844069105
  0
VERTEX
  8
0
 62
9
  6
CONTINUOUS
 10
313.9461601518
 20
162.8123399341
  0
VERTEX
  8
0
 62
9
  6
CONTINUOUS
 10
314.1239035319
 20
162.7533030419
  0
VERTEX
  8
0
 62
9
  6
CONTINUOUS
 10
314.2889305546
 20
162.6690325174
  0
VERTEX
  8
0
 62
9
  6
CONTINUOUS
 10
314.4354434836
 20
162.5624889593
  0
VERTEX
  8
0
 62
9
  6
CONTINUOUS
 10
314.5582950209
 20
162.4374154634
  0
VERTEX
  8
0
 62
9
  6
CONTINUOUS
 10
314.6531691422
 20
162.2982061182
  0
VERTEX
  8
0
 62
9
  6
CONTINUOUS
 10
314.7167327271
 20
162.1497516333
  0
VERTEX
  8
0
 62
9
  6
CONTINUOUS
 10
314.746752658
 20
161.9972675205
  0
SEQEND
  0
POLYLINE
  8
0
 62
7
  6
CONTINUOUS
 66
1
 70
0
  0
VERTEX
  8
0
 62
7
  6
CONTINUOUS
 10
315.3036995693
 20
132.4715160213
  0
VERTEX
  8
0
 62
7
  6
CONTINUOUS
 10
315.2726263799
 20
132.5310477674
  0
VERTEX
  8
0
 62
7
  6
CONTINUOUS
 10
315.2076920349
 20
132.5901237178
  0
SEQEND
  0
LINE
  8
0
 62
9
  6
CONTINUOUS
 10
294.306352459
 20
164.8318808539
 11
294.8507589015
 21
162.844069105
  0
POLYLINE
  8
0
 62
7
  6
CONTINUOUS
 66
1
 70
0
  0
VERTEX
  8
0
 62
7
  6
CONTINUOUS
 10
293.3090053487
 20
186.7988920081
  0
VERTEX
  8
0
 62
7
  6
CONTINUOUS
 10
293.3400785379
 20
186.6479336719
  0
VERTEX
  8
0
 62
7
  6
CONTINUOUS
 10
293.405012883
 20
186.5028980027
  0
SEQEND
  0
POLYLINE
  8
0
 62
9
  6
CONTINUOUS
 66
1
 70
0
  0
VERTEX
  8
0
 62
9
  6
CONTINUOUS
 10
293.306352459
 20
184.4132831065
  0
VERTEX
  8
0
 62
9
  6
CONTINUOUS
 10
293.3255671786
 20
184.2554517206
  0
VERTEX
  8
0
 62
9
  6
CONTINUOUS
 10
293.3824729265
 20
184.1036857063
  0
VERTEX
  8
0
 62
9
  6
CONTINUOUS
 10
293.4748828467
 20
183.9638173465
  0
VERTEX
  8
0
 62
9
  6
CONTINUOUS
 10
293.5992456778
 20
183.8412217037
  0
VERTEX
  8
0
 62
9
  6
CONTINUOUS
 10
293.750782226
 20
183.7406100599
  0
VERTEX
  8
0
 62
9
  6
CONTINUOUS
 10
293.9236690267
 20
183.665848864
  0
VERTEX
  8
0
 62
9
  6
CONTINUOUS
 10
294.111262137
 20
183.6198111469
  0
VERTEX
  8
0
 62
9
  6
CONTINUOUS
 10
294.306352459
 20
183.6042661122
  0
SEQEND
  0
POLYLINE
  8
0
 62
9
  6
CONTINUOUS
 66
1
 70
0
  0
VERTEX
  8
0
 62
9
  6
CONTINUOUS
 10
293.306352459
 20
178.0830811556
  0
VERTEX
  8
0
 62
9
  6
CONTINUOUS
 10
293.3255671787
 20
178.0932716931
  0
VERTEX
  8
0
 62
9
  6
CONTINUOUS
 10
293.3824729269
 20
178.1030706139
  0
VERTEX
  8
0
 62
9
  6
CONTINUOUS
 10
293.4748828475
 20
178.1121013511
  0
VERTEX
  8
0
 62
9
  6
CONTINUOUS
 10
293.5992456788
 20
178.1200168584
  0
VERTEX
  8
0
 62
9
  6
CONTINUOUS
 10
293.750782227
 20
178.1265129473
  0
VERTEX
  8
0
 62
9
  6
CONTINUOUS
 10
293.9236690275
 20
178.1313399769
  0
VERTEX
  8
0
 62
9
  6
CONTINUOUS
 10
294.1112621375
 20
178.134312447
  0
VERTEX
  8
0
 62
9
  6
CONTINUOUS
 10
294.306352459
 20
178.1353161273
  0
SEQEND
  0
LINE
  8
0
 62
9
  6
CONTINUOUS
 10
294.306352459
 20
167.2297502836
 11
314.306352459
 21
167.2297502836
  0
POLYLINE
  8
0
 62
9
  6
CONTINUOUS
 66
1
 70
0
  0
VERTEX
  8
0
 62
9
  6
CONTINUOUS
 10
293.306352459
 20
172.7509352402
  0
VERTEX
  8
0
 62
9
  6
CONTINUOUS
 10
293.3255671752
 20
172.7407447036
  0
VERTEX
  8
0
 62
9
  6
CONTINUOUS
 10
293.3824729154
 20
172.7309457833
  0
VERTEX
  8
0
 62
9
  6
CONTINUOUS
 10
293.4748828276
 20
172.7219150463
  0
VERTEX
  8
0
 62
9
  6
CONTINUOUS
 10
293.5992456533
 20
172.7139995387
  0
VERTEX
  8
0
 62
9
  6
CONTINUOUS
 10
293.7507822009
 20
172.7075034494
  0
VERTEX
  8
0
 62
9
  6
CONTINUOUS
 10
293.9236690061
 20
172.7026764194
  0
VERTEX
  8
0
 62
9
  6
CONTINUOUS
 10
294.1112621249
 20
172.6997039489
  0
VERTEX
  8
0
 62
9
  6
CONTINUOUS
 10
294.306352459
 20
172.6987002684
  0
SEQEND
  0
POLYLINE
  8
0
 62
7
  6
CONTINUOUS
 66
1
 70
0
  0
VERTEX
  8
0
 62
7
  6
CONTINUOUS
 10
293.3090053488
 20
132.4715160207
  0
VERTEX
  8
0
 62
7
  6
CONTINUOUS
 10
293.3081988458
 20
132.4672979156
  0
VERTEX
  8
0
 62
7
  6
CONTINUOUS
 10
293.3075354506
 20
132.4621753962
  0
VERTEX
  8
0
 62
7
  6
CONTINUOUS
 10
293.3070162411
 20
132.456135537
  0
VERTEX
  8
0
 62
7
  6
CONTINUOUS
 10
293.3066459257
 20
132.4492192048
  0
VERTEX
  8
0
 62
7
  6
CONTINUOUS
 10
293.3064255386
 20
132.4414673085
  0
VERTEX
  8
0
 62
7
  6
CONTINUOUS
 10
293.306352459
 20
132.4328669658
  0
SEQEND
  0
POLYLINE
  8
0
 62
9
  6
CONTINUOUS
 66
1
 70
0
  0
VERTEX
  8
0
 62
9
  6
CONTINUOUS
 10
315.306352459
 20
214.429711846
  0
VERTEX
  8
0
 62
9
  6
CONTINUOUS
 10
315.2871377303
 20
214.3694256069
  0
VERTEX
  8
0
 62
9
  6
CONTINUOUS
 10
315.2302319616
 20
214.3114561396
  0
VERTEX
  8
0
 62
9
  6
CONTINUOUS
 10
315.1378220196
 20
214.2580311785
  0
VERTEX
  8
0
 62
9
  6
CONTINUOUS
 10
315.0134591736
 20
214.2112038132
  0
VERTEX
  8
0
 62
9
  6
CONTINUOUS
 10
314.8619226234
 20
214.1727735913
  0
VERTEX
  8
0
 62
9
  6
CONTINUOUS
 10
314.6890358348
 20
214.1442173625
  0
VERTEX
  8
0
 62
9
  6
CONTINUOUS
 10
314.5014427476
 20
214.1266325245
  0
VERTEX
  8
0
 62
9
  6
CONTINUOUS
 10
314.306352459
 20
214.1206948516
  0
SEQEND
  0
POLYLINE
  8
0
 62
7
  6
CONTINUOUS
 66
1
 70
0
  0
VERTEX
  8
0
 62
7
  6
CONTINUOUS
 10
293.405012883
 20
164.3311183939
  0
VERTEX
  8
0
 62
7
  6
CONTINUOUS
 10
293.50147986
 20
164.465358779
  0
VERTEX
  8
0
 62
7
  6
CONTINUOUS
 10
293.6260528414
 20
164.5840129977
  0
VERTEX
  8
0
 62
7
  6
CONTINUOUS
 10
293.7743288033
 20
164.6830190606
  0
VERTEX
  8
0
 62
7
  6
CONTINUOUS
 10
293.9411005781
 20
164.7589083023
  0
VERTEX
  8
0
 62
7
  6
CONTINUOUS
 10
294.1205326817
 20
164.8089604103
  0
VERTEX
  8
0
 62
7
  6
CONTINUOUS
 10
294.306352459
 20
164.8318836529
  0
SEQEND
  0
LINE
  8
0
 62
9
  6
CONTINUOUS
 10
294.306352459
 20
172.6987002684
 11
314.306352459
 21
172.6987002684
  0
LINE
  8
1_AXIS
 62
2
  6
CENTER
 10
281.156352459
 20
175.4170081979
 11
327.456352459
 21
175.4170081979
  0
POLYLINE
  8
0
 62
7
  6
CONTINUOUS
 66
1
 70
0
  0
VERTEX
  8
0
 62
7
  6
CONTINUOUS
 10
293.405012883
 20
186.5028980027
  0
VERTEX
  8
0
 62
7
  6
CONTINUOUS
 10
293.50147986
 20
186.368657618
  0
VERTEX
  8
0
 62
7
  6
CONTINUOUS
 10
293.6260528414
 20
186.2500033997
  0
VERTEX
  8
0
 62
7
  6
CONTINUOUS
 10
293.7743288033
 20
186.1509973374
  0
VERTEX
  8
0
 62
7
  6
CONTINUOUS
 10
293.941100578
 20
186.0751080964
  0
VERTEX
  8
0
 62
7
  6
CONTINUOUS
 10
294.1205326816
 20
186.025055989
  0
VERTEX
  8
0
 62
7
  6
CONTINUOUS
 10
294.306352459
 20
186.0021327471
  0
SEQEND
  0
POLYLINE
  8
0
 62
9
  6
CONTINUOUS
 66
1
 70
0
  0
VERTEX
  8
0
 62
9
  6
CONTINUOUS
 10
315.306352459
 20
136.4043045497
  0
VERTEX
  8
0
 62
9
  6
CONTINUOUS
 10
315.2871377394
 20
136.4645907747
  0
VERTEX
  8
0
 62
9
  6
CONTINUOUS
 10
315.2302319915
 20
136.5225602338
  0
VERTEX
  8
0
 62
9
  6
CONTINUOUS
 10
315.1378220713
 20
136.5759851933
  0
VERTEX
  8
0
 62
9
  6
CONTINUOUS
 10
315.0134592402
 20
136.622812562
  0
VERTEX
  8
0
 62
9
  6
CONTINUOUS
 10
314.861922692
 20
136.6612427903
  0
VERTEX
  8
0
 62
9
  6
CONTINUOUS
 10
314.6890358914
 20
136.689799026
  0
VERTEX
  8
0
 62
9
  6
CONTINUOUS
 10
314.501442781
 20
136.7073838692
  0
VERTEX
  8
0
 62
9
  6
CONTINUOUS
 10
314.306352459
 20
136.7133215441
  0
SEQEND
  0
POLYLINE
  8
0
 62
7
  6
CONTINUOUS
 66
1
 70
0
  0
VERTEX
  8
0
 62
7
  6
CONTINUOUS
 10
293.3090053487
 20
218.3625005877
  0
VERTEX
  8
0
 62
7
  6
CONTINUOUS
 10
293.3081988453
 20
218.3667185639
  0
VERTEX
  8
0
 62
7
  6
CONTINUOUS
 10
293.30753545
 20
218.3718410055
  0
VERTEX
  8
0
 62
7
  6
CONTINUOUS
 10
293.3070162407
 20
218.3778808511
  0
VERTEX
  8
0
 62
7
  6
CONTINUOUS
 10
293.3066459255
 20
218.3847971949
  0
VERTEX
  8
0
 62
7
  6
CONTINUOUS
 10
293.3064255385
 20
218.3925490895
  0
VERTEX
  8
0
 62
7
  6
CONTINUOUS
 10
293.306352459
 20
218.4011494299
  0
SEQEND
  0
POLYLINE
  8
0
 62
7
  6
CONTINUOUS
 66
1
 70
0
  0
VERTEX
  8
0
 62
7
  6
CONTINUOUS
 10
315.3036995693
 20
218.3625005877
  0
VERTEX
  8
0
 62
7
  6
CONTINUOUS
 10
315.3045060728
 20
218.3667185639
  0
VERTEX
  8
0
 62
7
  6
CONTINUOUS
 10
315.3051694681
 20
218.3718410055
  0
VERTEX
  8
0
 62
7
  6
CONTINUOUS
 10
315.3056886773
 20
218.3778808511
  0
VERTEX
  8
0
 62
7
  6
CONTINUOUS
 10
315.3060589925
 20
218.3847971949
  0
VERTEX
  8
0
 62
7
  6
CONTINUOUS
 10
315.3062793795
 20
218.3925490895
  0
VERTEX
  8
0
 62
7
  6
CONTINUOUS
 10
315.306352459
 20
218.4011494299
  0
SEQEND
  0
POLYLINE
  8
0
 62
9
  6
CONTINUOUS
 66
1
 70
0
  0
VERTEX
  8
0
 62
9
  6
CONTINUOUS
 10
293.306352459
 20
136.4043045497
  0
VERTEX
  8
0
 62
9
  6
CONTINUOUS
 10
293.3255671788
 20
136.464590775
  0
VERTEX
  8
0
 62
9
  6
CONTINUOUS
 10
293.3824729272
 20
136.5225602343
  0
VERTEX
  8
0
 62
9
  6
CONTINUOUS
 10
293.4748828479
 20
136.5759851939
  0
VERTEX
  8
0
 62
9
  6
CONTINUOUS
 10
293.5992456794
 20
136.6228125625
  0
VERTEX
  8
0
 62
9
  6
CONTINUOUS
 10
293.7507822276
 20
136.6612427906
  0
VERTEX
  8
0
 62
9
  6
CONTINUOUS
 10
293.923669028
 20
136.6897990262
  0
VERTEX
  8
0
 62
9
  6
CONTINUOUS
 10
294.1112621378
 20
136.7073838693
  0
VERTEX
  8
0
 62
9
  6
CONTINUOUS
 10
294.306352459
 20
136.7133215441
  0
SEQEND
  0
POLYLINE
  8
0
 62
7
  6
CONTINUOUS
 66
1
 70
0
  0
VERTEX
  8
0
 62
7
  6
CONTINUOUS
 10
315.207692035
 20
186.5028980027
  0
VERTEX
  8
0
 62
7
  6
CONTINUOUS
 10
315.111225058
 20
186.368657618
  0
VERTEX
  8
0
 62
7
  6
CONTINUOUS
 10
314.9866520766
 20
186.2500033997
  0
VERTEX
  8
0
 62
7
  6
CONTINUOUS
 10
314.8383761147
 20
186.1509973374
  0
VERTEX
  8
0
 62
7
  6
CONTINUOUS
 10
314.67160434
 20
186.0751080964
  0
VERTEX
  8
0
 62
7
  6
CONTINUOUS
 10
314.4921722364
 20
186.025055989
  0
VERTEX
  8
0
 62
7
  6
CONTINUOUS
 10
314.306352459
 20
186.0021327471
  0
SEQEND
  0
LINE
  8
0
 62
9
  6
CONTINUOUS
 10
294.306352459
 20
178.1353161273
 11
314.306352459
 21
178.1353161273
  0
POLYLINE
  8
0
 62
7
  6
CONTINUOUS
 66
1
 70
0
  0
VERTEX
  8
0
 62
7
  6
CONTINUOUS
 10
315.207692035
 20
164.3311183939
  0
VERTEX
  8
0
 62
7
  6
CONTINUOUS
 10
315.111225058
 20
164.465358779
  0
VERTEX
  8
0
 62
7
  6
CONTINUOUS
 10
314.9866520766
 20
164.5840129977
  0
VERTEX
  8
0
 62
7
  6
CONTINUOUS
 10
314.8383761147
 20
164.6830190606
  0
VERTEX
  8
0
 62
7
  6
CONTINUOUS
 10
314.67160434
 20
164.7589083023
  0
VERTEX
  8
0
 62
7
  6
CONTINUOUS
 10
314.4921722364
 20
164.8089604103
  0
VERTEX
  8
0
 62
7
  6
CONTINUOUS
 10
314.306352459
 20
164.8318836529
  0
SEQEND
  0
POLYLINE
  8
0
 62
9
  6
CONTINUOUS
 66
1
 70
0
  0
VERTEX
  8
0
 62
9
  6
CONTINUOUS
 10
293.306352459
 20
214.429711846
  0
VERTEX
  8
0
 62
9
  6
CONTINUOUS
 10
293.3255671786
 20
214.3694256211
  0
VERTEX
  8
0
 62
9
  6
CONTINUOUS
 10
293.3824729265
 20
214.3114561619
  0
VERTEX
  8
0
 62
9
  6
CONTINUOUS
 10
293.4748828467
 20
214.2580312024
  0
VERTEX
  8
0
 62
9
  6
CONTINUOUS
 10
293.5992456778
 20
214.2112038338
  0
VERTEX
  8
0
 62
9
  6
CONTINUOUS
 10
293.750782226
 20
214.1727736055
  0
VERTEX
  8
0
 62
9
  6
CONTINUOUS
 10
293.9236690267
 20
214.1442173697
  0
VERTEX
  8
0
 62
9
  6
CONTINUOUS
 10
294.111262137
 20
214.1266325265
  0
VERTEX
  8
0
 62
9
  6
CONTINUOUS
 10
294.306352459
 20
214.1206948516
  0
SEQEND
  0
POLYLINE
  8
0
 62
7
  6
CONTINUOUS
 66
1
 70
0
  0
VERTEX
  8
0
 62
7
  6
CONTINUOUS
 10
315.3036995693
 20
132.4715160213
  0
VERTEX
  8
0
 62
7
  6
CONTINUOUS
 10
315.3045060722
 20
132.4672979158
  0
VERTEX
  8
0
 62
7
  6
CONTINUOUS
 10
315.3051694674
 20
132.4621753963
  0
VERTEX
  8
0
 62
7
  6
CONTINUOUS
 10
315.3056886769
 20
132.456135537
  0
VERTEX
  8
0
 62
7
  6
CONTINUOUS
 10
315.3060589924
 20
132.4492192048
  0
VERTEX
  8
0
 62
7
  6
CONTINUOUS
 10
315.3062793794
 20
132.4414673085
  0
VERTEX
  8
0
 62
7
  6
CONTINUOUS
 10
315.306352459
 20
132.4328669658
  0
SEQEND
  0
POLYLINE
  8
0
 62
7
  6
CONTINUOUS
 66
1
 70
0
  0
VERTEX
  8
0
 62
7
  6
CONTINUOUS
 10
315.3036995693
 20
186.7988920081
  0
VERTEX
  8
0
 62
7
  6
CONTINUOUS
 10
315.2726263801
 20
186.6479336719
  0
VERTEX
  8
0
 62
7
  6
CONTINUOUS
 10
315.207692035
 20
186.5028980027
  0
SEQEND
  0
POLYLINE
  8
0
 62
9
  6
CONTINUOUS
 66
1
 70
0
  0
VERTEX
  8
0
 62
9
  6
CONTINUOUS
 10
315.306352459
 20
172.7509352402
  0
VERTEX
  8
0
 62
9
  6
CONTINUOUS
 10
315.2871377304
 20
172.7407447003
  0
VERTEX
  8
0
 62
9
  6
CONTINUOUS
 10
315.2302319617
 20
172.7309457781
  0
VERTEX
  8
0
 62
9
  6
CONTINUOUS
 10
315.1378220192
 20
172.7219150407
  0
VERTEX
  8
0
 62
9
  6
CONTINUOUS
 10
315.0134591725
 20
172.7139995339
  0
VERTEX
  8
0
 62
9
  6
CONTINUOUS
 10
314.861922622
 20
172.707503446
  0
VERTEX
  8
0
 62
9
  6
CONTINUOUS
 10
314.6890358335
 20
172.7026764177
  0
VERTEX
  8
0
 62
9
  6
CONTINUOUS
 10
314.5014427467
 20
172.6997039484
  0
VERTEX
  8
0
 62
9
  6
CONTINUOUS
 10
314.306352459
 20
172.6987002684
  0
SEQEND
  0
LINE
  8
0
 62
9
  6
CONTINUOUS
 10
294.306352459
 20
183.6042661122
 11
314.306352459
 21
183.6042661122
  0
POLYLINE
  8
0
 62
9
  6
CONTINUOUS
 66
1
 70
0
  0
VERTEX
  8
0
 62
9
  6
CONTINUOUS
 10
315.306352459
 20
178.0830811556
  0
VERTEX
  8
0
 62
9
  6
CONTINUOUS
 10
315.2871377452
 20
178.0932716915
  0
VERTEX
  8
0
 62
9
  6
CONTINUOUS
 10
315.2302320105
 20
178.1030706115
  0
VERTEX
  8
0
 62
9
  6
CONTINUOUS
 10
315.137822104
 20
178.1121013484
  0
VERTEX
  8
0
 62
9
  6
CONTINUOUS
 10
315.0134592822
 20
178.1200168561
  0
VERTEX
  8
0
 62
9
  6
CONTINUOUS
 10
314.861922735
 20
178.1265129458
  0
VERTEX
  8
0
 62
9
  6
CONTINUOUS
 10
314.6890359266
 20
178.1313399761
  0
VERTEX
  8
0
 62
9
  6
CONTINUOUS
 10
314.5014428018
 20
178.1343124468
  0
VERTEX
  8
0
 62
9
  6
CONTINUOUS
 10
314.306352459
 20
178.1353161273
  0
SEQEND
  0
POLYLINE
  8
0
 62
7
  6
CONTINUOUS
 66
1
 70
0
  0
VERTEX
  8
0
 62
7
  6
CONTINUOUS
 10
315.3036995694
 20
164.035124388
  0
VERTEX
  8
0
 62
7
  6
CONTINUOUS
 10
315.2726263801
 20
164.1860827244
  0
VERTEX
  8
0
 62
7
  6
CONTINUOUS
 10
315.207692035
 20
164.3311183939
  0
SEQEND
  0
POLYLINE
  8
0
 62
7
  6
CONTINUOUS
 66
1
 70
0
  0
VERTEX
  8
0
 62
7
  6
CONTINUOUS
 10
315.3036995694
 20
164.035124388
  0
VERTEX
  8
0
 62
7
  6
CONTINUOUS
 10
315.3045060728
 20
164.0250687885
  0
VERTEX
  8
0
 62
7
  6
CONTINUOUS
 10
315.3051694681
 20
164.0144166022
  0
VERTEX
  8
0
 62
7
  6
CONTINUOUS
 10
315.3056886773
 20
164.0031454414
  0
VERTEX
  8
0
 62
7
  6
CONTINUOUS
 10
315.3060589925
 20
163.9913279408
  0
VERTEX
  8
0
 62
7
  6
CONTINUOUS
 10
315.3062793795
 20
163.9790368443
  0
VERTEX
  8
0
 62
7
  6
CONTINUOUS
 10
315.306352459
 20
163.9662498781
  0
SEQEND
  0
LINE
  8
0
 62
9
  6
CONTINUOUS
 10
313.761944905
 20
112.9170081979
 11
313.761944905
 21
113.8842044056
  0
LINE
  8
0
 62
9
  6
CONTINUOUS
 10
313.761944905
 20
121.4637250979
 11
313.761944905
 21
129.6171403332
  0
LINE
  8
0
 62
9
  6
CONTINUOUS
 10
313.761944905
 20
149.9605831241
 11
313.761944905
 21
162.844069105
  0
LINE
  8
0
 62
9
  6
CONTINUOUS
 10
313.761944905
 20
187.9899472908
 11
313.761944905
 21
200.8734332717
  0
LINE
  8
0
 62
9
  6
CONTINUOUS
 10
313.761944905
 20
221.2168760625
 11
313.761944905
 21
229.3702910823
  0
LINE
  8
0
 62
9
  6
CONTINUOUS
 10
313.761944905
 20
236.9498119902
 11
313.761944905
 21
237.9170081979
  0
LINE
  8
0
 62
9
  6
CONTINUOUS
 10
314.306352459
 20
233.7334653069
 11
314.306352459
 21
229.2055846373
  0
LINE
  8
0
 62
9
  6
CONTINUOUS
 10
314.306352459
 20
218.0005293792
 11
314.306352459
 21
200.8734332717
  0
LINE
  8
0
 62
9
  6
CONTINUOUS
 10
314.306352459
 20
186.0021357209
 11
314.306352459
 21
164.8318808539
  0
LINE
  8
0
 62
9
  6
CONTINUOUS
 10
314.306352459
 20
149.9605831241
 11
314.306352459
 21
132.8334085995
  0
LINE
  8
0
 62
9
  6
CONTINUOUS
 10
314.306352459
 20
121.628392865
 11
314.306352459
 21
117.1005589156
  0
LINE
  8
0
 62
9
  6
CONTINUOUS
 10
314.746752658
 20
237.0906563755
 11
314.746752658
 21
236.8136637405
  0
LINE
  8
0
 62
9
  6
CONTINUOUS
 10
314.746752658
 20
228.5198049072
 11
314.746752658
 21
221.656086961
  0
LINE
  8
0
 62
9
  6
CONTINUOUS
 10
314.746752658
 20
199.9424826302
 11
314.746752658
 21
188.8367537024
  0
LINE
  8
0
 62
9
  6
CONTINUOUS
 10
314.746752658
 20
161.9972627102
 11
314.746752658
 21
150.8915380067
  0
LINE
  8
0
 62
9
  6
CONTINUOUS
 10
314.746752658
 20
129.1773983419
 11
314.746752658
 21
122.3142168365
  0
LINE
  8
0
 62
9
  6
CONTINUOUS
 10
314.746752658
 20
114.0203517736
 11
314.746752658
 21
113.7433600202
  0
LINE
  8
0
 62
7
  6
CONTINUOUS
 10
315.306352459
 20
233.9169654773
 11
315.306352459
 21
226.4879996867
  0
LINE
  8
0
 62
7
  6
CONTINUOUS
 10
315.306352459
 20
226.4390935303
 11
315.306352459
 21
186.8677665176
  0
LINE
  8
0
 62
7
  6
CONTINUOUS
 10
315.306352459
 20
186.7988920081
 11
315.306352459
 21
124.3949228654
  0
LINE
  8
0
 62
7
  6
CONTINUOUS
 10
315.306352459
 20
124.3460166995
 11
315.306352459
 21
116.9170082022
  0
POLYLINE
  8
0
 62
7
  6
CONTINUOUS
 66
1
 70
0
  0
VERTEX
  8
0
 62
7
  6
CONTINUOUS
 10
315.3036995693
 20
186.7988920081
  0
VERTEX
  8
0
 62
7
  6
CONTINUOUS
 10
315.3045060728
 20
186.8089476074
  0
VERTEX
  8
0
 62
7
  6
CONTINUOUS
 10
315.3051694681
 20
186.8195997936
  0
VERTEX
  8
0
 62
7
  6
CONTINUOUS
 10
315.3056886773
 20
186.8308709543
  0
VERTEX
  8
0
 62
7
  6
CONTINUOUS
 10
315.3060589925
 20
186.842688455
  0
VERTEX
  8
0
 62
7
  6
CONTINUOUS
 10
315.3062793795
 20
186.8549795514
  0
VERTEX
  8
0
 62
7
  6
CONTINUOUS
 10
315.306352459
 20
186.8677665176
  0
SEQEND
  0
POLYLINE
  8
0
 62
9
  6
CONTINUOUS
 66
1
 70
0
  0
VERTEX
  8
0
 62
9
  6
CONTINUOUS
 10
315.306352459
 20
184.4132831065
  0
VERTEX
  8
0
 62
9
  6
CONTINUOUS
 10
315.2871377293
 20
184.2554516795
  0
VERTEX
  8
0
 62
9
  6
CONTINUOUS
 10
315.2302319583
 20
184.1036856414
  0
VERTEX
  8
0
 62
9
  6
CONTINUOUS
 10
315.1378220133
 20
183.9638172762
  0
VERTEX
  8
0
 62
9
  6
CONTINUOUS
 10
315.0134591647
 20
183.8412216427
  0
VERTEX
  8
0
 62
9
  6
CONTINUOUS
 10
314.861922614
 20
183.7406100177
  0
VERTEX
  8
0
 62
9
  6
CONTINUOUS
 10
314.6890358269
 20
183.6658488424
  0
VERTEX
  8
0
 62
9
  6
CONTINUOUS
 10
314.5014427428
 20
183.6198111407
  0
VERTEX
  8
0
 62
9
  6
CONTINUOUS
 10
314.306352459
 20
183.6042661122
  0
SEQEND
  0
LINE
  8
0
 62
9
  6
CONTINUOUS
 10
314.746752658
 20
161.9972627102
 11
315.3037010177
 21
164.0351003029
  0
LINE
  8
0
 62
9
  6
CONTINUOUS
 10
313.7619460165
 20
162.844069105
 11
314.306352459
 21
164.8318808539
  0
POLYLINE
  8
0
 62
7
  6
CONTINUOUS
 66
1
 70
0
  0
VERTEX
  8
0
 62
7
  6
CONTINUOUS
 10
293.3090053488
 20
132.4715160207
  0
VERTEX
  8
0
 62
7
  6
CONTINUOUS
 10
293.3400785381
 20
132.5310477668
  0
VERTEX
  8
0
 62
7
  6
CONTINUOUS
 10
293.4050128831
 20
132.5901237172
  0
SEQEND
  0
POLYLINE
  8
0
 62
9
  6
CONTINUOUS
 66
1
 70
0
  0
VERTEX
  8
0
 62
9
  6
CONTINUOUS
 10
313.761944905
 20
187.9899472908
  0
VERTEX
  8
0
 62
9
  6
CONTINUOUS
 10
313.9454417506
 20
188.0224700908
  0
VERTEX
  8
0
 62
9
  6
CONTINUOUS
 10
314.1221137411
 20
188.0799658995
  0
VERTEX
  8
0
 62
9
  6
CONTINUOUS
 10
314.2869655227
 20
188.1639166974
  0
VERTEX
  8
0
 62
9
  6
CONTINUOUS
 10
314.4344517018
 20
188.2706761014
  0
VERTEX
  8
0
 62
9
  6
CONTINUOUS
 10
314.5575741215
 20
188.3956979952
  0
VERTEX
  8
0
 62
9
  6
CONTINUOUS
 10
314.6528346643
 20
188.5352033282
  0
VERTEX
  8
0
 62
9
  6
CONTINUOUS
 10
314.7171285363
 20
188.6832746641
  0
VERTEX
  8
0
 62
9
  6
CONTINUOUS
 10
314.746752658
 20
188.8367488752
  0
SEQEND
  0
LINE
  8
0
 62
9
  6
CONTINUOUS
 10
313.7619460258
 20
187.9899472908
 11
294.8507588922
 21
187.9899472908
  0
LINE
  8
0
 62
9
  6
CONTINUOUS
 10
313.761944905
 20
189.0165570671
 11
294.850760013
 21
189.0165570671
  0
POLYLINE
  8
0
 62
9
  6
CONTINUOUS
 66
1
 70
0
  0
VERTEX
  8
0
 62
9
  6
CONTINUOUS
 10
313.761944905
 20
189.0165570671
  0
VERTEX
  8
0
 62
9
  6
CONTINUOUS
 10
313.9355930827
 20
189.0132513438
  0
VERTEX
  8
0
 62
9
  6
CONTINUOUS
 10
314.1039650483
 20
189.0034346167
  0
VERTEX
  8
0
 62
9
  6
CONTINUOUS
 10
314.261944905
 20
188.987405162
  0
VERTEX
  8
0
 62
9
  6
CONTINUOUS
 10
314.4047325147
 20
188.9656500266
  0
VERTEX
  8
0
 62
9
  6
CONTINUOUS
 10
314.5279893481
 20
188.9388302293
  0
VERTEX
  8
0
 62
9
  6
CONTINUOUS
 10
314.6279703088
 20
188.9077606761
  0
VERTEX
  8
0
 62
9
  6
CONTINUOUS
 10
314.7016375258
 20
188.8733853996
  0
VERTEX
  8
0
 62
9
  6
CONTINUOUS
 10
314.746752658
 20
188.8367488752
  0
SEQEND
  0
POLYLINE
  8
0
 62
9
  6
CONTINUOUS
 66
1
 70
0
  0
VERTEX
  8
0
 62
9
  6
CONTINUOUS
 10
294.850760013
 20
187.9899472908
  0
VERTEX
  8
0
 62
9
  6
CONTINUOUS
 10
294.6665447657
 20
188.0216764618
  0
VERTEX
  8
0
 62
9
  6
CONTINUOUS
 10
294.4888013854
 20
188.0807133543
  0
VERTEX
  8
0
 62
9
  6
CONTINUOUS
 10
294.3237743627
 20
188.164983879
  0
VERTEX
  8
0
 62
9
  6
CONTINUOUS
 10
294.1772614338
 20
188.2715274373
  0
VERTEX
  8
0
 62
9
  6
CONTINUOUS
 10
294.0544098966
 20
188.3966009332
  0
VERTEX
  8
0
 62
9
  6
CONTINUOUS
 10
293.9595357756
 20
188.5358102781
  0
VERTEX
  8
0
 62
9
  6
CONTINUOUS
 10
293.8959721908
 20
188.6842647629
  0
VERTEX
  8
0
 62
9
  6
CONTINUOUS
 10
293.86595226
 20
188.8367488752
  0
SEQEND
  0
POLYLINE
  8
0
 62
7
  6
CONTINUOUS
 66
1
 70
0
  0
VERTEX
  8
0
 62
7
  6
CONTINUOUS
 10
293.3090053487
 20
218.3625005877
  0
VERTEX
  8
0
 62
7
  6
CONTINUOUS
 10
293.3400785379
 20
218.3029688393
  0
VERTEX
  8
0
 62
7
  6
CONTINUOUS
 10
293.405012883
 20
218.2438928845
  0
SEQEND
  0
LINE
  8
0
 62
9
  6
CONTINUOUS
 10
314.306352459
 20
186.0021357209
 11
313.7619460258
 21
187.9899472908
  0
LINE
  8
0
 62
9
  6
CONTINUOUS
 10
315.3037010447
 20
186.7989164757
 11
314.746752658
 21
188.8367537024
  0
POLYLINE
  8
0
 62
9
  6
CONTINUOUS
 66
1
 70
0
  0
VERTEX
  8
0
 62
9
  6
CONTINUOUS
 10
315.306352459
 20
166.4207332892
  0
VERTEX
  8
0
 62
9
  6
CONTINUOUS
 10
315.2871377394
 20
166.5785646752
  0
VERTEX
  8
0
 62
9
  6
CONTINUOUS
 10
315.2302319915
 20
166.7303306895
  0
VERTEX
  8
0
 62
9
  6
CONTINUOUS
 10
315.1378220713
 20
166.8701990493
  0
VERTEX
  8
0
 62
9
  6
CONTINUOUS
 10
315.0134592402
 20
166.992794692
  0
VERTEX
  8
0
 62
9
  6
CONTINUOUS
 10
314.861922692
 20
167.0934063359
  0
VERTEX
  8
0
 62
9
  6
CONTINUOUS
 10
314.6890358914
 20
167.1681675318
  0
VERTEX
  8
0
 62
9
  6
CONTINUOUS
 10
314.501442781
 20
167.2142052489
  0
VERTEX
  8
0
 62
9
  6
CONTINUOUS
 10
314.306352459
 20
167.2297502836
  0
SEQEND
  0
POLYLINE
  8
0
 62
7
  6
CONTINUOUS
 66
1
 70
0
  0
VERTEX
  8
0
 62
7
  6
CONTINUOUS
 10
315.3036995694
 20
226.4879996867
  0
VERTEX
  8
0
 62
7
  6
CONTINUOUS
 10
315.3045060728
 20
226.4785542145
  0
VERTEX
  8
0
 62
7
  6
CONTINUOUS
 10
315.3051694681
 20
226.4696069
  0
VERTEX
  8
0
 62
7
  6
CONTINUOUS
 10
315.3056886773
 20
226.4611424544
  0
VERTEX
  8
0
 62
7
  6
CONTINUOUS
 10
315.3060589925
 20
226.4532122159
  0
VERTEX
  8
0
 62
7
  6
CONTINUOUS
 10
315.3062793795
 20
226.445867633
  0
VERTEX
  8
0
 62
7
  6
CONTINUOUS
 10
315.306352459
 20
226.4390935303
  0
SEQEND
  0
LINE
  8
1_AXIS
 62
9
  6
CONTINUOUS
 10
322.456352459
 20
142.9170081979
 11
322.456352459
 21
207.9170081979
  0
POLYLINE
  8
0
 62
7
  6
CONTINUOUS
 66
1
 70
0
  0
VERTEX
  8
0
 62
7
  6
CONTINUOUS
 10
315.3036995694
 20
124.3460166995
  0
VERTEX
  8
0
 62
7
  6
CONTINUOUS
 10
315.3045060728
 20
124.3554621781
  0
VERTEX
  8
0
 62
7
  6
CONTINUOUS
 10
315.3051694681
 20
124.3644094963
  0
VERTEX
  8
0
 62
7
  6
CONTINUOUS
 10
315.3056886773
 20
124.3728739425
  0
VERTEX
  8
0
 62
7
  6
CONTINUOUS
 10
315.3060589925
 20
124.3808041801
  0
VERTEX
  8
0
 62
7
  6
CONTINUOUS
 10
315.3062793795
 20
124.3881487628
  0
VERTEX
  8
0
 62
7
  6
CONTINUOUS
 10
315.306352459
 20
124.3949228654
  0
SEQEND
  0
POLYLINE
  8
0
 62
9
  6
CONTINUOUS
 66
1
 70
0
  0
VERTEX
  8
0
 62
9
  6
CONTINUOUS
 10
315.306352459
 20
143.3005066931
  0
VERTEX
  8
0
 62
9
  6
CONTINUOUS
 10
315.2871377293
 20
143.1777476757
  0
VERTEX
  8
0
 62
9
  6
CONTINUOUS
 10
315.2302319583
 20
143.0597062306
  0
VERTEX
  8
0
 62
9
  6
CONTINUOUS
 10
315.1378220133
 20
142.9509186246
  0
VERTEX
  8
0
 62
9
  6
CONTINUOUS
 10
315.0134591647
 20
142.8555655014
  0
VERTEX
  8
0
 62
9
  6
CONTINUOUS
 10
314.861922614
 20
142.7773112243
  0
VERTEX
  8
0
 62
9
  6
CONTINUOUS
 10
314.6890358269
 20
142.7191630557
  0
VERTEX
  8
0
 62
9
  6
CONTINUOUS
 10
314.5014427428
 20
142.6833555924
  0
VERTEX
  8
0
 62
9
  6
CONTINUOUS
 10
314.306352459
 20
142.6712648925
  0
SEQEND
  0
LINE
  8
0
 62
9
  6
CONTINUOUS
 10
314.746752658
 20
129.1773983419
 11
315.3037235312
 21
132.4713622726
  0
LINE
  8
0
 62
9
  6
CONTINUOUS
 10
313.7619723301
 20
129.6171403332
 11
314.306352459
 21
132.8334085995
  0
POLYLINE
  8
0
 62
9
  6
CONTINUOUS
 66
1
 70
0
  0
VERTEX
  8
0
 62
9
  6
CONTINUOUS
 10
315.306352459
 20
147.6143033552
  0
VERTEX
  8
0
 62
9
  6
CONTINUOUS
 10
315.2871377452
 20
147.5080330215
  0
VERTEX
  8
0
 62
9
  6
CONTINUOUS
 10
315.2302320105
 20
147.405846591
  0
VERTEX
  8
0
 62
9
  6
CONTINUOUS
 10
315.137822104
 20
147.3116710306
  0
VERTEX
  8
0
 62
9
  6
CONTINUOUS
 10
315.0134592822
 20
147.2291254562
  0
VERTEX
  8
0
 62
9
  6
CONTINUOUS
 10
314.861922735
 20
147.16138205
  0
VERTEX
  8
0
 62
9
  6
CONTINUOUS
 10
314.6890359266
 20
147.1110441556
  0
VERTEX
  8
0
 62
9
  6
CONTINUOUS
 10
314.5014428018
 20
147.0800462323
  0
VERTEX
  8
0
 62
9
  6
CONTINUOUS
 10
314.306352459
 20
147.0695795142
  0
SEQEND
  0
POLYLINE
  8
0
 62
9
  6
CONTINUOUS
 66
1
 70
0
  0
VERTEX
  8
0
 62
9
  6
CONTINUOUS
 10
314.746752658
 20
161.9972675205
  0
VERTEX
  8
0
 62
9
  6
CONTINUOUS
 10
314.7016375258
 20
161.9606309961
  0
VERTEX
  8
0
 62
9
  6
CONTINUOUS
 10
314.6279703088
 20
161.9262557196
  0
VERTEX
  8
0
 62
9
  6
CONTINUOUS
 10
314.5279893481
 20
161.8951861664
  0
VERTEX
  8
0
 62
9
  6
CONTINUOUS
 10
314.4047325147
 20
161.8683663691
  0
VERTEX
  8
0
 62
9
  6
CONTINUOUS
 10
314.261944905
 20
161.8466112338
  0
VERTEX
  8
0
 62
9
  6
CONTINUOUS
 10
314.1039650483
 20
161.8305817791
  0
VERTEX
  8
0
 62
9
  6
CONTINUOUS
 10
313.9355930827
 20
161.820765052
  0
VERTEX
  8
0
 62
9
  6
CONTINUOUS
 10
313.761944905
 20
161.8174593287
  0
SEQEND
  0
POLYLINE
  8
0
 62
9
  6
CONTINUOUS
 66
1
 70
0
  0
VERTEX
  8
0
 62
9
  6
CONTINUOUS
 10
315.306352459
 20
203.2197130406
  0
VERTEX
  8
0
 62
9
  6
CONTINUOUS
 10
315.2871377293
 20
203.3259834178
  0
VERTEX
  8
0
 62
9
  6
CONTINUOUS
 10
315.2302319583
 20
203.4281698734
  0
VERTEX
  8
0
 62
9
  6
CONTINUOUS
 10
315.1378220133
 20
203.5223454392
  0
VERTEX
  8
0
 62
9
  6
CONTINUOUS
 10
315.0134591647
 20
203.6048910035
  0
VERTEX
  8
0
 62
9
  6
CONTINUOUS
 10
314.861922614
 20
203.6726343899
  0
VERTEX
  8
0
 62
9
  6
CONTINUOUS
 10
314.6890358269
 20
203.7229722627
  0
VERTEX
  8
0
 62
9
  6
CONTINUOUS
 10
314.5014427428
 20
203.7539701698
  0
VERTEX
  8
0
 62
9
  6
CONTINUOUS
 10
314.306352459
 20
203.7644368816
  0
SEQEND
  0
LINE
  8
0
 62
9
  6
CONTINUOUS
 10
314.306352459
 20
218.0005293792
 11
313.7619460258
 21
221.2168760625
  0
LINE
  8
0
 62
9
  6
CONTINUOUS
 10
315.3037010447
 20
218.3625115984
 11
314.746752658
 21
221.656086961
  0
POLYLINE
  8
0
 62
9
  6
CONTINUOUS
 66
1
 70
0
  0
VERTEX
  8
0
 62
9
  6
CONTINUOUS
 10
315.306352459
 20
207.5335097026
  0
VERTEX
  8
0
 62
9
  6
CONTINUOUS
 10
315.2871377452
 20
207.6562686698
  0
VERTEX
  8
0
 62
9
  6
CONTINUOUS
 10
315.2302320105
 20
207.7743100859
  0
VERTEX
  8
0
 62
9
  6
CONTINUOUS
 10
315.137822104
 20
207.8830976856
  0
VERTEX
  8
0
 62
9
  6
CONTINUOUS
 10
315.0134592822
 20
207.9784508205
  0
VERTEX
  8
0
 62
9
  6
CONTINUOUS
 10
314.861922735
 20
208.0567051206
  0
VERTEX
  8
0
 62
9
  6
CONTINUOUS
 10
314.6890359266
 20
208.1148533141
  0
VERTEX
  8
0
 62
9
  6
CONTINUOUS
 10
314.5014428018
 20
208.1506607959
  0
VERTEX
  8
0
 62
9
  6
CONTINUOUS
 10
314.306352459
 20
208.1627515033
  0
SEQEND
  0
LINE
  8
1_AXIS
 62
7
  6
CONTINUOUS
 10
325.456352459
 20
204.9170081979
 11
325.456352459
 21
145.9170081979
  0
LINE
  8
0
 62
9
  6
CONTINUOUS
 10
313.7619463249
 20
113.8842044056
 11
314.306352459
 21
117.1005589156
  0
LINE
  8
0
 62
9
  6
CONTINUOUS
 10
314.746752658
 20
114.0203517736
 11
315.3036990278
 21
117.3116246367
  0
LINE
  8
0
 62
9
  6
CONTINUOUS
 10
314.7270572475
 20
122.2018889805
 11
314.746752658
 21
122.3142089822
  0
LINE
  8
1_AXIS
 62
7
  6
CONTINUOUS
 10
314.746752658
 20
113.7433600202
 11
315.306352459
 21
116.9170081979
  0
LINE
  8
0
 62
7
  6
CONTINUOUS
 10
315.3036995694
 20
124.3460166995
 11
315.283492684
 21
124.2339182294
  0
POLYLINE
  8
0
 62
9
  6
CONTINUOUS
 66
1
 70
0
  0
VERTEX
  8
0
 62
9
  6
CONTINUOUS
 10
314.746752658
 20
199.9424871521
  0
VERTEX
  8
0
 62
9
  6
CONTINUOUS
 10
314.7016375258
 20
200.0094428653
  0
VERTEX
  8
0
 62
9
  6
CONTINUOUS
 10
314.6279703088
 20
200.0722659958
  0
VERTEX
  8
0
 62
9
  6
CONTINUOUS
 10
314.5279893481
 20
200.1290476947
  0
VERTEX
  8
0
 62
9
  6
CONTINUOUS
 10
314.4047325147
 20
200.1780626786
  0
VERTEX
  8
0
 62
9
  6
CONTINUOUS
 10
314.261944905
 20
200.2178216521
  0
VERTEX
  8
0
 62
9
  6
CONTINUOUS
 10
314.1039650483
 20
200.247116559
  0
VERTEX
  8
0
 62
9
  6
CONTINUOUS
 10
313.9355930827
 20
200.2650572883
  0
VERTEX
  8
0
 62
9
  6
CONTINUOUS
 10
313.761944905
 20
200.27109872
  0
SEQEND
  0
LINE
  8
0
 62
7
  6
CONTINUOUS
 10
315.3036995694
 20
226.4879996867
 11
315.2834926854
 21
226.6000981515
  0
LINE
  8
0
 62
9
  6
CONTINUOUS
 10
314.7260897046
 20
228.6356680213
 11
314.746752658
 21
228.5198074135
  0
LINE
  8
1_AXIS
 62
7
  6
CONTINUOUS
 10
314.746752658
 20
237.0906563755
 11
315.306352459
 21
233.9170081979
  0
LINE
  8
0
 62
9
  6
CONTINUOUS
 10
314.306352459
 20
233.7334653069
 11
313.7619460258
 21
236.9498119902
  0
LINE
  8
0
 62
9
  6
CONTINUOUS
 10
315.3037010447
 20
233.5223840861
 11
314.746752658
 21
236.8136637405
  0
POLYLINE
  8
0
 62
7
  6
CONTINUOUS
 66
1
 70
0
  0
VERTEX
  8
0
 62
7
  6
CONTINUOUS
 10
315.3036995694
 20
117.3116256454
  0
VERTEX
  8
0
 62
7
  6
CONTINUOUS
 10
315.3045060728
 20
117.3148564236
  0
VERTEX
  8
0
 62
7
  6
CONTINUOUS
 10
315.3051694681
 20
117.3172203298
  0
VERTEX
  8
0
 62
7
  6
CONTINUOUS
 10
315.3056886773
 20
117.3187188159
  0
VERTEX
  8
0
 62
7
  6
CONTINUOUS
 10
315.3060589925
 20
117.3193454363
  0
VERTEX
  8
0
 62
7
  6
CONTINUOUS
 10
315.3062793795
 20
117.3190937039
  0
VERTEX
  8
0
 62
7
  6
CONTINUOUS
 10
315.306352459
 20
117.3179650269
  0
SEQEND
  0
POLYLINE
  8
0
 62
9
  6
CONTINUOUS
 66
1
 70
0
  0
VERTEX
  8
0
 62
9
  6
CONTINUOUS
 10
314.746752658
 20
114.0203531234
  0
VERTEX
  8
0
 62
9
  6
CONTINUOUS
 10
314.7016375258
 20
113.852737362
  0
VERTEX
  8
0
 62
9
  6
CONTINUOUS
 10
314.6279703088
 20
113.6954670357
  0
VERTEX
  8
0
 62
9
  6
CONTINUOUS
 10
314.5279893481
 20
113.553320724
  0
VERTEX
  8
0
 62
9
  6
CONTINUOUS
 10
314.4047325147
 20
113.4306174705
  0
VERTEX
  8
0
 62
9
  6
CONTINUOUS
 10
314.261944905
 20
113.3310855515
  0
VERTEX
  8
0
 62
9
  6
CONTINUOUS
 10
314.1039650483
 20
113.2577491939
  0
VERTEX
  8
0
 62
9
  6
CONTINUOUS
 10
313.9355930827
 20
113.212836686
  0
VERTEX
  8
0
 62
9
  6
CONTINUOUS
 10
313.761944905
 20
113.1977126715
  0
SEQEND
  0
LINE
  8
0
 62
7
  6
CONTINUOUS
 10
314.7265743245
 20
122.2001184387
 11
315.2834923124
 21
124.233856728
  0
LINE
  8
0
 62
9
  6
CONTINUOUS
 10
315.3036988565
 20
124.3460111313
 11
314.746752658
 21
122.3142168365
  0
LINE
  8
0
 62
9
  6
CONTINUOUS
 10
314.7016375258
 20
122.1692358381
 11
314.746752658
 21
122.3142089822
  0
POLYLINE
  8
0
 62
9
  6
CONTINUOUS
 66
1
 70
0
  0
VERTEX
  8
0
 62
9
  6
CONTINUOUS
 10
315.306352459
 20
121.2894026108
  0
VERTEX
  8
0
 62
9
  6
CONTINUOUS
 10
315.2871377394
 20
121.2291163859
  0
VERTEX
  8
0
 62
9
  6
CONTINUOUS
 10
315.2302319915
 20
121.1711469268
  0
VERTEX
  8
0
 62
9
  6
CONTINUOUS
 10
315.1378220713
 20
121.1177219673
  0
VERTEX
  8
0
 62
9
  6
CONTINUOUS
 10
315.0134592402
 20
121.0708945986
  0
VERTEX
  8
0
 62
9
  6
CONTINUOUS
 10
314.861922692
 20
121.0324643703
  0
VERTEX
  8
0
 62
9
  6
CONTINUOUS
 10
314.6890358914
 20
121.0039081345
  0
VERTEX
  8
0
 62
9
  6
CONTINUOUS
 10
314.501442781
 20
120.9863232914
  0
VERTEX
  8
0
 62
9
  6
CONTINUOUS
 10
314.306352459
 20
120.9803856165
  0
SEQEND
  0
POLYLINE
  8
0
 62
9
  6
CONTINUOUS
 66
1
 70
0
  0
VERTEX
  8
0
 62
9
  6
CONTINUOUS
 10
314.746752658
 20
129.1779327075
  0
VERTEX
  8
0
 62
9
  6
CONTINUOUS
 10
314.7016375258
 20
129.0516978526
  0
VERTEX
  8
0
 62
9
  6
CONTINUOUS
 10
314.6279703088
 20
128.9332543563
  0
VERTEX
  8
0
 62
9
  6
CONTINUOUS
 10
314.5279893481
 20
128.8262010643
  0
VERTEX
  8
0
 62
9
  6
CONTINUOUS
 10
314.4047325147
 20
128.7337907368
  0
VERTEX
  8
0
 62
9
  6
CONTINUOUS
 10
314.261944905
 20
128.6588312148
  0
VERTEX
  8
0
 62
9
  6
CONTINUOUS
 10
314.1039650483
 20
128.6036001055
  0
VERTEX
  8
0
 62
9
  6
CONTINUOUS
 10
313.9355930827
 20
128.569775578
  0
VERTEX
  8
0
 62
9
  6
CONTINUOUS
 10
313.761944905
 20
128.5583853737
  0
SEQEND
  0
POLYLINE
  8
0
 62
9
  6
CONTINUOUS
 66
1
 70
0
  0
VERTEX
  8
0
 62
9
  6
CONTINUOUS
 10
294.850760013
 20
200.8734332717
  0
VERTEX
  8
0
 62
9
  6
CONTINUOUS
 10
294.6672631675
 20
200.8559559157
  0
VERTEX
  8
0
 62
9
  6
CONTINUOUS
 10
294.4905911771
 20
200.8044988775
  0
VERTEX
  8
0
 62
9
  6
CONTINUOUS
 10
294.3257393957
 20
200.7202534671
  0
VERTEX
  8
0
 62
9
  6
CONTINUOUS
 10
294.1782532165
 20
200.6054829017
  0
VERTEX
  8
0
 62
9
  6
CONTINUOUS
 10
294.0551307967
 20
200.4653916877
  0
VERTEX
  8
0
 62
9
  6
CONTINUOUS
 10
293.9598702538
 20
200.3041782322
  0
VERTEX
  8
0
 62
9
  6
CONTINUOUS
 10
293.8955763817
 20
200.1271822491
  0
VERTEX
  8
0
 62
9
  6
CONTINUOUS
 10
293.86595226
 20
199.9424871521
  0
SEQEND
  0
POLYLINE
  8
0
 62
9
  6
CONTINUOUS
 66
1
 70
0
  0
VERTEX
  8
0
 62
9
  6
CONTINUOUS
 10
294.850760013
 20
200.27109872
  0
VERTEX
  8
0
 62
9
  6
CONTINUOUS
 10
294.6771118354
 20
200.2650572883
  0
VERTEX
  8
0
 62
9
  6
CONTINUOUS
 10
294.5087398697
 20
200.247116559
  0
VERTEX
  8
0
 62
9
  6
CONTINUOUS
 10
294.350760013
 20
200.2178216521
  0
VERTEX
  8
0
 62
9
  6
CONTINUOUS
 10
294.2079724033
 20
200.1780626786
  0
VERTEX
  8
0
 62
9
  6
CONTINUOUS
 10
294.0847155699
 20
200.1290476947
  0
VERTEX
  8
0
 62
9
  6
CONTINUOUS
 10
293.9847346092
 20
200.0722659958
  0
VERTEX
  8
0
 62
9
  6
CONTINUOUS
 10
293.9110673922
 20
200.0094428653
  0
VERTEX
  8
0
 62
9
  6
CONTINUOUS
 10
293.86595226
 20
199.9424871521
  0
SEQEND
  0
LINE
  8
0
 62
9
  6
CONTINUOUS
 10
314.746752658
 20
199.9424826302
 11
315.3037010177
 21
199.9461975943
  0
LINE
  8
0
 62
9
  6
CONTINUOUS
 10
294.850760013
 20
200.27109872
 11
313.761944905
 21
200.27109872
  0
LINE
  8
0
 62
7
  6
CONTINUOUS
 10
294.306352459
 20
200.8734332717
 11
314.306352459
 21
200.8734332717
  0
LINE
  8
0
 62
9
  6
CONTINUOUS
 10
293.3090039004
 20
199.9461975943
 11
293.86595226
 21
199.9424826302
  0
POLYLINE
  8
0
 62
9
  6
CONTINUOUS
 66
1
 70
0
  0
VERTEX
  8
0
 62
9
  6
CONTINUOUS
 10
313.761944905
 20
200.8734332717
  0
VERTEX
  8
0
 62
9
  6
CONTINUOUS
 10
313.9461601518
 20
200.8558672413
  0
VERTEX
  8
0
 62
9
  6
CONTINUOUS
 10
314.1239035319
 20
200.8037862834
  0
VERTEX
  8
0
 62
9
  6
CONTINUOUS
 10
314.2889305546
 20
200.7190201123
  0
VERTEX
  8
0
 62
9
  6
CONTINUOUS
 10
314.4354434836
 20
200.6045467405
  0
VERTEX
  8
0
 62
9
  6
CONTINUOUS
 10
314.5582950209
 20
200.4643878545
  0
VERTEX
  8
0
 62
9
  6
CONTINUOUS
 10
314.6531691422
 20
200.3034675246
  0
VERTEX
  8
0
 62
9
  6
CONTINUOUS
 10
314.7167327271
 20
200.1274392117
  0
VERTEX
  8
0
 62
9
  6
CONTINUOUS
 10
314.746752658
 20
199.9424871521
  0
SEQEND
  0
POLYLINE
  8
0
 62
9
  6
CONTINUOUS
 66
1
 70
0
  0
VERTEX
  8
0
 62
9
  6
CONTINUOUS
 10
315.306352459
 20
229.5446137849
  0
VERTEX
  8
0
 62
9
  6
CONTINUOUS
 10
315.2871377293
 20
229.6049000255
  0
VERTEX
  8
0
 62
9
  6
CONTINUOUS
 10
315.2302319583
 20
229.6628694938
  0
VERTEX
  8
0
 62
9
  6
CONTINUOUS
 10
315.1378220133
 20
229.7162944553
  0
VERTEX
  8
0
 62
9
  6
CONTINUOUS
 10
315.0134591647
 20
229.7631218205
  0
VERTEX
  8
0
 62
9
  6
CONTINUOUS
 10
314.861922614
 20
229.8015520416
  0
VERTEX
  8
0
 62
9
  6
CONTINUOUS
 10
314.6890358269
 20
229.8301082695
  0
VERTEX
  8
0
 62
9
  6
CONTINUOUS
 10
314.5014427428
 20
229.8476931068
  0
VERTEX
  8
0
 62
9
  6
CONTINUOUS
 10
314.306352459
 20
229.8536307793
  0
SEQEND
  0
POLYLINE
  8
0
 62
9
  6
CONTINUOUS
 66
1
 70
0
  0
VERTEX
  8
0
 62
9
  6
CONTINUOUS
 10
314.746752658
 20
228.5198074135
  0
VERTEX
  8
0
 62
9
  6
CONTINUOUS
 10
314.7016375258
 20
228.6647805576
  0
VERTEX
  8
0
 62
9
  6
CONTINUOUS
 10
314.6279703088
 20
228.8008057946
  0
SEQEND
  0
LINE
  8
0
 62
9
  6
CONTINUOUS
 10
314.746752658
 20
228.5198049072
 11
315.3037010177
 21
226.4879782527
  0
LINE
  8
0
 62
7
  6
CONTINUOUS
 10
315.2834923138
 20
226.600159653
 11
314.7260898668
 21
228.635668112
  0
POLYLINE
  8
0
 62
7
  6
CONTINUOUS
 66
1
 70
0
  0
VERTEX
  8
0
 62
7
  6
CONTINUOUS
 10
315.3036995693
 20
233.5223907379
  0
VERTEX
  8
0
 62
7
  6
CONTINUOUS
 10
315.3045060728
 20
233.5191599676
  0
VERTEX
  8
0
 62
7
  6
CONTINUOUS
 10
315.3051694681
 20
233.516796066
  0
VERTEX
  8
0
 62
7
  6
CONTINUOUS
 10
315.3056886773
 20
233.5152975807
  0
VERTEX
  8
0
 62
7
  6
CONTINUOUS
 10
315.3060589925
 20
233.5146709594
  0
VERTEX
  8
0
 62
7
  6
CONTINUOUS
 10
315.3062793795
 20
233.5149226919
  0
VERTEX
  8
0
 62
7
  6
CONTINUOUS
 10
315.306352459
 20
233.5160513689
  0
SEQEND
  0
POLYLINE
  8
0
 62
7
  6
CONTINUOUS
 66
1
 70
0
  0
VERTEX
  8
0
 62
7
  6
CONTINUOUS
 10
314.6382867717
 20
121.9820354336
  0
VERTEX
  8
0
 62
7
  6
CONTINUOUS
 10
314.7097402232
 20
122.144845778
  0
VERTEX
  8
0
 62
7
  6
CONTINUOUS
 10
314.7270572475
 20
122.2018889805
  0
SEQEND
  0
POLYLINE
  8
0
 62
7
  6
CONTINUOUS
 66
1
 70
0
  0
VERTEX
  8
0
 62
7
  6
CONTINUOUS
 10
293.4050128831
 20
132.5901237172
  0
VERTEX
  8
0
 62
7
  6
CONTINUOUS
 10
293.50147986
 20
132.6469946905
  0
VERTEX
  8
0
 62
7
  6
CONTINUOUS
 10
293.6260528413
 20
132.6994947543
  0
VERTEX
  8
0
 62
7
  6
CONTINUOUS
 10
293.7743288031
 20
132.7458945519
  0
VERTEX
  8
0
 62
7
  6
CONTINUOUS
 10
293.9411005778
 20
132.7845066723
  0
VERTEX
  8
0
 62
7
  6
CONTINUOUS
 10
294.1205326815
 20
132.8138175572
  0
VERTEX
  8
0
 62
7
  6
CONTINUOUS
 10
294.306352459
 20
132.8334919727
  0
SEQEND
  0
LINE
  8
0
 62
9
  6
CONTINUOUS
 10
294.306352459
 20
203.7644368816
 11
314.306352459
 21
203.7644368816
  0
POLYLINE
  8
0
 62
7
  6
CONTINUOUS
 66
1
 70
0
  0
VERTEX
  8
0
 62
7
  6
CONTINUOUS
 10
293.405012883
 20
218.2438928845
  0
VERTEX
  8
0
 62
7
  6
CONTINUOUS
 10
293.50147986
 20
218.1870219045
  0
VERTEX
  8
0
 62
7
  6
CONTINUOUS
 10
293.6260528414
 20
218.1345218323
  0
VERTEX
  8
0
 62
7
  6
CONTINUOUS
 10
293.7743288033
 20
218.0881220246
  0
VERTEX
  8
0
 62
7
  6
CONTINUOUS
 10
293.941100578
 20
218.0495098928
  0
VERTEX
  8
0
 62
7
  6
CONTINUOUS
 10
294.1205326816
 20
218.0201989959
  0
VERTEX
  8
0
 62
7
  6
CONTINUOUS
 10
294.306352459
 20
218.0005245675
  0
SEQEND
  0
LINE
  8
0
 62
7
  6
CONTINUOUS
 10
314.7260897043
 20
228.6356680226
 11
314.6744200018
 21
228.7794190498
  0
LINE
  8
1_AXIS
 62
7
  6
CONTINUOUS
 10
286.156352459
 20
207.9170081979
 11
293.306352459
 21
207.9170081979
  0
LINE
  8
1_AXIS
 62
7
  6
CONTINUOUS
 10
315.306352459
 20
207.9170081979
 11
322.456352459
 21
207.9170081979
  0
LINE
  8
0
 62
9
  6
CONTINUOUS
 10
294.306352459
 20
208.1627515033
 11
314.306352459
 21
208.1627515033
  0
LINE
  8
0
 62
7
  6
CONTINUOUS
 10
314.6744200018
 20
228.7794190498
 11
314.6001971903
 21
228.9155738909
  0
POLYLINE
  8
0
 62
7
  6
CONTINUOUS
 66
1
 70
0
  0
VERTEX
  8
0
 62
7
  6
CONTINUOUS
 10
315.3036995694
 20
117.3116256454
  0
VERTEX
  8
0
 62
7
  6
CONTINUOUS
 10
315.2726263801
 20
117.2569917016
  0
VERTEX
  8
0
 62
7
  6
CONTINUOUS
 10
315.207692035
 20
117.2075429357
  0
SEQEND
  0
LINE
  8
0
 62
9
  6
CONTINUOUS
 10
294.306352459
 20
214.1206948516
 11
314.306352459
 21
214.1206948516
  0
POLYLINE
  8
0
 62
7
  6
CONTINUOUS
 66
1
 70
0
  0
VERTEX
  8
0
 62
7
  6
CONTINUOUS
 10
315.3036995693
 20
233.5223907379
  0
VERTEX
  8
0
 62
7
  6
CONTINUOUS
 10
315.2726263801
 20
233.5770246819
  0
VERTEX
  8
0
 62
7
  6
CONTINUOUS
 10
315.207692035
 20
233.6264734483
  0
SEQEND
  0
POLYLINE
  8
0
 62
9
  6
CONTINUOUS
 66
1
 70
0
  0
VERTEX
  8
0
 62
9
  6
CONTINUOUS
 10
313.761944905
 20
221.2168760625
  0
VERTEX
  8
0
 62
9
  6
CONTINUOUS
 10
313.9454417506
 20
221.2520217023
  0
VERTEX
  8
0
 62
9
  6
CONTINUOUS
 10
314.1221137411
 20
221.2935948367
  0
VERTEX
  8
0
 62
9
  6
CONTINUOUS
 10
314.2869655227
 20
221.3451846706
  0
VERTEX
  8
0
 62
9
  6
CONTINUOUS
 10
314.4344517018
 20
221.4031544494
  0
VERTEX
  8
0
 62
9
  6
CONTINUOUS
 10
314.5575741215
 20
221.4653529088
  0
VERTEX
  8
0
 62
9
  6
CONTINUOUS
 10
314.6528346643
 20
221.5298638238
  0
VERTEX
  8
0
 62
9
  6
CONTINUOUS
 10
314.7171285363
 20
221.5924522952
  0
VERTEX
  8
0
 62
9
  6
CONTINUOUS
 10
314.746752658
 20
221.6560836883
  0
SEQEND
  0
POLYLINE
  8
0
 62
9
  6
CONTINUOUS
 66
1
 70
0
  0
VERTEX
  8
0
 62
9
  6
CONTINUOUS
 10
294.850760013
 20
221.2168760625
  0
VERTEX
  8
0
 62
9
  6
CONTINUOUS
 10
294.6665447657
 20
221.2506489093
  0
VERTEX
  8
0
 62
9
  6
CONTINUOUS
 10
294.4888013854
 20
221.2940916497
  0
VERTEX
  8
0
 62
9
  6
CONTINUOUS
 10
294.3237743627
 20
221.3456780516
  0
VERTEX
  8
0
 62
9
  6
CONTINUOUS
 10
294.1772614338
 20
221.4035957782
  0
VERTEX
  8
0
 62
9
  6
CONTINUOUS
 10
294.0544098966
 20
221.4658100597
  0
VERTEX
  8
0
 62
9
  6
CONTINUOUS
 10
293.9595357756
 20
221.5301351816
  0
VERTEX
  8
0
 62
9
  6
CONTINUOUS
 10
293.8959721908
 20
221.5943112709
  0
VERTEX
  8
0
 62
9
  6
CONTINUOUS
 10
293.86595226
 20
221.6560836883
  0
SEQEND
  0
POLYLINE
  8
0
 62
9
  6
CONTINUOUS
 66
1
 70
0
  0
VERTEX
  8
0
 62
9
  6
CONTINUOUS
 10
314.6279703088
 20
228.8008057946
  0
VERTEX
  8
0
 62
9
  6
CONTINUOUS
 10
314.5279893481
 20
228.9237500665
  0
VERTEX
  8
0
 62
9
  6
CONTINUOUS
 10
314.4047325147
 20
229.0298777737
  0
SEQEND
  0
POLYLINE
  8
0
 62
7
  6
CONTINUOUS
 66
1
 70
0
  0
VERTEX
  8
0
 62
7
  6
CONTINUOUS
 10
314.6001971903
 20
228.9155738909
  0
VERTEX
  8
0
 62
7
  6
CONTINUOUS
 10
314.5054502575
 20
229.0390212575
  0
VERTEX
  8
0
 62
7
  6
CONTINUOUS
 10
314.3912581187
 20
229.1474430714
  0
VERTEX
  8
0
 62
7
  6
CONTINUOUS
 10
314.2590028855
 20
229.2380086048
  0
VERTEX
  8
0
 62
7
  6
CONTINUOUS
 10
314.1115956235
 20
229.3071714263
  0
SEQEND
  0
POLYLINE
  8
0
 62
9
  6
CONTINUOUS
 66
1
 70
0
  0
VERTEX
  8
0
 62
9
  6
CONTINUOUS
 10
314.4047325147
 20
121.804138622
  0
VERTEX
  8
0
 62
9
  6
CONTINUOUS
 10
314.5279893481
 20
121.9102663293
  0
VERTEX
  8
0
 62
9
  6
CONTINUOUS
 10
314.6279703088
 20
122.0332106011
  0
VERTEX
  8
0
 62
9
  6
CONTINUOUS
 10
314.7016375258
 20
122.1692358381
  0
SEQEND
  0
LINE
  8
0
 62
9
  6
CONTINUOUS
 10
313.7619460258
 20
221.2168760625
 11
294.8507588922
 21
221.2168760625
  0
LINE
  8
0
 62
9
  6
CONTINUOUS
 10
313.761944905
 20
222.2756310221
 11
294.850760013
 21
222.2756310221
  0
POLYLINE
  8
0
 62
9
  6
CONTINUOUS
 66
1
 70
0
  0
VERTEX
  8
0
 62
9
  6
CONTINUOUS
 10
313.761944905
 20
222.2756310221
  0
VERTEX
  8
0
 62
9
  6
CONTINUOUS
 10
313.9355930827
 20
222.2642408177
  0
VERTEX
  8
0
 62
9
  6
CONTINUOUS
 10
314.1039650483
 20
222.2304162903
  0
VERTEX
  8
0
 62
9
  6
CONTINUOUS
 10
314.261944905
 20
222.1751851809
  0
VERTEX
  8
0
 62
9
  6
CONTINUOUS
 10
314.4047325147
 20
222.1002256589
  0
VERTEX
  8
0
 62
9
  6
CONTINUOUS
 10
314.5279893481
 20
222.0078153314
  0
VERTEX
  8
0
 62
9
  6
CONTINUOUS
 10
314.6279703088
 20
221.9007620395
  0
VERTEX
  8
0
 62
9
  6
CONTINUOUS
 10
314.7016375258
 20
221.7823185432
  0
VERTEX
  8
0
 62
9
  6
CONTINUOUS
 10
314.746752658
 20
221.6560836883
  0
SEQEND
  0
POLYLINE
  8
0
 62
7
  6
CONTINUOUS
 66
1
 70
0
  0
VERTEX
  8
0
 62
7
  6
CONTINUOUS
 10
314.1105684232
 20
121.5264622518
  0
VERTEX
  8
0
 62
7
  6
CONTINUOUS
 10
314.2710408237
 20
121.6030153063
  0
VERTEX
  8
0
 62
7
  6
CONTINUOUS
 10
314.4154186442
 20
121.7067759105
  0
VERTEX
  8
0
 62
7
  6
CONTINUOUS
 10
314.5391338737
 20
121.8344578202
  0
VERTEX
  8
0
 62
7
  6
CONTINUOUS
 10
314.6382867717
 20
121.9820354336
  0
SEQEND
  0
POLYLINE
  8
0
 62
9
  6
CONTINUOUS
 66
1
 70
0
  0
VERTEX
  8
0
 62
9
  6
CONTINUOUS
 10
314.4047325147
 20
229.0298777737
  0
VERTEX
  8
0
 62
9
  6
CONTINUOUS
 10
314.261944905
 20
229.1159642796
  0
VERTEX
  8
0
 62
9
  6
CONTINUOUS
 10
314.1039650483
 20
229.1793938894
  0
SEQEND
  0
POLYLINE
  8
0
 62
7
  6
CONTINUOUS
 66
1
 70
0
  0
VERTEX
  8
0
 62
7
  6
CONTINUOUS
 10
315.207692035
 20
117.2075429357
  0
VERTEX
  8
0
 62
7
  6
CONTINUOUS
 10
315.111225058
 20
117.1653217303
  0
VERTEX
  8
0
 62
7
  6
CONTINUOUS
 10
314.9866520766
 20
117.1316144142
  0
VERTEX
  8
0
 62
7
  6
CONTINUOUS
 10
314.8383761147
 20
117.1076848189
  0
VERTEX
  8
0
 62
7
  6
CONTINUOUS
 10
314.67160434
 20
117.0942713208
  0
VERTEX
  8
0
 62
7
  6
CONTINUOUS
 10
314.4921722364
 20
117.0916452422
  0
VERTEX
  8
0
 62
7
  6
CONTINUOUS
 10
314.306352459
 20
117.1005558956
  0
SEQEND
  0
POLYLINE
  8
0
 62
9
  6
CONTINUOUS
 66
1
 70
0
  0
VERTEX
  8
0
 62
9
  6
CONTINUOUS
 10
314.1039650483
 20
121.6546225064
  0
VERTEX
  8
0
 62
9
  6
CONTINUOUS
 10
314.261944905
 20
121.7180521161
  0
VERTEX
  8
0
 62
9
  6
CONTINUOUS
 10
314.4047325147
 20
121.804138622
  0
SEQEND
  0
LINE
  8
0
 62
7
  6
CONTINUOUS
 10
294.6736331714
 20
229.3544793288
 11
294.5021364948
 21
229.3075541439
  0
LINE
  8
0
 62
9
  6
CONTINUOUS
 10
294.6771118354
 20
229.2182393262
 11
294.5087398697
 21
229.1793938894
  0
LINE
  8
0
 62
7
  6
CONTINUOUS
 10
294.850760013
 20
229.3702912979
 11
294.6736331714
 21
229.3544793288
  0
LINE
  8
0
 62
9
  6
CONTINUOUS
 10
294.850760013
 20
229.2313202914
 11
294.6771118354
 21
229.2182393262
  0
LINE
  8
0
 62
9
  6
CONTINUOUS
 10
294.850760013
 20
229.2313202914
 11
313.761944905
 21
229.2313202914
  0
LINE
  8
0
 62
7
  6
CONTINUOUS
 10
294.850760013
 20
229.3702912979
 11
313.761944905
 21
229.3702912979
  0
LINE
  8
0
 62
9
  6
CONTINUOUS
 10
294.306352459
 20
229.8536307793
 11
314.306352459
 21
229.8536307793
  0
POLYLINE
  8
0
 62
9
  6
CONTINUOUS
 66
1
 70
0
  0
VERTEX
  8
0
 62
9
  6
CONTINUOUS
 10
314.1039650483
 20
229.1793938894
  0
VERTEX
  8
0
 62
9
  6
CONTINUOUS
 10
313.9355930827
 20
229.2182393262
  0
VERTEX
  8
0
 62
9
  6
CONTINUOUS
 10
313.761944905
 20
229.2313202914
  0
SEQEND
  0
POLYLINE
  8
0
 62
7
  6
CONTINUOUS
 66
1
 70
0
  0
VERTEX
  8
0
 62
7
  6
CONTINUOUS
 10
314.1115956235
 20
229.3071714263
  0
VERTEX
  8
0
 62
7
  6
CONTINUOUS
 10
313.9524469014
 20
229.3519779118
  0
VERTEX
  8
0
 62
7
  6
CONTINUOUS
 10
313.7861101371
 20
229.369999276
  0
VERTEX
  8
0
 62
7
  6
CONTINUOUS
 10
313.761944905
 20
229.3702910823
  0
SEQEND
  0
POLYLINE
  8
0
 62
7
  6
CONTINUOUS
 66
1
 70
0
  0
VERTEX
  8
0
 62
7
  6
CONTINUOUS
 10
315.207692035
 20
233.6264734483
  0
VERTEX
  8
0
 62
7
  6
CONTINUOUS
 10
315.111225058
 20
233.6686946544
  0
VERTEX
  8
0
 62
7
  6
CONTINUOUS
 10
314.9866520766
 20
233.7024019714
  0
VERTEX
  8
0
 62
7
  6
CONTINUOUS
 10
314.8383761147
 20
233.7263315678
  0
VERTEX
  8
0
 62
7
  6
CONTINUOUS
 10
314.67160434
 20
233.7397450673
  0
VERTEX
  8
0
 62
7
  6
CONTINUOUS
 10
314.4921722364
 20
233.7423711472
  0
VERTEX
  8
0
 62
7
  6
CONTINUOUS
 10
314.306352459
 20
233.7334604951
  0
SEQEND
  0
POLYLINE
  8
0
 62
9
  6
CONTINUOUS
 66
1
 70
0
  0
VERTEX
  8
0
 62
9
  6
CONTINUOUS
 10
313.761944905
 20
236.9498119902
  0
VERTEX
  8
0
 62
9
  6
CONTINUOUS
 10
313.9454417506
 20
236.9741560299
  0
VERTEX
  8
0
 62
9
  6
CONTINUOUS
 10
314.1221137411
 20
236.9839269658
  0
VERTEX
  8
0
 62
9
  6
CONTINUOUS
 10
314.2869655227
 20
236.9834502725
  0
VERTEX
  8
0
 62
9
  6
CONTINUOUS
 10
314.4344517018
 20
236.9704879409
  0
VERTEX
  8
0
 62
9
  6
CONTINUOUS
 10
314.5575741215
 20
236.9461052686
  0
VERTEX
  8
0
 62
9
  6
CONTINUOUS
 10
314.6528346643
 20
236.9109807887
  0
VERTEX
  8
0
 62
9
  6
CONTINUOUS
 10
314.7171285363
 20
236.8641797267
  0
VERTEX
  8
0
 62
9
  6
CONTINUOUS
 10
314.746752658
 20
236.8136632723
  0
SEQEND
  0
LINE
  8
0
 62
9
  6
CONTINUOUS
 10
313.7619460258
 20
236.9498119902
 11
294.8507588922
 21
236.9498119902
  0
LINE
  8
0
 62
9
  6
CONTINUOUS
 10
313.761944905
 20
237.6363037242
 11
294.850760013
 21
237.6363037242
  0
LINE
  8
1_AXIS
 62
7
  6
CONTINUOUS
 10
294.850760013
 20
237.9170081979
 11
313.761944905
 21
237.9170081979
  0
POLYLINE
  8
0
 62
9
  6
CONTINUOUS
 66
1
 70
0
  0
VERTEX
  8
0
 62
9
  6
CONTINUOUS
 10
313.761944905
 20
237.6363037242
  0
VERTEX
  8
0
 62
9
  6
CONTINUOUS
 10
313.9355930827
 20
237.6211797097
  0
VERTEX
  8
0
 62
9
  6
CONTINUOUS
 10
314.1039650483
 20
237.5762672018
  0
VERTEX
  8
0
 62
9
  6
CONTINUOUS
 10
314.261944905
 20
237.5029308443
  0
VERTEX
  8
0
 62
9
  6
CONTINUOUS
 10
314.4047325147
 20
237.4033989253
  0
VERTEX
  8
0
 62
9
  6
CONTINUOUS
 10
314.5279893481
 20
237.2806956718
  0
VERTEX
  8
0
 62
9
  6
CONTINUOUS
 10
314.6279703088
 20
237.13854936
  0
VERTEX
  8
0
 62
9
  6
CONTINUOUS
 10
314.7016375258
 20
236.9812790338
  0
VERTEX
  8
0
 62
9
  6
CONTINUOUS
 10
314.746752658
 20
236.8136632723
  0
SEQEND
  0
POLYLINE
  8
0
 62
9
  6
CONTINUOUS
 66
1
 70
0
  0
VERTEX
  8
0
 62
9
  6
CONTINUOUS
 10
294.850760013
 20
236.9498119902
  0
VERTEX
  8
0
 62
9
  6
CONTINUOUS
 10
294.6665447657
 20
236.9727284331
  0
VERTEX
  8
0
 62
9
  6
CONTINUOUS
 10
294.4888013854
 20
236.9839833712
  0
VERTEX
  8
0
 62
9
  6
CONTINUOUS
 10
294.3237743627
 20
236.9831813981
  0
VERTEX
  8
0
 62
9
  6
CONTINUOUS
 10
294.1772614338
 20
236.9703506901
  0
VERTEX
  8
0
 62
9
  6
CONTINUOUS
 10
294.0544098966
 20
236.9459420162
  0
VERTEX
  8
0
 62
9
  6
CONTINUOUS
 10
293.9595357756
 20
236.9108129048
  0
VERTEX
  8
0
 62
9
  6
CONTINUOUS
 10
293.8959721908
 20
236.8661975139
  0
VERTEX
  8
0
 62
9
  6
CONTINUOUS
 10
293.86595226
 20
236.8136632723
  0
SEQEND
  0
ARC
  8
0
 62
9
  6
CONTINUOUS
 10
97.0357398784
 20
138.6755794584
 40
7.3499985936
 50
342.0
 51
38.9942060893
  0
ARC
  8
0
 62
7
  6
CONTINUOUS
 10
97.0357398784
 20
138.6755794584
 40
6.35
 50
342.0
 51
38.9942060893
  0
ARC
  8
0
 62
7
  6
CONTINUOUS
 10
101.7203162297
 20
129.3081233389
 40
1.0
 50
162.0
 51
228.5676847243
  0
ARC
  8
0
 62
9
  6
CONTINUOUS
 10
93.4502498394
 20
143.6105831241
 40
7.349998596
 50
33.0057939107
 51
90.0
  0
ARC
  8
0
 62
9
  6
CONTINUOUS
 10
84.1067209397
 20
172.3670081979
 40
7.3499985882
 50
306.0
 51
2.9942060893
  0
ARC
  8
0
 62
7
  6
CONTINUOUS
 10
84.1067209397
 20
172.3670081979
 40
6.35
 50
306.0
 51
2.9942060893
  0
ARC
  8
0
 62
7
  6
CONTINUOUS
 10
93.4502498394
 20
143.6105831241
 40
6.35
 50
33.0057939107
 51
90.0
  0
ARC
  8
0
 62
7
  6
CONTINUOUS
 10
82.3905702608
 20
162.0350521106
 40
1.0
 50
126.0
 51
192.5676847243
  0
ARC
  8
0
 62
7
  6
CONTINUOUS
 10
85.9888833598
 20
150.9605831241
 40
1.0
 50
203.4323152757
 51
270.0
  0
ARC
  8
0
 62
9
  6
CONTINUOUS
 10
127.2988608621
 20
119.0181277022
 40
7.3499985936
 50
18.0
 51
74.9942060893
  0
ARC
  8
0
 62
9
  6
CONTINUOUS
 10
121.4974161127
 20
120.9031313679
 40
7.3499985936
 50
69.0057939107
 51
126.0
  0
ARC
  8
0
 62
7
  6
CONTINUOUS
 10
127.2988608621
 20
119.0181277022
 40
6.35
 50
18.0
 51
74.9942060893
  0
ARC
  8
0
 62
7
  6
CONTINUOUS
 10
121.4974161127
 20
120.9031313679
 40
6.35
 50
69.0057939107
 51
126.0
  0
ARC
  8
0
 62
7
  6
CONTINUOUS
 10
136.5948153003
 20
114.1932214
 40
1.0
 50
198.0
 51
264.5676847243
  0
ARC
  8
0
 62
7
  6
CONTINUOUS
 10
111.1408222251
 20
122.4637250979
 40
1.0
 50
239.4323152757
 51
306.0
  0
ARC
  8
0
 62
9
  6
CONTINUOUS
 10
84.1067209397
 20
178.4670081979
 40
7.3499986021
 50
357.0057939107
 51
54.0
  0
ARC
  8
0
 62
9
  6
CONTINUOUS
 10
93.4502498394
 20
207.2234332717
 40
7.3499985929
 50
270.0
 51
326.9942060893
  0
ARC
  8
0
 62
7
  6
CONTINUOUS
 10
93.4502498394
 20
207.2234332717
 40
6.35
 50
270.0
 51
326.9942060893
  0
ARC
  8
0
 62
7
  6
CONTINUOUS
 10
84.1067209397
 20
178.4670081979
 40
6.35
 50
357.0057939107
 51
54.0
  0
ARC
  8
0
 62
7
  6
CONTINUOUS
 10
85.9888833598
 20
199.8734332717
 40
1.0
 50
90.0
 51
156.5676847243
  0
ARC
  8
0
 62
7
  6
CONTINUOUS
 10
82.3905702608
 20
188.7989642852
 40
1.0
 50
167.4323152757
 51
234.0
  0
ARC
  8
0
 62
9
  6
CONTINUOUS
 10
97.0357398784
 20
212.1584369374
 40
7.3499985936
 50
321.0057939107
 51
18.0
  0
ARC
  8
0
 62
7
  6
CONTINUOUS
 10
97.0357398784
 20
212.1584369374
 40
6.35
 50
321.0057939107
 51
18.0
  0
ARC
  8
0
 62
7
  6
CONTINUOUS
 10
101.7203162297
 20
221.5258930569
 40
1.0
 50
131.4323152757
 51
198.0
  0
ARC
  8
0
 62
9
  6
CONTINUOUS
 10
121.4974161127
 20
229.9308850279
 40
7.3499985936
 50
234.0
 51
290.9942060893
  0
ARC
  8
0
 62
9
  6
CONTINUOUS
 10
127.2988608621
 20
231.8158886936
 40
7.3499985936
 50
285.0057939107
 51
342.0
  0
ARC
  8
0
 62
7
  6
CONTINUOUS
 10
127.2988608621
 20
231.8158886936
 40
6.35
 50
285.0057939107
 51
342.0
  0
ARC
  8
0
 62
7
  6
CONTINUOUS
 10
121.4974161127
 20
229.9308850279
 40
6.35
 50
234.0
 51
290.9942060893
  0
ARC
  8
0
 62
7
  6
CONTINUOUS
 10
136.5948153003
 20
236.6407949958
 40
1.0
 50
95.4323152757
 51
162.0
  0
ARC
  8
0
 62
7
  6
CONTINUOUS
 10
111.1408222251
 20
228.3702912979
 40
1.0
 50
54.0
 51
120.5676847243
  0
ARC
  8
0
 62
9
  6
CONTINUOUS
 10
163.3366002807
 20
120.9031313679
 40
7.3499985936
 50
54.0
 51
110.9942060893
  0
ARC
  8
0
 62
9
  6
CONTINUOUS
 10
157.5351555313
 20
119.0181277022
 40
7.3499985936
 50
105.0057939107
 51
162.0
  0
ARC
  8
0
 62
7
  6
CONTINUOUS
 10
163.3366002807
 20
120.9031313679
 40
6.35
 50
54.0
 51
110.9942060893
  0
ARC
  8
0
 62
7
  6
CONTINUOUS
 10
157.5351555313
 20
119.0181277022
 40
6.35
 50
105.0057939107
 51
162.0
  0
ARC
  8
0
 62
7
  6
CONTINUOUS
 10
173.6931941683
 20
122.4637250979
 40
1.0
 50
234.0
 51
300.5676847243
  0
ARC
  8
0
 62
7
  6
CONTINUOUS
 10
148.2392010931
 20
114.1932214
 40
1.0
 50
275.4323152757
 51
342.0
  0
ARC
  8
0
 62
9
  6
CONTINUOUS
 10
187.7982765151
 20
138.6755794584
 40
7.3499985936
 50
141.0057939107
 51
198.0
  0
ARC
  8
0
 62
7
  6
CONTINUOUS
 10
187.7982765151
 20
138.6755794584
 40
6.35
 50
141.0057939107
 51
198.0
  0
ARC
  8
0
 62
7
  6
CONTINUOUS
 10
183.1137001638
 20
129.3081233389
 40
1.0
 50
311.4323152757
 51
18.0
  0
ARC
  8
0
 62
9
  6
CONTINUOUS
 10
200.7272954538
 20
172.3670081979
 40
7.3499986021
 50
177.0057939107
 51
234.0
  0
ARC
  8
0
 62
9
  6
CONTINUOUS
 10
191.3837665541
 20
143.6105831241
 40
7.3499985929
 50
90.0
 51
146.9942060893
  0
ARC
  8
0
 62
7
  6
CONTINUOUS
 10
200.7272954538
 20
172.3670081979
 40
6.35
 50
177.0057939107
 51
234.0
  0
ARC
  8
0
 62
7
  6
CONTINUOUS
 10
191.3837665541
 20
143.6105831241
 40
6.35
 50
90.0
 51
146.9942060893
  0
ARC
  8
0
 62
7
  6
CONTINUOUS
 10
202.4434461327
 20
162.0350521106
 40
1.0
 50
347.4323152757
 51
54.0
  0
ARC
  8
0
 62
7
  6
CONTINUOUS
 10
198.8451330336
 20
150.9605831241
 40
1.0
 50
270.0
 51
336.5676847243
  0
ARC
  8
0
 62
7
  6
CONTINUOUS
 10
142.4170081967
 20
175.4170081979
 40
62.5
 50
120.5676847243
 51
131.4323152757
  0
ARC
  8
0
 62
7
  6
CONTINUOUS
 10
142.4170081967
 20
175.4170081979
 40
62.5
 50
156.5676847243
 51
167.4323152757
  0
ARC
  8
0
 62
7
  6
CONTINUOUS
 10
142.4170081967
 20
175.4170081979
 40
62.5
 50
192.5676847243
 51
203.4323152757
  0
ARC
  8
0
 62
7
  6
CONTINUOUS
 10
142.4170081967
 20
175.4170081979
 40
62.5
 50
12.5676847243
 51
23.4323152757
  0
ARC
  8
0
 62
7
  6
CONTINUOUS
 10
142.4170081967
 20
175.4170081979
 40
62.5
 50
48.5676847243
 51
59.4323152757
  0
ARC
  8
0
 62
7
  6
CONTINUOUS
 10
142.4170081967
 20
175.4170081979
 40
62.5
 50
228.5676847243
 51
239.4323152757
  0
ARC
  8
0
 62
7
  6
CONTINUOUS
 10
142.4170081967
 20
175.4170081979
 40
62.5
 50
264.5676847243
 51
275.4323152757
  0
ARC
  8
0
 62
7
  6
CONTINUOUS
 10
142.4170081967
 20
175.4170081979
 40
62.5
 50
300.5676847243
 51
311.4323152757
  0
ARC
  8
0
 62
7
  6
CONTINUOUS
 10
142.4170081967
 20
175.4170081979
 40
62.5
 50
336.5676847243
 51
347.4323152757
  0
ARC
  8
1_AXIS
 62
7
  6
CONTINUOUS
 10
142.4170081967
 20
175.4170081979
 40
62.5
 50
192.5676847243
 51
203.4323152757
  0
ARC
  8
1_AXIS
 62
7
  6
CONTINUOUS
 10
142.4170081967
 20
175.4170081979
 40
62.5
 50
84.5676847243
 51
95.4323152757
  0
ARC
  8
0
 62
7
  6
CONTINUOUS
 10
142.4170081967
 20
175.4170081979
 40
62.5
 50
84.5676847243
 51
95.4323152757
  0
ARC
  8
1_AXIS
 62
7
  6
CONTINUOUS
 10
142.4170081967
 20
175.4170081979
 40
62.5
 50
48.5676847243
 51
59.4323152757
  0
ARC
  8
1_AXIS
 62
7
  6
CONTINUOUS
 10
142.4170081967
 20
175.4170081979
 40
62.5
 50
12.5676847243
 51
23.4323152757
  0
ARC
  8
1_AXIS
 62
7
  6
CONTINUOUS
 10
142.4170081967
 20
175.4170081979
 40
62.5
 50
336.5676847243
 51
347.4323152757
  0
ARC
  8
1_AXIS
 62
7
  6
CONTINUOUS
 10
142.4170081967
 20
175.4170081979
 40
62.5
 50
300.5676847243
 51
311.4323152757
  0
ARC
  8
1_AXIS
 62
7
  6
CONTINUOUS
 10
142.4170081967
 20
175.4170081979
 40
62.5
 50
264.5676847243
 51
275.4323152757
  0
ARC
  8
1_AXIS
 62
7
  6
CONTINUOUS
 10
142.4170081967
 20
175.4170081979
 40
62.5
 50
228.5676847243
 51
239.4323152757
  0
ARC
  8
1_AXIS
 62
7
  6
CONTINUOUS
 10
142.4170081967
 20
175.4170081979
 40
62.5
 50
156.5676847243
 51
167.4323152757
  0
ARC
  8
0
 62
9
  6
CONTINUOUS
 10
142.4170081967
 20
175.4170081979
 40
61.6736481777
 50
120.5676893028
 51
131.4323106811
  0
ARC
  8
0
 62
9
  6
CONTINUOUS
 10
142.4170081967
 20
175.4170081979
 40
61.6736481777
 50
156.5676893028
 51
167.4323106811
  0
ARC
  8
0
 62
9
  6
CONTINUOUS
 10
142.4170081967
 20
175.4170081979
 40
61.6736481777
 50
192.5676893028
 51
203.432306403
  0
ARC
  8
0
 62
9
  6
CONTINUOUS
 10
142.4170081967
 20
175.4170081979
 40
61.6736481777
 50
228.5684349306
 51
239.4323009278
  0
ARC
  8
0
 62
9
  6
CONTINUOUS
 10
142.4170081967
 20
175.4170081979
 40
61.6736481777
 50
264.5676979706
 51
275.4323038641
  0
ARC
  8
0
 62
9
  6
CONTINUOUS
 10
142.4170081967
 20
175.4170081979
 40
61.6736481777
 50
300.5676958765
 51
311.4323030877
  0
ARC
  8
0
 62
9
  6
CONTINUOUS
 10
142.4170081967
 20
175.4170081979
 40
61.6736481777
 50
336.5676984803
 51
347.4315493381
  0
ARC
  8
0
 62
9
  6
CONTINUOUS
 10
142.4170081967
 20
175.4170081979
 40
61.6736481777
 50
12.567693481
 51
23.4323106811
  0
ARC
  8
0
 62
9
  6
CONTINUOUS
 10
142.4170081967
 20
175.4170081979
 40
61.6736481777
 50
84.5676893028
 51
95.4323106811
  0
ARC
  8
0
 62
9
  6
CONTINUOUS
 10
142.4170081967
 20
175.4170081979
 40
61.6736481777
 50
48.5676893028
 51
59.4323106811
  0
ARC
  8
0
 62
7
  6
CONTINUOUS
 10
142.4170081967
 20
175.4170081979
 40
58.5
 50
335.2879239273
 51
348.7120760727
  0
ARC
  8
0
 62
7
  6
CONTINUOUS
 10
142.4170081967
 20
175.4170081979
 40
58.5
 50
11.2879239273
 51
24.7120760727
  0
ARC
  8
0
 62
7
  6
CONTINUOUS
 10
142.4170081967
 20
175.4170081979
 40
58.5
 50
47.2879239273
 51
60.7120760727
  0
ARC
  8
0
 62
7
  6
CONTINUOUS
 10
142.4170081967
 20
175.4170081979
 40
58.5
 50
83.2879239273
 51
96.7120760727
  0
ARC
  8
0
 62
7
  6
CONTINUOUS
 10
142.4170081967
 20
175.4170081979
 40
58.5
 50
119.2879239273
 51
132.7120760727
  0
ARC
  8
0
 62
7
  6
CONTINUOUS
 10
142.4170081967
 20
175.4170081979
 40
58.5
 50
155.2879239273
 51
168.7120760727
  0
ARC
  8
0
 62
7
  6
CONTINUOUS
 10
142.4170081967
 20
175.4170081979
 40
58.5
 50
191.2879239273
 51
204.7120760727
  0
ARC
  8
0
 62
7
  6
CONTINUOUS
 10
142.4170081967
 20
175.4170081979
 40
58.5
 50
227.2879239273
 51
240.7120760727
  0
ARC
  8
0
 62
7
  6
CONTINUOUS
 10
142.4170081967
 20
175.4170081979
 40
58.5
 50
263.2879239273
 51
276.7120760727
  0
ARC
  8
0
 62
7
  6
CONTINUOUS
 10
142.4170081967
 20
175.4170081979
 40
58.5
 50
299.2879239273
 51
312.7120760727
  0
ARC
  8
0
 62
7
  6
CONTINUOUS
 10
142.4170081967
 20
175.4170081979
 40
52.04
 50
69.0057939107
 51
74.9942060893
  0
ARC
  8
0
 62
7
  6
CONTINUOUS
 10
142.4170081967
 20
175.4170081979
 40
52.04
 50
33.0057939107
 51
38.9942060893
  0
ARC
  8
0
 62
7
  6
CONTINUOUS
 10
142.4170081967
 20
175.4170081979
 40
52.04
 50
357.0057939107
 51
2.9942060893
  0
ARC
  8
0
 62
7
  6
CONTINUOUS
 10
142.4170081967
 20
175.4170081979
 40
52.04
 50
321.0057939107
 51
326.9942060893
  0
ARC
  8
0
 62
7
  6
CONTINUOUS
 10
142.4170081967
 20
175.4170081979
 40
52.04
 50
105.0057939107
 51
110.9942060893
  0
ARC
  8
0
 62
7
  6
CONTINUOUS
 10
142.4170081967
 20
175.4170081979
 40
52.04
 50
285.0057939107
 51
290.9942060893
  0
ARC
  8
0
 62
7
  6
CONTINUOUS
 10
142.4170081967
 20
175.4170081979
 40
52.04
 50
141.0057939107
 51
146.9942060893
  0
ARC
  8
0
 62
7
  6
CONTINUOUS
 10
142.4170081967
 20
175.4170081979
 40
52.04
 50
249.0057939107
 51
254.9942060893
  0
ARC
  8
0
 62
7
  6
CONTINUOUS
 10
142.4170081967
 20
175.4170081979
 40
52.04
 50
177.0057939107
 51
182.9942060893
  0
ARC
  8
0
 62
7
  6
CONTINUOUS
 10
142.4170081967
 20
175.4170081979
 40
52.04
 50
213.0057939107
 51
218.9942060893
  0
ARC
  8
0
 62
9
  6
CONTINUOUS
 10
142.4170081967
 20
175.4170081979
 40
51.0400000719
 50
69.0057939107
 51
74.9942060893
  0
ARC
  8
0
 62
9
  6
CONTINUOUS
 10
142.4170081967
 20
175.4170081979
 40
51.0400000719
 50
33.0057939107
 51
38.9942060893
  0
ARC
  8
0
 62
9
  6
CONTINUOUS
 10
142.4170081967
 20
175.4170081979
 40
51.0400000719
 50
357.0057939107
 51
2.9942060893
  0
ARC
  8
0
 62
9
  6
CONTINUOUS
 10
142.4170081967
 20
175.4170081979
 40
51.0400000719
 50
321.0057939107
 51
326.9942060893
  0
ARC
  8
0
 62
9
  6
CONTINUOUS
 10
142.4170081967
 20
175.4170081979
 40
51.0400000719
 50
285.0057939107
 51
290.9942060893
  0
ARC
  8
0
 62
9
  6
CONTINUOUS
 10
142.4170081967
 20
175.4170081979
 40
51.0400000719
 50
249.0057939107
 51
254.9942060893
  0
ARC
  8
0
 62
9
  6
CONTINUOUS
 10
142.4170081967
 20
175.4170081979
 40
51.0400000719
 50
213.0057939107
 51
218.9942060893
  0
ARC
  8
0
 62
9
  6
CONTINUOUS
 10
142.4170081967
 20
175.4170081979
 40
51.0400000719
 50
177.0057939107
 51
182.9942060893
  0
ARC
  8
0
 62
9
  6
CONTINUOUS
 10
142.4170081967
 20
175.4170081979
 40
51.0400000719
 50
141.0057939107
 51
146.9942060893
  0
ARC
  8
0
 62
9
  6
CONTINUOUS
 10
142.4170081967
 20
175.4170081979
 40
51.0400000719
 50
105.0057939107
 51
110.9942060893
  0
CIRCLE
  8
1_AXIS
 62
9
  6
CONTINUOUS
 10
142.4170081967
 20
175.4170081979
 40
49.3852813742
  0
CIRCLE
  8
1_AXIS
 62
9
  6
CONTINUOUS
 10
142.4170081967
 20
175.4170081979
 40
47.2639610307
  0
CIRCLE
  8
1_AXIS
 62
9
  6
CONTINUOUS
 10
142.4170081967
 20
175.4170081979
 40
43.1213203436
  0
CIRCLE
  8
1_AXIS
 62
9
  6
CONTINUOUS
 10
142.4170081967
 20
175.4170081979
 40
41.0
  0
CIRCLE
  8
1_AXIS
 62
9
  6
CONTINUOUS
 10
142.4170081967
 20
175.4170081979
 40
35.5
  0
CIRCLE
  8
1_AXIS
 62
7
  6
CONTINUOUS
 10
142.4170081967
 20
175.4170081979
 40
32.5
  0
CIRCLE
  8
1_AXIS
 62
9
  6
CONTINUOUS
 10
142.4170081967
 20
175.4170081979
 40
29.5
  0
ARC
  8
0
 62
9
  6
CONTINUOUS
 10
157.5351555313
 20
231.8158886936
 40
7.3499985936
 50
198.0
 51
254.9942060893
  0
ARC
  8
0
 62
9
  6
CONTINUOUS
 10
163.3366002807
 20
229.9308850279
 40
7.3499985936
 50
249.0057939107
 51
306.0
  0
ARC
  8
0
 62
7
  6
CONTINUOUS
 10
157.5351555313
 20
231.8158886936
 40
6.35
 50
198.0
 51
254.9942060893
  0
ARC
  8
0
 62
7
  6
CONTINUOUS
 10
163.3366002807
 20
229.9308850279
 40
6.35
 50
249.0057939107
 51
306.0
  0
ARC
  8
0
 62
7
  6
CONTINUOUS
 10
148.2392010931
 20
236.6407949958
 40
1.0
 50
18.0
 51
84.5676847243
  0
ARC
  8
0
 62
9
  6
CONTINUOUS
 10
200.7272954538
 20
178.4670081979
 40
7.3499985882
 50
126.0
 51
182.9942060893
  0
ARC
  8
0
 62
7
  6
CONTINUOUS
 10
200.7272954538
 20
178.4670081979
 40
6.35
 50
126.0
 51
182.9942060893
  0
ARC
  8
0
 62
7
  6
CONTINUOUS
 10
198.8451330336
 20
199.8734332717
 40
1.0
 50
23.4323152757
 51
90.0
  0
ARC
  8
0
 62
7
  6
CONTINUOUS
 10
202.4434461327
 20
188.7989642852
 40
1.0
 50
306.0
 51
12.5676847243
  0
ARC
  8
0
 62
9
  6
CONTINUOUS
 10
191.3837665541
 20
207.2234332717
 40
7.349998596
 50
213.0057939107
 51
270.0
  0
ARC
  8
0
 62
9
  6
CONTINUOUS
 10
187.7982765151
 20
212.1584369374
 40
7.3499985936
 50
162.0
 51
218.9942060893
  0
ARC
  8
0
 62
7
  6
CONTINUOUS
 10
187.7982765151
 20
212.1584369374
 40
6.35
 50
162.0
 51
218.9942060893
  0
ARC
  8
0
 62
7
  6
CONTINUOUS
 10
191.3837665541
 20
207.2234332717
 40
6.35
 50
213.0057939107
 51
270.0
  0
ARC
  8
0
 62
7
  6
CONTINUOUS
 10
173.6931941683
 20
228.3702912979
 40
1.0
 50
59.4323152757
 51
126.0
  0
ARC
  8
0
 62
7
  6
CONTINUOUS
 10
183.1137001638
 20
221.5258930569
 40
1.0
 50
342.0
 51
48.5676847243
  0
ARC
  8
1_AXIS
 62
7
  6
CONTINUOUS
 10
286.156352459
 20
204.9170081979
 40
3.0
 50
90.0
 51
180.0
  0
ARC
  8
1_AXIS
 62
7
  6
CONTINUOUS
 10
286.156352459
 20
145.9170081979
 40
3.0
 50
180.0
 51
270.0
  0
ARC
  8
1_AXIS
 62
7
  6
CONTINUOUS
 10
322.456352459
 20
204.9170081979
 40
3.0
 50
0.0
 51
90.0
  0
ARC
  8
1_AXIS
 62
7
  6
CONTINUOUS
 10
322.456352459
 20
145.9170081979
 40
3.0
 50
270.0
 51
360.0
  0
ARC
  8
1_AXIS
 62
7
  6
CONTINUOUS
 10
294.850760013
 20
236.9170081979
 40
1.0
 50
91.4035223683
 51
170.0
  0
ARC
  8
1_AXIS
 62
7
  6
CONTINUOUS
 10
294.850760013
 20
113.9170081979
 40
1.0
 50
190.0
 51
270.0
  0
ARC
  8
1_AXIS
 62
7
  6
CONTINUOUS
 10
313.761944905
 20
236.9170081979
 40
1.0
 50
10.0
 51
90.0
  0
ARC
  8
1_AXIS
 62
7
  6
CONTINUOUS
 10
313.761944905
 20
113.9170081979
 40
1.0
 50
270.0
 51
350.0
  0
ARC
  8
0
 62
7
  6
CONTINUOUS
 10
314.306352459
 20
199.8734332717
 40
1.0
 50
0.0
 51
90.0
  0
ARC
  8
0
 62
7
  6
CONTINUOUS
 10
294.306352459
 20
199.8734332717
 40
1.0
 50
90.0
 51
180.0
  0
ARC
  8
0
 62
7
  6
CONTINUOUS
 10
314.306352459
 20
150.9605831241
 40
1.0
 50
270.0
 51
360.0
  0
ARC
  8
0
 62
7
  6
CONTINUOUS
 10
294.306352459
 20
150.9605831241
 40
1.0
 50
180.0
 51
270.0
  0
ENDSEC
  0
EOF
